ISO-10303-21;
HEADER;
FILE_DESCRIPTION (( 'STEP AP214' ),
    '1' );
FILE_NAME ('Micro_RTC-187-23.STEP',
    '2021-09-03T18:06:02',
    ( '' ),
    ( '' ),
    'SwSTEP 2.0',
    'SolidWorks 2020',
    '' );
FILE_SCHEMA (( 'AUTOMOTIVE_DESIGN' ));
ENDSEC;

DATA;
#1 =( CONVERSION_BASED_UNIT ( 'INCH', #136 ) LENGTH_UNIT ( ) NAMED_UNIT ( #2 ) );
#2 = DIMENSIONAL_EXPONENTS ( 1.000000000000000000, 0.0000000000000000000, 0.0000000000000000000, 0.0000000000000000000, 0.0000000000000000000, 0.0000000000000000000, 0.0000000000000000000 ) ;
#3 = CARTESIAN_POINT ( 'NONE',  ( -0.003999999999999999216, -4.898587196589411612E-19, 3.000000000000000444 ) ) ;
#4 = LINE ( 'NONE', #94, #99 ) ;
#5 = EDGE_CURVE ( 'NONE', #36, #21, #148, .T. ) ;
#6 = DIRECTION ( 'NONE',  ( 0.0000000000000000000, 0.0000000000000000000, 1.000000000000000000 ) ) ;
#7 = ORIENTED_EDGE ( 'NONE', *, *, #144, .F. ) ;
#8 = DIRECTION ( 'NONE',  ( -1.000000000000000000, 0.0000000000000000000, 0.0000000000000000000 ) ) ;
#9 = DIRECTION ( 'NONE',  ( 0.0000000000000000000, 0.0000000000000000000, 1.000000000000000000 ) ) ;
#10 = CARTESIAN_POINT ( 'NONE',  ( 0.09375000000000001388, 1.148106374200643401E-17, 0.3349515599793054799 ) ) ;
#11 = DIRECTION ( 'NONE',  ( -0.0000000000000000000, -0.0000000000000000000, -1.000000000000000000 ) ) ;
#12 = SURFACE_STYLE_FILL_AREA ( #77 ) ;
#13 = CARTESIAN_POINT ( 'NONE',  ( 0.0000000000000000000, 0.0000000000000000000, 0.0000000000000000000 ) ) ;
#14 = SURFACE_STYLE_USAGE ( .BOTH. , #175 ) ;
#15 = CARTESIAN_POINT ( 'NONE',  ( 0.0000000000000000000, 0.0000000000000000000, 3.000000000000000444 ) ) ;
#16 = DIRECTION ( 'NONE',  ( 1.000000000000000000, 0.0000000000000000000, -0.0000000000000000000 ) ) ;
#17 = DIRECTION ( 'NONE',  ( 0.2588190451025216832, 0.0000000000000000000, -0.9659258262890679791 ) ) ;
#18 =( NAMED_UNIT ( * ) PLANE_ANGLE_UNIT ( ) SI_UNIT ( $, .RADIAN. ) );
#19 = DIMENSIONAL_EXPONENTS ( 1.000000000000000000, 0.0000000000000000000, 0.0000000000000000000, 0.0000000000000000000, 0.0000000000000000000, 0.0000000000000000000, 0.0000000000000000000 ) ;
#20 = VECTOR ( 'NONE', #113, 39.37007874015748143 ) ;
#21 = VERTEX_POINT ( 'NONE', #26 ) ;
#22 = STYLED_ITEM ( 'NONE', ( #221 ), #170 ) ;
#23 = ADVANCED_FACE ( 'NONE', ( #111 ), #84, .T. ) ;
#24 = ORIENTED_EDGE ( 'NONE', *, *, #126, .F. ) ;
#25 = CONICAL_SURFACE ( 'NONE', #65, 0.003999999999999999216, 0.2617993877991502960 ) ;
#26 = CARTESIAN_POINT ( 'NONE',  ( -0.09375000000000001388, 0.0000000000000000000, 0.3349515599793054799 ) ) ;
#27 = CIRCLE ( 'NONE', #93, 0.09375000000000001388 ) ;
#28 = EDGE_LOOP ( 'NONE', ( #118, #151, #183, #40 ) ) ;
#29 = DIRECTION ( 'NONE',  ( -0.2588190451025216832, 3.169619151431776035E-17, 0.9659258262890679791 ) ) ;
#30 = DIRECTION ( 'NONE',  ( -0.0000000000000000000, -0.0000000000000000000, -1.000000000000000000 ) ) ;
#31 = CARTESIAN_POINT ( 'NONE',  ( 0.0000000000000000000, 0.0000000000000000000, 0.0000000000000000000 ) ) ;
#32 = CIRCLE ( 'NONE', #181, 0.09375000000000001388 ) ;
#33 = DIRECTION ( 'NONE',  ( 0.0000000000000000000, 0.0000000000000000000, -1.000000000000000000 ) ) ;
#34 =( NAMED_UNIT ( * ) PLANE_ANGLE_UNIT ( ) SI_UNIT ( $, .RADIAN. ) );
#35 = DIRECTION ( 'NONE',  ( -1.000000000000000000, 0.0000000000000000000, 0.0000000000000000000 ) ) ;
#36 = VERTEX_POINT ( 'NONE', #161 ) ;
#37 = CONICAL_SURFACE ( 'NONE', #209, 0.003999999999999999216, 0.2617993877991502960 ) ;
#38 = ADVANCED_FACE ( 'NONE', ( #184 ), #88, .T. ) ;
#39 =( CONVERSION_BASED_UNIT ( 'INCH', #224 ) LENGTH_UNIT ( ) NAMED_UNIT ( #76 ) );
#40 = ORIENTED_EDGE ( 'NONE', *, *, #199, .F. ) ;
#41 = CARTESIAN_POINT ( 'NONE',  ( 0.0000000000000000000, 0.0000000000000000000, 0.0000000000000000000 ) ) ;
#42 = VECTOR ( 'NONE', #29, 39.37007874015748143 ) ;
#43 =( CONVERSION_BASED_UNIT ( 'INCH', #73 ) LENGTH_UNIT ( ) NAMED_UNIT ( #19 ) );
#44 =( GEOMETRIC_REPRESENTATION_CONTEXT ( 3 ) GLOBAL_UNCERTAINTY_ASSIGNED_CONTEXT ( ( #50 ) ) GLOBAL_UNIT_ASSIGNED_CONTEXT ( ( #43, #18, #226 ) ) REPRESENTATION_CONTEXT ( 'NONE', 'WORKASPACE' ) );
#45 = VERTEX_POINT ( 'NONE', #67 ) ;
#46 = VERTEX_POINT ( 'NONE', #62 ) ;
#47 = PRESENTATION_LAYER_ASSIGNMENT (  '', '', ( #185 ) ) ;
#48 = DIRECTION ( 'NONE',  ( 0.0000000000000000000, 0.0000000000000000000, -1.000000000000000000 ) ) ;
#49 = CARTESIAN_POINT ( 'NONE',  ( -0.003999999999999999216, 4.898587196589411612E-19, 0.0000000000000000000 ) ) ;
#50 = UNCERTAINTY_MEASURE_WITH_UNIT (LENGTH_MEASURE( 1.000000000000000082E-05 ), #43, 'distance_accuracy_value', 'NONE');
#51 = DIRECTION ( 'NONE',  ( -0.0000000000000000000, -0.0000000000000000000, -1.000000000000000000 ) ) ;
#52 = AXIS2_PLACEMENT_3D ( 'NONE', #120, #9, #85 ) ;
#53 = DIRECTION ( 'NONE',  ( -1.000000000000000000, 0.0000000000000000000, 0.0000000000000000000 ) ) ;
#54 = CARTESIAN_POINT ( 'NONE',  ( 0.003999999999999999216, 0.0000000000000000000, 3.000000000000000444 ) ) ;
#55 = EDGE_CURVE ( 'NONE', #45, #83, #109, .T. ) ;
#56 = DIRECTION ( 'NONE',  ( 0.0000000000000000000, 0.0000000000000000000, -1.000000000000000000 ) ) ;
#57 = FILL_AREA_STYLE ('',( #155 ) ) ;
#58 = AXIS2_PLACEMENT_3D ( 'NONE', #110, #51, #8 ) ;
#59 =( GEOMETRIC_REPRESENTATION_CONTEXT ( 3 ) GLOBAL_UNCERTAINTY_ASSIGNED_CONTEXT ( ( #211 ) ) GLOBAL_UNIT_ASSIGNED_CONTEXT ( ( #1, #60, #206 ) ) REPRESENTATION_CONTEXT ( 'NONE', 'WORKASPACE' ) );
#60 =( NAMED_UNIT ( * ) PLANE_ANGLE_UNIT ( ) SI_UNIT ( $, .RADIAN. ) );
#61 = PRODUCT ( 'Micro_RTC-187-23', 'Micro_RTC-187-23', '', ( #208 ) ) ;
#62 = CARTESIAN_POINT ( 'NONE',  ( 0.003999999999999999216, 0.0000000000000000000, 0.0000000000000000000 ) ) ;
#63 = ADVANCED_FACE ( 'NONE', ( #177 ), #228, .T. ) ;
#64 = AXIS2_PLACEMENT_3D ( 'NONE', #92, #220, #205 ) ;
#65 = AXIS2_PLACEMENT_3D ( 'NONE', #15, #33, #71 ) ;
#66 = EDGE_LOOP ( 'NONE', ( #133, #198 ) ) ;
#67 = CARTESIAN_POINT ( 'NONE',  ( 0.003999999999999999216, 0.0000000000000000000, 3.000000000000000444 ) ) ;
#68 = CARTESIAN_POINT ( 'NONE',  ( 0.0000000000000000000, 0.0000000000000000000, 2.665048440020695075 ) ) ;
#69 = CARTESIAN_POINT ( 'NONE',  ( -0.09375000000000001388, 0.0000000000000000000, 2.665048440020695075 ) ) ;
#70 = CIRCLE ( 'NONE', #242, 0.003999999999999999216 ) ;
#71 = DIRECTION ( 'NONE',  ( 1.000000000000000000, 0.0000000000000000000, 0.0000000000000000000 ) ) ;
#72 = DIRECTION ( 'NONE',  ( -0.0000000000000000000, -0.0000000000000000000, -1.000000000000000000 ) ) ;
#73 = LENGTH_MEASURE_WITH_UNIT ( LENGTH_MEASURE( 0.02539999999999999897 ), #116 );
#74 = DIRECTION ( 'NONE',  ( -1.000000000000000000, 0.0000000000000000000, 0.0000000000000000000 ) ) ;
#75 =( GEOMETRIC_REPRESENTATION_CONTEXT ( 3 ) GLOBAL_UNCERTAINTY_ASSIGNED_CONTEXT ( ( #101 ) ) GLOBAL_UNIT_ASSIGNED_CONTEXT ( ( #39, #34, #188 ) ) REPRESENTATION_CONTEXT ( 'NONE', 'WORKASPACE' ) );
#76 = DIMENSIONAL_EXPONENTS ( 1.000000000000000000, 0.0000000000000000000, 0.0000000000000000000, 0.0000000000000000000, 0.0000000000000000000, 0.0000000000000000000, 0.0000000000000000000 ) ;
#77 = FILL_AREA_STYLE ('',( #97 ) ) ;
#78 = DIRECTION ( 'NONE',  ( -1.000000000000000000, 0.0000000000000000000, 0.0000000000000000000 ) ) ;
#79 = VECTOR ( 'NONE', #17, 39.37007874015748143 ) ;
#80 = EDGE_CURVE ( 'NONE', #106, #169, #149, .T. ) ;
#81 = DIRECTION ( 'NONE',  ( 1.000000000000000000, 0.0000000000000000000, -0.0000000000000000000 ) ) ;
#82 = AXIS2_PLACEMENT_3D ( 'NONE', #154, #202, #158 ) ;
#83 = VERTEX_POINT ( 'NONE', #247 ) ;
#84 = PLANE ( 'NONE',  #114 ) ;
#85 = DIRECTION ( 'NONE',  ( 1.000000000000000000, 0.0000000000000000000, 0.0000000000000000000 ) ) ;
#86 = CIRCLE ( 'NONE', #82, 0.09375000000000001388 ) ;
#87 = PRODUCT_DEFINITION ( 'UNKNOWN', '', #104, #128 ) ;
#88 = CYLINDRICAL_SURFACE ( 'NONE', #58, 0.09375000000000001388 ) ;
#89 = MECHANICAL_DESIGN_GEOMETRIC_PRESENTATION_REPRESENTATION (  '', ( #22 ), #75 ) ;
#90 = CARTESIAN_POINT ( 'NONE',  ( 0.09375000000000001388, 1.148106374200643401E-17, 2.665048440020695075 ) ) ;
#91 =( LENGTH_UNIT ( ) NAMED_UNIT ( * ) SI_UNIT ( $, .METRE. ) );
#92 = CARTESIAN_POINT ( 'NONE',  ( 0.0000000000000000000, 0.0000000000000000000, 3.000000000000000444 ) ) ;
#93 = AXIS2_PLACEMENT_3D ( 'NONE', #216, #105, #53 ) ;
#94 = CARTESIAN_POINT ( 'NONE',  ( 0.09375000000000001388, 1.148106374200643401E-17, 3.000000000000000444 ) ) ;
#95 = CARTESIAN_POINT ( 'NONE',  ( 0.0000000000000000000, 0.0000000000000000000, 0.0000000000000000000 ) ) ;
#96 = DIRECTION ( 'NONE',  ( 0.0000000000000000000, 0.0000000000000000000, -1.000000000000000000 ) ) ;
#97 = FILL_AREA_STYLE_COLOUR ( '', #167 ) ;
#98 = EDGE_CURVE ( 'NONE', #106, #21, #191, .T. ) ;
#99 = VECTOR ( 'NONE', #142, 39.37007874015748143 ) ;
#100 = DIRECTION ( 'NONE',  ( 1.000000000000000000, 0.0000000000000000000, 0.0000000000000000000 ) ) ;
#101 = UNCERTAINTY_MEASURE_WITH_UNIT (LENGTH_MEASURE( 1.000000000000000082E-05 ), #39, 'distance_accuracy_value', 'NONE');
#102 = DIRECTION ( 'NONE',  ( 0.0000000000000000000, 0.0000000000000000000, 1.000000000000000000 ) ) ;
#103 = ADVANCED_FACE ( 'NONE', ( #152 ), #37, .T. ) ;
#104 = PRODUCT_DEFINITION_FORMATION_WITH_SPECIFIED_SOURCE ( 'ANY', '', #61, .NOT_KNOWN. ) ;
#105 = DIRECTION ( 'NONE',  ( 0.0000000000000000000, 0.0000000000000000000, -1.000000000000000000 ) ) ;
#106 = VERTEX_POINT ( 'NONE', #69 ) ;
#107 = ORIENTED_EDGE ( 'NONE', *, *, #80, .T. ) ;
#108 = ADVANCED_BREP_SHAPE_REPRESENTATION ( 'Micro_RTC-187-23', ( #170, #210 ), #59 ) ;
#109 = CIRCLE ( 'NONE', #249, 0.003999999999999999216 ) ;
#110 = CARTESIAN_POINT ( 'NONE',  ( 0.0000000000000000000, 0.0000000000000000000, 3.000000000000000444 ) ) ;
#111 = FACE_OUTER_BOUND ( 'NONE', #66, .T. ) ;
#112 = DIRECTION ( 'NONE',  ( 0.0000000000000000000, 0.0000000000000000000, -1.000000000000000000 ) ) ;
#113 = DIRECTION ( 'NONE',  ( -0.2588190451025216832, -3.169619151431776035E-17, -0.9659258262890679791 ) ) ;
#114 = AXIS2_PLACEMENT_3D ( 'NONE', #179, #6, #81 ) ;
#115 = CARTESIAN_POINT ( 'NONE',  ( -0.09375000000000001388, 0.0000000000000000000, 3.000000000000000444 ) ) ;
#116 =( LENGTH_UNIT ( ) NAMED_UNIT ( * ) SI_UNIT ( $, .METRE. ) );
#117 = ORIENTED_EDGE ( 'NONE', *, *, #218, .F. ) ;
#118 = ORIENTED_EDGE ( 'NONE', *, *, #196, .F. ) ;
#119 = APPLICATION_CONTEXT ( 'automotive_design' ) ;
#120 = CARTESIAN_POINT ( 'NONE',  ( 0.0000000000000000000, 0.0000000000000000000, 0.0000000000000000000 ) ) ;
#121 = AXIS2_PLACEMENT_3D ( 'NONE', #127, #112, #186 ) ;
#122 = ORIENTED_EDGE ( 'NONE', *, *, #230, .F. ) ;
#123 = ORIENTED_EDGE ( 'NONE', *, *, #196, .T. ) ;
#124 = EDGE_LOOP ( 'NONE', ( #107, #123, #7, #234 ) ) ;
#125 = ORIENTED_EDGE ( 'NONE', *, *, #156, .T. ) ;
#126 = EDGE_CURVE ( 'NONE', #46, #162, #171, .T. ) ;
#127 = CARTESIAN_POINT ( 'NONE',  ( 0.0000000000000000000, 0.0000000000000000000, 3.000000000000000444 ) ) ;
#128 = PRODUCT_DEFINITION_CONTEXT ( 'detailed design', #129, 'design' ) ;
#129 = APPLICATION_CONTEXT ( 'automotive_design' ) ;
#130 = CLOSED_SHELL ( 'NONE', ( #243, #212, #63, #38, #103, #237, #174, #23 ) ) ;
#131 = MECHANICAL_DESIGN_GEOMETRIC_PRESENTATION_REPRESENTATION (  '', ( #185 ), #44 ) ;
#132 = CARTESIAN_POINT ( 'NONE',  ( 0.003999999999999999216, 0.0000000000000000000, 0.0000000000000000000 ) ) ;
#133 = ORIENTED_EDGE ( 'NONE', *, *, #55, .F. ) ;
#134 = DIRECTION ( 'NONE',  ( 0.0000000000000000000, 0.0000000000000000000, 1.000000000000000000 ) ) ;
#135 = SURFACE_STYLE_FILL_AREA ( #57 ) ;
#136 = LENGTH_MEASURE_WITH_UNIT ( LENGTH_MEASURE( 0.02539999999999999897 ), #231 );
#137 = AXIS2_PLACEMENT_3D ( 'NONE', #141, #56, #194 ) ;
#138 = EDGE_CURVE ( 'NONE', #46, #36, #139, .T. ) ;
#139 = CIRCLE ( 'NONE', #195, 0.003999999999999999216 ) ;
#140 = CARTESIAN_POINT ( 'NONE',  ( 0.0000000000000000000, 0.0000000000000000000, 0.3349515599793054799 ) ) ;
#141 = CARTESIAN_POINT ( 'NONE',  ( 0.0000000000000000000, 0.0000000000000000000, 3.000000000000000444 ) ) ;
#142 = DIRECTION ( 'NONE',  ( -0.0000000000000000000, -0.0000000000000000000, -1.000000000000000000 ) ) ;
#143 = VECTOR ( 'NONE', #201, 39.37007874015748143 ) ;
#144 = EDGE_CURVE ( 'NONE', #21, #162, #86, .T. ) ;
#145 = EDGE_LOOP ( 'NONE', ( #122, #125, #203, #233 ) ) ;
#146 = ORIENTED_EDGE ( 'NONE', *, *, #147, .F. ) ;
#147 = EDGE_CURVE ( 'NONE', #36, #46, #70, .T. ) ;
#148 = LINE ( 'NONE', #49, #42 ) ;
#149 = CIRCLE ( 'NONE', #180, 0.09375000000000001388 ) ;
#150 = EDGE_LOOP ( 'NONE', ( #215, #173, #117, #225 ) ) ;
#151 = ORIENTED_EDGE ( 'NONE', *, *, #218, .T. ) ;
#152 = FACE_OUTER_BOUND ( 'NONE', #165, .T. ) ;
#153 = SURFACE_STYLE_USAGE ( .BOTH. , #193 ) ;
#154 = CARTESIAN_POINT ( 'NONE',  ( 0.0000000000000000000, 0.0000000000000000000, 0.3349515599793054799 ) ) ;
#155 = FILL_AREA_STYLE_COLOUR ( '', #239 ) ;
#156 = EDGE_CURVE ( 'NONE', #83, #45, #229, .T. ) ;
#157 = CARTESIAN_POINT ( 'NONE',  ( 0.0000000000000000000, 0.0000000000000000000, 0.0000000000000000000 ) ) ;
#158 = DIRECTION ( 'NONE',  ( -1.000000000000000000, 0.0000000000000000000, 0.0000000000000000000 ) ) ;
#159 = FACE_OUTER_BOUND ( 'NONE', #172, .T. ) ;
#160 = PRODUCT_RELATED_PRODUCT_CATEGORY ( 'part', '', ( #61 ) ) ;
#161 = CARTESIAN_POINT ( 'NONE',  ( -0.003999999999999999216, 5.985461230832687873E-18, 0.0000000000000000000 ) ) ;
#162 = VERTEX_POINT ( 'NONE', #10 ) ;
#163 = ORIENTED_EDGE ( 'NONE', *, *, #126, .T. ) ;
#164 = ORIENTED_EDGE ( 'NONE', *, *, #138, .F. ) ;
#165 = EDGE_LOOP ( 'NONE', ( #217, #164, #163, #219 ) ) ;
#166 = VECTOR ( 'NONE', #241, 39.37007874015748143 ) ;
#167 = COLOUR_RGB ( '',0.7921568627450980005, 0.8196078431372548767, 0.9333333333333333481 ) ;
#168 = PRESENTATION_LAYER_ASSIGNMENT (  '', '', ( #22 ) ) ;
#169 = VERTEX_POINT ( 'NONE', #90 ) ;
#170 = MANIFOLD_SOLID_BREP ( 'Mirror1', #130 ) ;
#171 = LINE ( 'NONE', #132, #143 ) ;
#172 = EDGE_LOOP ( 'NONE', ( #146, #214, #197, #24 ) ) ;
#173 = ORIENTED_EDGE ( 'NONE', *, *, #230, .T. ) ;
#174 = ADVANCED_FACE ( 'NONE', ( #245 ), #25, .T. ) ;
#175 = SURFACE_SIDE_STYLE ('',( #12 ) ) ;
#176 = DIRECTION ( 'NONE',  ( -1.000000000000000000, 0.0000000000000000000, 0.0000000000000000000 ) ) ;
#177 = FACE_OUTER_BOUND ( 'NONE', #124, .T. ) ;
#178 = APPLICATION_PROTOCOL_DEFINITION ( 'draft international standard', 'automotive_design', 1998, #129 ) ;
#179 = CARTESIAN_POINT ( 'NONE',  ( 0.0000000000000000000, 0.0000000000000000000, 3.000000000000000444 ) ) ;
#180 = AXIS2_PLACEMENT_3D ( 'NONE', #68, #96, #248 ) ;
#181 = AXIS2_PLACEMENT_3D ( 'NONE', #140, #30, #78 ) ;
#182 = PRODUCT_DEFINITION_SHAPE ( 'NONE', 'NONE',  #87 ) ;
#183 = ORIENTED_EDGE ( 'NONE', *, *, #98, .T. ) ;
#184 = FACE_OUTER_BOUND ( 'NONE', #28, .T. ) ;
#185 = STYLED_ITEM ( 'NONE', ( #246 ), #108 ) ;
#186 = DIRECTION ( 'NONE',  ( -1.000000000000000000, 0.0000000000000000000, 0.0000000000000000000 ) ) ;
#187 = DIRECTION ( 'NONE',  ( 0.0000000000000000000, 0.0000000000000000000, 1.000000000000000000 ) ) ;
#188 =( NAMED_UNIT ( * ) SI_UNIT ( $, .STERADIAN. ) SOLID_ANGLE_UNIT ( ) );
#189 = EDGE_CURVE ( 'NONE', #45, #169, #222, .T. ) ;
#190 = SHAPE_DEFINITION_REPRESENTATION ( #182, #108 ) ;
#191 = LINE ( 'NONE', #115, #166 ) ;
#192 = APPLICATION_PROTOCOL_DEFINITION ( 'draft international standard', 'automotive_design', 1998, #119 ) ;
#193 = SURFACE_SIDE_STYLE ('',( #135 ) ) ;
#194 = DIRECTION ( 'NONE',  ( 1.000000000000000000, 0.0000000000000000000, 0.0000000000000000000 ) ) ;
#195 = AXIS2_PLACEMENT_3D ( 'NONE', #95, #11, #74 ) ;
#196 = EDGE_CURVE ( 'NONE', #169, #162, #4, .T. ) ;
#197 = ORIENTED_EDGE ( 'NONE', *, *, #144, .T. ) ;
#198 = ORIENTED_EDGE ( 'NONE', *, *, #156, .F. ) ;
#199 = EDGE_CURVE ( 'NONE', #162, #21, #32, .T. ) ;
#200 = DIRECTION ( 'NONE',  ( 1.000000000000000000, 0.0000000000000000000, 0.0000000000000000000 ) ) ;
#201 = DIRECTION ( 'NONE',  ( 0.2588190451025216832, 0.0000000000000000000, 0.9659258262890679791 ) ) ;
#202 = DIRECTION ( 'NONE',  ( -0.0000000000000000000, -0.0000000000000000000, -1.000000000000000000 ) ) ;
#203 = ORIENTED_EDGE ( 'NONE', *, *, #189, .T. ) ;
#204 = FACE_OUTER_BOUND ( 'NONE', #150, .T. ) ;
#205 = DIRECTION ( 'NONE',  ( -1.000000000000000000, 0.0000000000000000000, 0.0000000000000000000 ) ) ;
#206 =( NAMED_UNIT ( * ) SI_UNIT ( $, .STERADIAN. ) SOLID_ANGLE_UNIT ( ) );
#207 = LINE ( 'NONE', #3, #20 ) ;
#208 = PRODUCT_CONTEXT ( 'NONE', #119, 'mechanical' ) ;
#209 = AXIS2_PLACEMENT_3D ( 'NONE', #13, #187, #200 ) ;
#210 = AXIS2_PLACEMENT_3D ( 'NONE', #41, #102, #100 ) ;
#211 = UNCERTAINTY_MEASURE_WITH_UNIT (LENGTH_MEASURE( 1.000000000000000082E-05 ), #1, 'distance_accuracy_value', 'NONE');
#212 = ADVANCED_FACE ( 'NONE', ( #159 ), #227, .T. ) ;
#213 = ORIENTED_EDGE ( 'NONE', *, *, #147, .T. ) ;
#214 = ORIENTED_EDGE ( 'NONE', *, *, #5, .T. ) ;
#215 = ORIENTED_EDGE ( 'NONE', *, *, #55, .T. ) ;
#216 = CARTESIAN_POINT ( 'NONE',  ( 0.0000000000000000000, 0.0000000000000000000, 2.665048440020695075 ) ) ;
#217 = ORIENTED_EDGE ( 'NONE', *, *, #5, .F. ) ;
#218 = EDGE_CURVE ( 'NONE', #169, #106, #27, .T. ) ;
#219 = ORIENTED_EDGE ( 'NONE', *, *, #199, .T. ) ;
#220 = DIRECTION ( 'NONE',  ( -0.0000000000000000000, -0.0000000000000000000, -1.000000000000000000 ) ) ;
#221 = PRESENTATION_STYLE_ASSIGNMENT (( #153 ) ) ;
#222 = LINE ( 'NONE', #54, #79 ) ;
#223 = FACE_OUTER_BOUND ( 'NONE', #235, .T. ) ;
#224 = LENGTH_MEASURE_WITH_UNIT ( LENGTH_MEASURE( 0.02539999999999999897 ), #91 );
#225 = ORIENTED_EDGE ( 'NONE', *, *, #189, .F. ) ;
#226 =( NAMED_UNIT ( * ) SI_UNIT ( $, .STERADIAN. ) SOLID_ANGLE_UNIT ( ) );
#227 = CONICAL_SURFACE ( 'NONE', #52, 0.003999999999999999216, 0.2617993877991502960 ) ;
#228 = CYLINDRICAL_SURFACE ( 'NONE', #64, 0.09375000000000001388 ) ;
#229 = CIRCLE ( 'NONE', #121, 0.003999999999999999216 ) ;
#230 = EDGE_CURVE ( 'NONE', #83, #106, #207, .T. ) ;
#231 =( LENGTH_UNIT ( ) NAMED_UNIT ( * ) SI_UNIT ( $, .METRE. ) );
#232 = PLANE ( 'NONE',  #244 ) ;
#233 = ORIENTED_EDGE ( 'NONE', *, *, #80, .F. ) ;
#234 = ORIENTED_EDGE ( 'NONE', *, *, #98, .F. ) ;
#235 = EDGE_LOOP ( 'NONE', ( #240, #213 ) ) ;
#236 = CARTESIAN_POINT ( 'NONE',  ( 0.0000000000000000000, 0.0000000000000000000, 3.000000000000000444 ) ) ;
#237 = ADVANCED_FACE ( 'NONE', ( #223 ), #232, .F. ) ;
#238 = CONICAL_SURFACE ( 'NONE', #137, 0.003999999999999999216, 0.2617993877991502960 ) ;
#239 = COLOUR_RGB ( '',0.7921568627450980005, 0.8196078431372548767, 0.9333333333333333481 ) ;
#240 = ORIENTED_EDGE ( 'NONE', *, *, #138, .T. ) ;
#241 = DIRECTION ( 'NONE',  ( -0.0000000000000000000, -0.0000000000000000000, -1.000000000000000000 ) ) ;
#242 = AXIS2_PLACEMENT_3D ( 'NONE', #31, #72, #176 ) ;
#243 = ADVANCED_FACE ( 'NONE', ( #204 ), #238, .T. ) ;
#244 = AXIS2_PLACEMENT_3D ( 'NONE', #157, #134, #16 ) ;
#245 = FACE_OUTER_BOUND ( 'NONE', #145, .T. ) ;
#246 = PRESENTATION_STYLE_ASSIGNMENT (( #14 ) ) ;
#247 = CARTESIAN_POINT ( 'NONE',  ( -0.003999999999999999216, -5.985461230832684791E-18, 3.000000000000000444 ) ) ;
#248 = DIRECTION ( 'NONE',  ( -1.000000000000000000, 0.0000000000000000000, 0.0000000000000000000 ) ) ;
#249 = AXIS2_PLACEMENT_3D ( 'NONE', #236, #48, #35 ) ;
ENDSEC;
END-ISO-10303-21;
