ISO-10303-21;
HEADER;
FILE_DESCRIPTION (( 'STEP AP214' ),
    '1' );
FILE_NAME ('59595.STEP',
    '2023-07-24T15:49:53',
    ( '' ),
    ( '' ),
    'SwSTEP 2.0',
    'SolidWorks 2023',
    '' );
FILE_SCHEMA (( 'AUTOMOTIVE_DESIGN' ));
ENDSEC;

DATA;
#1 = DIRECTION ( 'NONE',  ( 0.000000000000000000, -1.000000000000000000, -0.000000000000000000 ) ) ;
#2 = CARTESIAN_POINT ( 'NONE',  ( 4.898587196589412829E-16, 0.000000000000000000, 4.000000000000000000 ) ) ;
#3 = APPLICATION_PROTOCOL_DEFINITION ( 'draft international standard', 'automotive_design', 1998, #116 ) ;
#4 =( NAMED_UNIT ( * ) PLANE_ANGLE_UNIT ( ) SI_UNIT ( $, .RADIAN. ) );
#5 = DIRECTION ( 'NONE',  ( -0.000000000000000000, -1.000000000000000000, -0.000000000000000000 ) ) ;
#6 = STYLED_ITEM ( 'NONE', ( #241 ), #155 ) ;
#7 = AXIS2_PLACEMENT_3D ( 'NONE', #270, #275, #119 ) ;
#8 = DIRECTION ( 'NONE',  ( 0.000000000000000000, 0.000000000000000000, -1.000000000000000000 ) ) ;
#9 = CLOSED_SHELL ( 'NONE', ( #287, #146, #137, #271 ) ) ;
#10 =( GEOMETRIC_REPRESENTATION_CONTEXT ( 3 ) GLOBAL_UNCERTAINTY_ASSIGNED_CONTEXT ( ( #205 ) ) GLOBAL_UNIT_ASSIGNED_CONTEXT ( ( #187, #98, #147 ) ) REPRESENTATION_CONTEXT ( 'NONE', 'WORKASPACE' ) );
#11 = ADVANCED_FACE ( 'NONE', ( #229 ), #277, .T. ) ;
#12 =( GEOMETRIC_REPRESENTATION_CONTEXT ( 3 ) GLOBAL_UNCERTAINTY_ASSIGNED_CONTEXT ( ( #76 ) ) GLOBAL_UNIT_ASSIGNED_CONTEXT ( ( #206, #123, #228 ) ) REPRESENTATION_CONTEXT ( 'NONE', 'WORKASPACE' ) );
#13 = CARTESIAN_POINT ( 'NONE',  ( -3.851859888774471706E-31, 16.00000000000000000, 0.000000000000000000 ) ) ;
#14 = VERTEX_POINT ( 'NONE', #272 ) ;
#15 = AXIS2_PLACEMENT_3D ( 'NONE', #156, #261, #88 ) ;
#16 = VERTEX_POINT ( 'NONE', #101 ) ;
#17 = DIRECTION ( 'NONE',  ( -1.000000000000000000, 6.774641867623654571E-17, 0.000000000000000000 ) ) ;
#18 = PLANE ( 'NONE',  #171 ) ;
#19 = CARTESIAN_POINT ( 'NONE',  ( -4.000000000000000000, 16.00000000000000000, 0.000000000000000000 ) ) ;
#20 = EDGE_LOOP ( 'NONE', ( #49, #83, #183, #283 ) ) ;
#21 =( LENGTH_UNIT ( ) NAMED_UNIT ( * ) SI_UNIT ( .MILLI., .METRE. ) );
#22 = PRESENTATION_STYLE_ASSIGNMENT (( #29 ) ) ;
#23 =( NAMED_UNIT ( * ) SI_UNIT ( $, .STERADIAN. ) SOLID_ANGLE_UNIT ( ) );
#24 = SHAPE_DEFINITION_REPRESENTATION ( #242, #182 ) ;
#25 = SURFACE_STYLE_FILL_AREA ( #225 ) ;
#26 = DIRECTION ( 'NONE',  ( 0.000000000000000000, 0.000000000000000000, -1.000000000000000000 ) ) ;
#27 =( NAMED_UNIT ( * ) SI_UNIT ( $, .STERADIAN. ) SOLID_ANGLE_UNIT ( ) );
#28 =( GEOMETRIC_REPRESENTATION_CONTEXT ( 3 ) GLOBAL_UNCERTAINTY_ASSIGNED_CONTEXT ( ( #51 ) ) GLOBAL_UNIT_ASSIGNED_CONTEXT ( ( #75, #163, #23 ) ) REPRESENTATION_CONTEXT ( 'NONE', 'WORKASPACE' ) );
#29 = SURFACE_STYLE_USAGE ( .BOTH. , #100 ) ;
#30 = LINE ( 'NONE', #2, #56 ) ;
#31 = CARTESIAN_POINT ( 'NONE',  ( 0.000000000000000000, 0.000000000000000000, 0.000000000000000000 ) ) ;
#32 = EDGE_CURVE ( 'NONE', #16, #45, #193, .T. ) ;
#33 = CIRCLE ( 'NONE', #235, 3.999999999999996447 ) ;
#34 = EDGE_CURVE ( 'NONE', #14, #89, #253, .T. ) ;
#35 = CARTESIAN_POINT ( 'NONE',  ( 0.000000000000000000, 16.00000000000000000, 0.000000000000000000 ) ) ;
#36 = ORIENTED_EDGE ( 'NONE', *, *, #221, .T. ) ;
#37 = SURFACE_STYLE_FILL_AREA ( #42 ) ;
#38 = ORIENTED_EDGE ( 'NONE', *, *, #122, .F. ) ;
#39 = MECHANICAL_DESIGN_GEOMETRIC_PRESENTATION_REPRESENTATION (  '', ( #173 ), #240 ) ;
#40 = DIRECTION ( 'NONE',  ( -0.000000000000000000, -1.000000000000000000, -0.000000000000000000 ) ) ;
#41 = MECHANICAL_DESIGN_GEOMETRIC_PRESENTATION_REPRESENTATION (  '', ( #105 ), #280 ) ;
#42 = FILL_AREA_STYLE ('',( #153 ) ) ;
#43 = LINE ( 'NONE', #174, #82 ) ;
#44 = EDGE_CURVE ( 'NONE', #238, #45, #30, .T. ) ;
#45 = VERTEX_POINT ( 'NONE', #92 ) ;
#46 = ADVANCED_FACE ( 'NONE', ( #166 ), #248, .T. ) ;
#47 = CARTESIAN_POINT ( 'NONE',  ( 4.898587196589412829E-16, 16.00000000000000000, 4.000000000000000000 ) ) ;
#48 = FILL_AREA_STYLE_COLOUR ( '', #279 ) ;
#49 = ORIENTED_EDGE ( 'NONE', *, *, #106, .F. ) ;
#50 = DIRECTION ( 'NONE',  ( -1.000000000000000000, 0.000000000000000000, 0.000000000000000000 ) ) ;
#51 = UNCERTAINTY_MEASURE_WITH_UNIT (LENGTH_MEASURE( 1.000000000000000082E-05 ), #75, 'distance_accuracy_value', 'NONE');
#52 = FILL_AREA_STYLE ('',( #226 ) ) ;
#53 = ORIENTED_EDGE ( 'NONE', *, *, #106, .T. ) ;
#54 = DIRECTION ( 'NONE',  ( 6.774641867623654571E-17, 1.000000000000000000, -0.000000000000000000 ) ) ;
#55 = AXIS2_PLACEMENT_3D ( 'NONE', #13, #110, #196 ) ;
#56 = VECTOR ( 'NONE', #78, 1000.000000000000000 ) ;
#57 = CARTESIAN_POINT ( 'NONE',  ( 9.179154486911863099E-33, 16.00000000000000000, 0.000000000000000000 ) ) ;
#58 = FACE_OUTER_BOUND ( 'NONE', #168, .T. ) ;
#59 = VERTEX_POINT ( 'NONE', #263 ) ;
#60 = DIRECTION ( 'NONE',  ( 6.774641867623654571E-17, 1.000000000000000000, -0.000000000000000000 ) ) ;
#61 = EDGE_CURVE ( 'NONE', #45, #16, #286, .T. ) ;
#62 = MECHANICAL_DESIGN_GEOMETRIC_PRESENTATION_REPRESENTATION (  '', ( #81 ), #28 ) ;
#63 = FACE_OUTER_BOUND ( 'NONE', #269, .T. ) ;
#64 = EDGE_CURVE ( 'NONE', #89, #159, #43, .T. ) ;
#65 = SURFACE_SIDE_STYLE ('',( #25 ) ) ;
#66 =( LENGTH_UNIT ( ) NAMED_UNIT ( * ) SI_UNIT ( .MILLI., .METRE. ) );
#67 = CARTESIAN_POINT ( 'NONE',  ( 0.000000000000000000, 16.00000000000000000, 0.000000000000000000 ) ) ;
#68 = COLOUR_RGB ( '',1.000000000000000000, 0.000000000000000000, 0.000000000000000000 ) ;
#69 = DIRECTION ( 'NONE',  ( -0.000000000000000000, -1.000000000000000000, -0.000000000000000000 ) ) ;
#70 = FACE_OUTER_BOUND ( 'NONE', #252, .T. ) ;
#71 = CARTESIAN_POINT ( 'NONE',  ( 0.000000000000000000, 0.000000000000000000, 0.000000000000000000 ) ) ;
#72 = FILL_AREA_STYLE_COLOUR ( '', #68 ) ;
#73 =( NAMED_UNIT ( * ) SI_UNIT ( $, .STERADIAN. ) SOLID_ANGLE_UNIT ( ) );
#74 = FILL_AREA_STYLE ('',( #48 ) ) ;
#75 =( LENGTH_UNIT ( ) NAMED_UNIT ( * ) SI_UNIT ( .MILLI., .METRE. ) );
#76 = UNCERTAINTY_MEASURE_WITH_UNIT (LENGTH_MEASURE( 1.000000000000000082E-05 ), #206, 'distance_accuracy_value', 'NONE');
#77 = CARTESIAN_POINT ( 'NONE',  ( 4.000000000000000000, 63.00000000000000000, 4.898587196589411843E-16 ) ) ;
#78 = DIRECTION ( 'NONE',  ( -0.000000000000000000, -1.000000000000000000, -0.000000000000000000 ) ) ;
#79 = CLOSED_SHELL ( 'NONE', ( #11, #46, #192, #210 ) ) ;
#80 = DIRECTION ( 'NONE',  ( -1.000000000000000000, 0.000000000000000000, 0.000000000000000000 ) ) ;
#81 = STYLED_ITEM ( 'NONE', ( #118 ), #11 ) ;
#82 = VECTOR ( 'NONE', #160, 1000.000000000000000 ) ;
#83 = ORIENTED_EDGE ( 'NONE', *, *, #34, .T. ) ;
#84 = ORIENTED_EDGE ( 'NONE', *, *, #122, .T. ) ;
#85 = ORIENTED_EDGE ( 'NONE', *, *, #94, .T. ) ;
#86 = EDGE_CURVE ( 'NONE', #59, #16, #266, .T. ) ;
#87 = AXIS2_PLACEMENT_3D ( 'NONE', #31, #69, #26 ) ;
#88 = DIRECTION ( 'NONE',  ( -1.000000000000000000, 0.000000000000000000, 0.000000000000000000 ) ) ;
#89 = VERTEX_POINT ( 'NONE', #19 ) ;
#90 = ORIENTED_EDGE ( 'NONE', *, *, #61, .F. ) ;
#91 = PRODUCT_CONTEXT ( 'NONE', #116, 'mechanical' ) ;
#92 = CARTESIAN_POINT ( 'NONE',  ( 4.898587196589412829E-16, 0.000000000000000000, 4.000000000000000000 ) ) ;
#93 = MECHANICAL_DESIGN_GEOMETRIC_PRESENTATION_REPRESENTATION (  '', ( #6 ), #258 ) ;
#94 = EDGE_CURVE ( 'NONE', #238, #59, #224, .T. ) ;
#95 = CIRCLE ( 'NONE', #136, 4.000000000000000000 ) ;
#96 = SURFACE_STYLE_USAGE ( .BOTH. , #124 ) ;
#97 =( NAMED_UNIT ( * ) SI_UNIT ( $, .STERADIAN. ) SOLID_ANGLE_UNIT ( ) );
#98 =( NAMED_UNIT ( * ) PLANE_ANGLE_UNIT ( ) SI_UNIT ( $, .RADIAN. ) );
#99 = CYLINDRICAL_SURFACE ( 'NONE', #172, 3.999999999999998224 ) ;
#100 = SURFACE_SIDE_STYLE ('',( #185 ) ) ;
#101 = CARTESIAN_POINT ( 'NONE',  ( 0.000000000000000000, 0.000000000000000000, -4.000000000000000000 ) ) ;
#102 = CARTESIAN_POINT ( 'NONE',  ( 3.184081677783117402E-15, 63.00000000000000000, 0.000000000000000000 ) ) ;
#103 = DIRECTION ( 'NONE',  ( 0.000000000000000000, 0.000000000000000000, -1.000000000000000000 ) ) ;
#104 = PRESENTATION_LAYER_ASSIGNMENT (  '', '', ( #6 ) ) ;
#105 = STYLED_ITEM ( 'NONE', ( #22 ), #250 ) ;
#106 = EDGE_CURVE ( 'NONE', #14, #179, #220, .T. ) ;
#107 = MECHANICAL_DESIGN_GEOMETRIC_PRESENTATION_REPRESENTATION (  '', ( #230 ), #12 ) ;
#108 = PRESENTATION_LAYER_ASSIGNMENT (  '', '', ( #105 ) ) ;
#109 = EDGE_CURVE ( 'NONE', #179, #159, #33, .T. ) ;
#110 = DIRECTION ( 'NONE',  ( 6.774641867623654571E-17, 1.000000000000000000, -0.000000000000000000 ) ) ;
#111 = ORIENTED_EDGE ( 'NONE', *, *, #44, .F. ) ;
#112 = AXIS2_PLACEMENT_3D ( 'NONE', #236, #243, #195 ) ;
#113 = DIRECTION ( 'NONE',  ( -0.000000000000000000, -1.000000000000000000, -0.000000000000000000 ) ) ;
#114 = ORIENTED_EDGE ( 'NONE', *, *, #44, .T. ) ;
#115 = VECTOR ( 'NONE', #176, 1000.000000000000000 ) ;
#116 = APPLICATION_CONTEXT ( 'automotive_design' ) ;
#117 = PLANE ( 'NONE',  #255 ) ;
#118 = PRESENTATION_STYLE_ASSIGNMENT (( #127 ) ) ;
#119 = DIRECTION ( 'NONE',  ( 1.000000000000000000, 0.000000000000000000, 0.000000000000000000 ) ) ;
#120 = PRESENTATION_STYLE_ASSIGNMENT (( #256 ) ) ;
#121 = CARTESIAN_POINT ( 'NONE',  ( 0.000000000000000000, 0.000000000000000000, 0.000000000000000000 ) ) ;
#122 = EDGE_CURVE ( 'NONE', #89, #14, #180, .T. ) ;
#123 =( NAMED_UNIT ( * ) PLANE_ANGLE_UNIT ( ) SI_UNIT ( $, .RADIAN. ) );
#124 = SURFACE_SIDE_STYLE ('',( #251 ) ) ;
#125 = PLANE ( 'NONE',  #259 ) ;
#126 = PRESENTATION_STYLE_ASSIGNMENT (( #201 ) ) ;
#127 = SURFACE_STYLE_USAGE ( .BOTH. , #231 ) ;
#128 = EDGE_CURVE ( 'NONE', #159, #179, #149, .T. ) ;
#129 = DIRECTION ( 'NONE',  ( 6.774641867623654571E-17, 1.000000000000000000, -0.000000000000000000 ) ) ;
#130 = AXIS2_PLACEMENT_3D ( 'NONE', #278, #223, #284 ) ;
#131 = APPLICATION_CONTEXT ( 'automotive_design' ) ;
#132 = DIRECTION ( 'NONE',  ( 0.000000000000000000, 0.000000000000000000, -1.000000000000000000 ) ) ;
#133 = SURFACE_SIDE_STYLE ('',( #37 ) ) ;
#134 = ORIENTED_EDGE ( 'NONE', *, *, #128, .T. ) ;
#135 = AXIS2_PLACEMENT_3D ( 'NONE', #121, #5, #103 ) ;
#136 = AXIS2_PLACEMENT_3D ( 'NONE', #67, #165, #247 ) ;
#137 = ADVANCED_FACE ( 'NONE', ( #282 ), #260, .T. ) ;
#138 = CARTESIAN_POINT ( 'NONE',  ( 0.000000000000000000, 0.000000000000000000, -4.000000000000000000 ) ) ;
#139 = COLOUR_RGB ( '',1.000000000000000000, 0.000000000000000000, 0.000000000000000000 ) ;
#140 = DIRECTION ( 'NONE',  ( -0.000000000000000000, -1.000000000000000000, -0.000000000000000000 ) ) ;
#141 = FILL_AREA_STYLE ('',( #72 ) ) ;
#142 = ORIENTED_EDGE ( 'NONE', *, *, #32, .F. ) ;
#143 = SURFACE_STYLE_FILL_AREA ( #74 ) ;
#144 =( NAMED_UNIT ( * ) PLANE_ANGLE_UNIT ( ) SI_UNIT ( $, .RADIAN. ) );
#145 = CYLINDRICAL_SURFACE ( 'NONE', #157, 4.000000000000000000 ) ;
#146 = ADVANCED_FACE ( 'NONE', ( #58 ), #18, .F. ) ;
#147 =( NAMED_UNIT ( * ) SI_UNIT ( $, .STERADIAN. ) SOLID_ANGLE_UNIT ( ) );
#148 = UNCERTAINTY_MEASURE_WITH_UNIT (LENGTH_MEASURE( 1.000000000000000082E-05 ), #268, 'distance_accuracy_value', 'NONE');
#149 = CIRCLE ( 'NONE', #246, 3.999999999999996447 ) ;
#150 = VECTOR ( 'NONE', #40, 1000.000000000000000 ) ;
#151 = PRODUCT ( '59595', '59595', '', ( #91 ) ) ;
#152 = PRESENTATION_LAYER_ASSIGNMENT (  '', '', ( #173 ) ) ;
#153 = FILL_AREA_STYLE_COLOUR ( '', #184 ) ;
#154 = ORIENTED_EDGE ( 'NONE', *, *, #61, .T. ) ;
#155 = MANIFOLD_SOLID_BREP ( 'Revolve - Tool Body (Straight Shanked)', #9 ) ;
#156 = CARTESIAN_POINT ( 'NONE',  ( 3.184081677783117402E-15, 63.00000000000000000, 0.000000000000000000 ) ) ;
#157 = AXIS2_PLACEMENT_3D ( 'NONE', #204, #140, #162 ) ;
#158 = SURFACE_STYLE_USAGE ( .BOTH. , #133 ) ;
#159 = VERTEX_POINT ( 'NONE', #276 ) ;
#160 = DIRECTION ( 'NONE',  ( 6.774641867623654571E-17, 1.000000000000000000, -0.000000000000000000 ) ) ;
#161 = ORIENTED_EDGE ( 'NONE', *, *, #109, .T. ) ;
#162 = DIRECTION ( 'NONE',  ( 0.000000000000000000, 0.000000000000000000, -1.000000000000000000 ) ) ;
#163 =( NAMED_UNIT ( * ) PLANE_ANGLE_UNIT ( ) SI_UNIT ( $, .RADIAN. ) );
#164 = CARTESIAN_POINT ( 'NONE',  ( 4.000000000000000000, 63.00000000000000000, 0.000000000000000000 ) ) ;
#165 = DIRECTION ( 'NONE',  ( -0.000000000000000000, -1.000000000000000000, -0.000000000000000000 ) ) ;
#166 = FACE_OUTER_BOUND ( 'NONE', #264, .T. ) ;
#167 = DIRECTION ( 'NONE',  ( -6.774641867623654571E-17, -1.000000000000000000, 0.000000000000000000 ) ) ;
#168 = EDGE_LOOP ( 'NONE', ( #38, #233 ) ) ;
#169 = DIRECTION ( 'NONE',  ( 1.000000000000000000, -6.774641867623654571E-17, 0.000000000000000000 ) ) ;
#170 = FILL_AREA_STYLE_COLOUR ( '', #139 ) ;
#171 = AXIS2_PLACEMENT_3D ( 'NONE', #57, #237, #17 ) ;
#172 = AXIS2_PLACEMENT_3D ( 'NONE', #102, #54, #50 ) ;
#173 = STYLED_ITEM ( 'NONE', ( #120 ), #192 ) ;
#174 = CARTESIAN_POINT ( 'NONE',  ( -3.999999999999994671, 63.00000000000000000, 0.000000000000000000 ) ) ;
#175 = AXIS2_PLACEMENT_3D ( 'NONE', #35, #113, #132 ) ;
#176 = DIRECTION ( 'NONE',  ( 6.774641867623654571E-17, 1.000000000000000000, -0.000000000000000000 ) ) ;
#177 = EDGE_LOOP ( 'NONE', ( #36, #114, #142, #222 ) ) ;
#178 = DIRECTION ( 'NONE',  ( -1.000000000000000000, 0.000000000000000000, 0.000000000000000000 ) ) ;
#179 = VERTEX_POINT ( 'NONE', #77 ) ;
#180 = CIRCLE ( 'NONE', #55, 4.000000000000000000 ) ;
#181 = ORIENTED_EDGE ( 'NONE', *, *, #221, .F. ) ;
#182 = ADVANCED_BREP_SHAPE_REPRESENTATION ( '59595', ( #250, #155, #7 ), #274 ) ;
#183 = ORIENTED_EDGE ( 'NONE', *, *, #64, .T. ) ;
#184 = COLOUR_RGB ( '',0.7921568627450980005, 0.8196078431372548767, 0.9333333333333333481 ) ;
#185 = SURFACE_STYLE_FILL_AREA ( #52 ) ;
#186 = COLOUR_RGB ( '',0.7921568627450980005, 0.8196078431372548767, 0.9333333333333333481 ) ;
#187 =( LENGTH_UNIT ( ) NAMED_UNIT ( * ) SI_UNIT ( .MILLI., .METRE. ) );
#188 = UNCERTAINTY_MEASURE_WITH_UNIT (LENGTH_MEASURE( 1.000000000000000082E-05 ), #200, 'distance_accuracy_value', 'NONE');
#189 =( NAMED_UNIT ( * ) SI_UNIT ( $, .STERADIAN. ) SOLID_ANGLE_UNIT ( ) );
#190 = ORIENTED_EDGE ( 'NONE', *, *, #128, .F. ) ;
#191 =( NAMED_UNIT ( * ) PLANE_ANGLE_UNIT ( ) SI_UNIT ( $, .RADIAN. ) );
#192 = ADVANCED_FACE ( 'NONE', ( #63 ), #145, .T. ) ;
#193 = CIRCLE ( 'NONE', #135, 4.000000000000000000 ) ;
#194 = FILL_AREA_STYLE ('',( #208 ) ) ;
#195 = DIRECTION ( 'NONE',  ( 0.000000000000000000, 0.000000000000000000, -1.000000000000000000 ) ) ;
#196 = DIRECTION ( 'NONE',  ( -1.000000000000000000, 0.000000000000000000, 0.000000000000000000 ) ) ;
#197 = AXIS2_PLACEMENT_3D ( 'NONE', #203, #129, #245 ) ;
#198 = ORIENTED_EDGE ( 'NONE', *, *, #86, .T. ) ;
#199 = EDGE_LOOP ( 'NONE', ( #84, #53, #190, #267 ) ) ;
#200 =( LENGTH_UNIT ( ) NAMED_UNIT ( * ) SI_UNIT ( .MILLI., .METRE. ) );
#201 = SURFACE_STYLE_USAGE ( .BOTH. , #232 ) ;
#202 = FACE_OUTER_BOUND ( 'NONE', #218, .T. ) ;
#203 = CARTESIAN_POINT ( 'NONE',  ( -3.851859888774471706E-31, 16.00000000000000000, 0.000000000000000000 ) ) ;
#204 = CARTESIAN_POINT ( 'NONE',  ( 0.000000000000000000, 0.000000000000000000, 0.000000000000000000 ) ) ;
#205 = UNCERTAINTY_MEASURE_WITH_UNIT (LENGTH_MEASURE( 1.000000000000000082E-05 ), #187, 'distance_accuracy_value', 'NONE');
#206 =( LENGTH_UNIT ( ) NAMED_UNIT ( * ) SI_UNIT ( .MILLI., .METRE. ) );
#207 = PRESENTATION_STYLE_ASSIGNMENT (( #96 ) ) ;
#208 = FILL_AREA_STYLE_COLOUR ( '', #212 ) ;
#209 = PRODUCT_RELATED_PRODUCT_CATEGORY ( 'part', '', ( #151 ) ) ;
#210 = ADVANCED_FACE ( 'NONE', ( #202 ), #117, .T. ) ;
#211 = UNCERTAINTY_MEASURE_WITH_UNIT (LENGTH_MEASURE( 1.000000000000000082E-05 ), #66, 'distance_accuracy_value', 'NONE');
#212 = COLOUR_RGB ( '',1.000000000000000000, 0.000000000000000000, 0.000000000000000000 ) ;
#213 = PRESENTATION_LAYER_ASSIGNMENT (  '', '', ( #234 ) ) ;
#214 = PRESENTATION_LAYER_ASSIGNMENT (  '', '', ( #230 ) ) ;
#215 = DIRECTION ( 'NONE',  ( 6.774641867623654571E-17, 1.000000000000000000, -0.000000000000000000 ) ) ;
#216 = CARTESIAN_POINT ( 'NONE',  ( 4.000000000000001776, 63.00000000000000000, 4.898587196589410857E-16 ) ) ;
#217 = MECHANICAL_DESIGN_GEOMETRIC_PRESENTATION_REPRESENTATION (  '', ( #234 ), #10 ) ;
#218 = EDGE_LOOP ( 'NONE', ( #244, #154 ) ) ;
#219 = PRODUCT_DEFINITION ( 'UNKNOWN', '', #265, #273 ) ;
#220 = LINE ( 'NONE', #216, #115 ) ;
#221 = EDGE_CURVE ( 'NONE', #59, #238, #95, .T. ) ;
#222 = ORIENTED_EDGE ( 'NONE', *, *, #86, .F. ) ;
#223 = DIRECTION ( 'NONE',  ( 0.000000000000000000, 1.000000000000000000, 0.000000000000000000 ) ) ;
#224 = CIRCLE ( 'NONE', #175, 4.000000000000000000 ) ;
#225 = FILL_AREA_STYLE ('',( #170 ) ) ;
#226 = FILL_AREA_STYLE_COLOUR ( '', #186 ) ;
#227 = APPLICATION_PROTOCOL_DEFINITION ( 'draft international standard', 'automotive_design', 1998, #131 ) ;
#228 =( NAMED_UNIT ( * ) SI_UNIT ( $, .STERADIAN. ) SOLID_ANGLE_UNIT ( ) );
#229 = FACE_OUTER_BOUND ( 'NONE', #177, .T. ) ;
#230 = STYLED_ITEM ( 'NONE', ( #126 ), #210 ) ;
#231 = SURFACE_SIDE_STYLE ('',( #257 ) ) ;
#232 = SURFACE_SIDE_STYLE ('',( #143 ) ) ;
#233 = ORIENTED_EDGE ( 'NONE', *, *, #34, .F. ) ;
#234 = STYLED_ITEM ( 'NONE', ( #207 ), #46 ) ;
#235 = AXIS2_PLACEMENT_3D ( 'NONE', #281, #215, #178 ) ;
#236 = CARTESIAN_POINT ( 'NONE',  ( 0.000000000000000000, 0.000000000000000000, 0.000000000000000000 ) ) ;
#237 = DIRECTION ( 'NONE',  ( 6.774641867623654571E-17, 1.000000000000000000, -0.000000000000000000 ) ) ;
#238 = VERTEX_POINT ( 'NONE', #47 ) ;
#239 = PRESENTATION_LAYER_ASSIGNMENT (  '', '', ( #81 ) ) ;
#240 =( GEOMETRIC_REPRESENTATION_CONTEXT ( 3 ) GLOBAL_UNCERTAINTY_ASSIGNED_CONTEXT ( ( #148 ) ) GLOBAL_UNIT_ASSIGNED_CONTEXT ( ( #268, #4, #189 ) ) REPRESENTATION_CONTEXT ( 'NONE', 'WORKASPACE' ) );
#241 = PRESENTATION_STYLE_ASSIGNMENT (( #158 ) ) ;
#242 = PRODUCT_DEFINITION_SHAPE ( 'NONE', 'NONE',  #219 ) ;
#243 = DIRECTION ( 'NONE',  ( -0.000000000000000000, -1.000000000000000000, -0.000000000000000000 ) ) ;
#244 = ORIENTED_EDGE ( 'NONE', *, *, #32, .T. ) ;
#245 = DIRECTION ( 'NONE',  ( -1.000000000000000000, 0.000000000000000000, 0.000000000000000000 ) ) ;
#246 = AXIS2_PLACEMENT_3D ( 'NONE', #262, #60, #80 ) ;
#247 = DIRECTION ( 'NONE',  ( 0.000000000000000000, 0.000000000000000000, -1.000000000000000000 ) ) ;
#248 = PLANE ( 'NONE',  #130 ) ;
#249 = FACE_OUTER_BOUND ( 'NONE', #199, .T. ) ;
#250 = MANIFOLD_SOLID_BREP ( 'Revolve - Cutting Edge', #79 ) ;
#251 = SURFACE_STYLE_FILL_AREA ( #141 ) ;
#252 = EDGE_LOOP ( 'NONE', ( #134, #161 ) ) ;
#253 = CIRCLE ( 'NONE', #197, 4.000000000000000000 ) ;
#254 = UNCERTAINTY_MEASURE_WITH_UNIT (LENGTH_MEASURE( 1.000000000000000082E-05 ), #21, 'distance_accuracy_value', 'NONE');
#255 = AXIS2_PLACEMENT_3D ( 'NONE', #71, #1, #8 ) ;
#256 = SURFACE_STYLE_USAGE ( .BOTH. , #65 ) ;
#257 = SURFACE_STYLE_FILL_AREA ( #194 ) ;
#258 =( GEOMETRIC_REPRESENTATION_CONTEXT ( 3 ) GLOBAL_UNCERTAINTY_ASSIGNED_CONTEXT ( ( #188 ) ) GLOBAL_UNIT_ASSIGNED_CONTEXT ( ( #200, #285, #97 ) ) REPRESENTATION_CONTEXT ( 'NONE', 'WORKASPACE' ) );
#259 = AXIS2_PLACEMENT_3D ( 'NONE', #164, #167, #169 ) ;
#260 = CYLINDRICAL_SURFACE ( 'NONE', #15, 3.999999999999998224 ) ;
#261 = DIRECTION ( 'NONE',  ( 6.774641867623654571E-17, 1.000000000000000000, -0.000000000000000000 ) ) ;
#262 = CARTESIAN_POINT ( 'NONE',  ( 3.184081677783117402E-15, 63.00000000000000000, 0.000000000000000000 ) ) ;
#263 = CARTESIAN_POINT ( 'NONE',  ( 0.000000000000000000, 16.00000000000000000, -4.000000000000000000 ) ) ;
#264 = EDGE_LOOP ( 'NONE', ( #181, #288 ) ) ;
#265 = PRODUCT_DEFINITION_FORMATION_WITH_SPECIFIED_SOURCE ( 'ANY', '', #151, .NOT_KNOWN. ) ;
#266 = LINE ( 'NONE', #138, #150 ) ;
#267 = ORIENTED_EDGE ( 'NONE', *, *, #64, .F. ) ;
#268 =( LENGTH_UNIT ( ) NAMED_UNIT ( * ) SI_UNIT ( .MILLI., .METRE. ) );
#269 = EDGE_LOOP ( 'NONE', ( #111, #85, #198, #90 ) ) ;
#270 = CARTESIAN_POINT ( 'NONE',  ( 0.000000000000000000, 0.000000000000000000, 0.000000000000000000 ) ) ;
#271 = ADVANCED_FACE ( 'NONE', ( #70 ), #125, .F. ) ;
#272 = CARTESIAN_POINT ( 'NONE',  ( 4.000000000000000000, 16.00000000000000000, 4.898587196589411843E-16 ) ) ;
#273 = PRODUCT_DEFINITION_CONTEXT ( 'detailed design', #131, 'design' ) ;
#274 =( GEOMETRIC_REPRESENTATION_CONTEXT ( 3 ) GLOBAL_UNCERTAINTY_ASSIGNED_CONTEXT ( ( #254 ) ) GLOBAL_UNIT_ASSIGNED_CONTEXT ( ( #21, #191, #73 ) ) REPRESENTATION_CONTEXT ( 'NONE', 'WORKASPACE' ) );
#275 = DIRECTION ( 'NONE',  ( 0.000000000000000000, 0.000000000000000000, 1.000000000000000000 ) ) ;
#276 = CARTESIAN_POINT ( 'NONE',  ( -3.999999999999993339, 63.00000000000000000, 0.000000000000000000 ) ) ;
#277 = CYLINDRICAL_SURFACE ( 'NONE', #87, 4.000000000000000000 ) ;
#278 = CARTESIAN_POINT ( 'NONE',  ( 0.000000000000000000, 16.00000000000000000, 0.000000000000000000 ) ) ;
#279 = COLOUR_RGB ( '',1.000000000000000000, 0.000000000000000000, 0.000000000000000000 ) ;
#280 =( GEOMETRIC_REPRESENTATION_CONTEXT ( 3 ) GLOBAL_UNCERTAINTY_ASSIGNED_CONTEXT ( ( #211 ) ) GLOBAL_UNIT_ASSIGNED_CONTEXT ( ( #66, #144, #27 ) ) REPRESENTATION_CONTEXT ( 'NONE', 'WORKASPACE' ) );
#281 = CARTESIAN_POINT ( 'NONE',  ( 3.184081677783117402E-15, 63.00000000000000000, 0.000000000000000000 ) ) ;
#282 = FACE_OUTER_BOUND ( 'NONE', #20, .T. ) ;
#283 = ORIENTED_EDGE ( 'NONE', *, *, #109, .F. ) ;
#284 = DIRECTION ( 'NONE',  ( 0.000000000000000000, -0.000000000000000000, 1.000000000000000000 ) ) ;
#285 =( NAMED_UNIT ( * ) PLANE_ANGLE_UNIT ( ) SI_UNIT ( $, .RADIAN. ) );
#286 = CIRCLE ( 'NONE', #112, 4.000000000000000000 ) ;
#287 = ADVANCED_FACE ( 'NONE', ( #249 ), #99, .T. ) ;
#288 = ORIENTED_EDGE ( 'NONE', *, *, #94, .F. ) ;
ENDSEC;
END-ISO-10303-21;
