ISO-10303-21;
HEADER;
FILE_DESCRIPTION (( 'STEP AP214' ),
    '1' );
FILE_NAME ('83770.STEP',
    '2023-07-05T19:24:37',
    ( '' ),
    ( '' ),
    'SwSTEP 2.0',
    'SolidWorks 2023',
    '' );
FILE_SCHEMA (( 'AUTOMOTIVE_DESIGN' ));
ENDSEC;

DATA;
#1 = ORIENTED_EDGE ( 'NONE', *, *, #226, .T. ) ;
#2 = AXIS2_PLACEMENT_3D ( 'NONE', #335, #143, #281 ) ;
#3 = LINE ( 'NONE', #110, #268 ) ;
#4 = ORIENTED_EDGE ( 'NONE', *, *, #74, .T. ) ;
#5 = FILL_AREA_STYLE_COLOUR ( '', #340 ) ;
#6 = ORIENTED_EDGE ( 'NONE', *, *, #21, .F. ) ;
#7 = DIRECTION ( 'NONE',  ( -0.000000000000000000, -1.000000000000000000, -0.000000000000000000 ) ) ;
#8 = VERTEX_POINT ( 'NONE', #294 ) ;
#9 = CIRCLE ( 'NONE', #330, 0.06249999999999999306 ) ;
#10 = CIRCLE ( 'NONE', #87, 0.06249999999999997918 ) ;
#11 = DIRECTION ( 'NONE',  ( 0.000000000000000000, 0.000000000000000000, -1.000000000000000000 ) ) ;
#12 = FACE_OUTER_BOUND ( 'NONE', #273, .T. ) ;
#13 = STYLED_ITEM ( 'NONE', ( #307 ), #115 ) ;
#14 =( NAMED_UNIT ( * ) PLANE_ANGLE_UNIT ( ) SI_UNIT ( $, .RADIAN. ) );
#15 = LENGTH_MEASURE_WITH_UNIT ( LENGTH_MEASURE( 0.02539999999999999897 ), #43 );
#16 = FACE_OUTER_BOUND ( 'NONE', #266, .T. ) ;
#17 = SURFACE_STYLE_FILL_AREA ( #73 ) ;
#18 = PRODUCT_DEFINITION ( 'UNKNOWN', '', #135, #123 ) ;
#19 = DIMENSIONAL_EXPONENTS ( 1.000000000000000000, 0.000000000000000000, 0.000000000000000000, 0.000000000000000000, 0.000000000000000000, 0.000000000000000000, 0.000000000000000000 ) ;
#20 = SURFACE_STYLE_USAGE ( .BOTH. , #194 ) ;
#21 = EDGE_CURVE ( 'NONE', #132, #204, #42, .T. ) ;
#22 = LENGTH_MEASURE_WITH_UNIT ( LENGTH_MEASURE( 0.02539999999999999897 ), #195 );
#23 = CARTESIAN_POINT ( 'NONE',  ( 0.000000000000000000, 0.5000000000000000000, 0.000000000000000000 ) ) ;
#24 = UNCERTAINTY_MEASURE_WITH_UNIT (LENGTH_MEASURE( 1.000000000000000082E-05 ), #310, 'distance_accuracy_value', 'NONE');
#25 = EDGE_CURVE ( 'NONE', #333, #152, #49, .T. ) ;
#26 = AXIS2_PLACEMENT_3D ( 'NONE', #23, #103, #201 ) ;
#27 = DIRECTION ( 'NONE',  ( -1.407099293755282515E-16, 1.000000000000000000, -0.000000000000000000 ) ) ;
#28 = CARTESIAN_POINT ( 'NONE',  ( 0.000000000000000000, 0.000000000000000000, 0.000000000000000000 ) ) ;
#29 = ORIENTED_EDGE ( 'NONE', *, *, #250, .F. ) ;
#30 = PRESENTATION_STYLE_ASSIGNMENT (( #83 ) ) ;
#31 = AXIS2_PLACEMENT_3D ( 'NONE', #189, #341, #95 ) ;
#32 = CARTESIAN_POINT ( 'NONE',  ( 0.000000000000000000, 0.5000000000000000000, -0.06249999999999997918 ) ) ;
#33 = CARTESIAN_POINT ( 'NONE',  ( 0.000000000000000000, 0.000000000000000000, 0.000000000000000000 ) ) ;
#34 = ORIENTED_EDGE ( 'NONE', *, *, #125, .F. ) ;
#35 = DIRECTION ( 'NONE',  ( -1.407099293755282515E-16, 1.000000000000000000, 0.000000000000000000 ) ) ;
#36 = ORIENTED_EDGE ( 'NONE', *, *, #216, .T. ) ;
#37 = AXIS2_PLACEMENT_3D ( 'NONE', #46, #66, #218 ) ;
#38 = VECTOR ( 'NONE', #241, 39.37007874015748143 ) ;
#39 =( LENGTH_UNIT ( ) NAMED_UNIT ( * ) SI_UNIT ( $, .METRE. ) );
#40 =( NAMED_UNIT ( * ) SI_UNIT ( $, .STERADIAN. ) SOLID_ANGLE_UNIT ( ) );
#41 =( LENGTH_UNIT ( ) NAMED_UNIT ( * ) SI_UNIT ( $, .METRE. ) );
#42 = CIRCLE ( 'NONE', #282, 0.06249999999999965999 ) ;
#43 =( LENGTH_UNIT ( ) NAMED_UNIT ( * ) SI_UNIT ( $, .METRE. ) );
#44 = STYLED_ITEM ( 'NONE', ( #30 ), #180 ) ;
#45 =( CONVERSION_BASED_UNIT ( 'INCH', #342 ) LENGTH_UNIT ( ) NAMED_UNIT ( #53 ) );
#46 = CARTESIAN_POINT ( 'NONE',  ( 1.836970198721030181E-16, 1.500000000000000222, 0.000000000000000000 ) ) ;
#47 = DIRECTION ( 'NONE',  ( 0.000000000000000000, 0.000000000000000000, -1.000000000000000000 ) ) ;
#48 = DIMENSIONAL_EXPONENTS ( 1.000000000000000000, 0.000000000000000000, 0.000000000000000000, 0.000000000000000000, 0.000000000000000000, 0.000000000000000000, 0.000000000000000000 ) ;
#49 = CIRCLE ( 'NONE', #192, 0.06249999999999979183 ) ;
#50 = PLANE ( 'NONE',  #258 ) ;
#51 = AXIS2_PLACEMENT_3D ( 'NONE', #72, #284, #230 ) ;
#52 = SURFACE_STYLE_FILL_AREA ( #320 ) ;
#53 = DIMENSIONAL_EXPONENTS ( 1.000000000000000000, 0.000000000000000000, 0.000000000000000000, 0.000000000000000000, 0.000000000000000000, 0.000000000000000000, 0.000000000000000000 ) ;
#54 = FILL_AREA_STYLE_COLOUR ( '', #212 ) ;
#55 =( NAMED_UNIT ( * ) SI_UNIT ( $, .STERADIAN. ) SOLID_ANGLE_UNIT ( ) );
#56 = CIRCLE ( 'NONE', #78, 0.06249999999999999306 ) ;
#57 = STYLED_ITEM ( 'NONE', ( #142 ), #336 ) ;
#58 = CARTESIAN_POINT ( 'NONE',  ( 0.000000000000000000, 0.000000000000000000, -0.06249999999999997918 ) ) ;
#59 = VERTEX_POINT ( 'NONE', #182 ) ;
#60 = CARTESIAN_POINT ( 'NONE',  ( 0.000000000000000000, 0.03608439182435141390, 0.000000000000000000 ) ) ;
#61 = VECTOR ( 'NONE', #263, 39.37007874015748143 ) ;
#62 = SURFACE_STYLE_FILL_AREA ( #299 ) ;
#63 = DIRECTION ( 'NONE',  ( -1.407099293755282515E-16, 1.000000000000000000, -0.000000000000000000 ) ) ;
#64 = ORIENTED_EDGE ( 'NONE', *, *, #25, .T. ) ;
#65 =( NAMED_UNIT ( * ) SI_UNIT ( $, .STERADIAN. ) SOLID_ANGLE_UNIT ( ) );
#66 = DIRECTION ( 'NONE',  ( -1.407099293755282515E-16, 1.000000000000000000, -0.000000000000000000 ) ) ;
#67 =( NAMED_UNIT ( * ) SI_UNIT ( $, .STERADIAN. ) SOLID_ANGLE_UNIT ( ) );
#68 = SURFACE_STYLE_FILL_AREA ( #98 ) ;
#69 = PRESENTATION_LAYER_ASSIGNMENT (  '', '', ( #228 ) ) ;
#70 =( LENGTH_UNIT ( ) NAMED_UNIT ( * ) SI_UNIT ( $, .METRE. ) );
#71 = DIMENSIONAL_EXPONENTS ( 1.000000000000000000, 0.000000000000000000, 0.000000000000000000, 0.000000000000000000, 0.000000000000000000, 0.000000000000000000, 0.000000000000000000 ) ;
#72 = CARTESIAN_POINT ( 'NONE',  ( 0.000000000000000000, 0.000000000000000000, 0.000000000000000000 ) ) ;
#73 = FILL_AREA_STYLE ('',( #54 ) ) ;
#74 = EDGE_CURVE ( 'NONE', #8, #59, #56, .T. ) ;
#75 = CARTESIAN_POINT ( 'NONE',  ( 0.06249999999999997918, 1.500000000000000222, 0.000000000000000000 ) ) ;
#76 = PRESENTATION_STYLE_ASSIGNMENT (( #100 ) ) ;
#77 = DIRECTION ( 'NONE',  ( -0.000000000000000000, -1.000000000000000000, -0.000000000000000000 ) ) ;
#78 = AXIS2_PLACEMENT_3D ( 'NONE', #60, #114, #11 ) ;
#79 = PRESENTATION_LAYER_ASSIGNMENT (  '', '', ( #262 ) ) ;
#80 = ORIENTED_EDGE ( 'NONE', *, *, #259, .T. ) ;
#81 = DIRECTION ( 'NONE',  ( -1.407099293755282515E-16, 1.000000000000000000, -0.000000000000000000 ) ) ;
#82 = ORIENTED_EDGE ( 'NONE', *, *, #25, .F. ) ;
#83 = SURFACE_STYLE_USAGE ( .BOTH. , #155 ) ;
#84 = DIRECTION ( 'NONE',  ( -1.000000000000000000, 0.000000000000000000, 0.000000000000000000 ) ) ;
#85 = FILL_AREA_STYLE_COLOUR ( '', #104 ) ;
#86 = ORIENTED_EDGE ( 'NONE', *, *, #315, .T. ) ;
#87 = AXIS2_PLACEMENT_3D ( 'NONE', #112, #7, #291 ) ;
#88 = ADVANCED_FACE ( 'NONE', ( #12 ), #169, .T. ) ;
#89 = FILL_AREA_STYLE ('',( #85 ) ) ;
#90 = ORIENTED_EDGE ( 'NONE', *, *, #345, .T. ) ;
#91 = FILL_AREA_STYLE ('',( #162 ) ) ;
#92 = CARTESIAN_POINT ( 'NONE',  ( 7.654042494670956004E-18, 0.000000000000000000, 0.06249999999999997918 ) ) ;
#93 = COLOUR_RGB ( '',0.7921568627450980005, 0.8196078431372548767, 0.9333333333333333481 ) ;
#94 =( NAMED_UNIT ( * ) PLANE_ANGLE_UNIT ( ) SI_UNIT ( $, .RADIAN. ) );
#95 = DIRECTION ( 'NONE',  ( 0.000000000000000000, 0.000000000000000000, 1.000000000000000000 ) ) ;
#96 = ADVANCED_FACE ( 'NONE', ( #121 ), #222, .T. ) ;
#97 = SURFACE_SIDE_STYLE ('',( #165 ) ) ;
#98 = FILL_AREA_STYLE ('',( #280 ) ) ;
#99 = CLOSED_SHELL ( 'NONE', ( #180, #96, #170, #153, #115 ) ) ;
#100 = SURFACE_STYLE_USAGE ( .BOTH. , #318 ) ;
#101 = SHAPE_DEFINITION_REPRESENTATION ( #163, #297 ) ;
#102 = CONICAL_SURFACE ( 'NONE', #31, 68.19097667594041923, 1.047197551196600074 ) ;
#103 = DIRECTION ( 'NONE',  ( 0.000000000000000000, 1.000000000000000000, 0.000000000000000000 ) ) ;
#104 = COLOUR_RGB ( '',1.000000000000000000, 0.000000000000000000, 0.000000000000000000 ) ;
#105 = CARTESIAN_POINT ( 'NONE',  ( 3.244069492476312449E-16, 0.5000000000000000000, 0.000000000000000000 ) ) ;
#106 = ORIENTED_EDGE ( 'NONE', *, *, #259, .F. ) ;
#107 = FACE_OUTER_BOUND ( 'NONE', #109, .T. ) ;
#108 = COLOUR_RGB ( '',1.000000000000000000, 0.000000000000000000, 0.000000000000000000 ) ;
#109 = EDGE_LOOP ( 'NONE', ( #351, #36, #238, #215 ) ) ;
#110 = CARTESIAN_POINT ( 'NONE',  ( 0.000000000000000000, 0.000000000000000000, 0.000000000000000000 ) ) ;
#111 = EDGE_CURVE ( 'NONE', #292, #59, #313, .T. ) ;
#112 = CARTESIAN_POINT ( 'NONE',  ( 0.000000000000000000, 0.5000000000000000000, 0.000000000000000000 ) ) ;
#113 = CARTESIAN_POINT ( 'NONE',  ( 7.654042494670956004E-18, 0.5000000000000000000, 0.06249999999999997918 ) ) ;
#114 = DIRECTION ( 'NONE',  ( -0.000000000000000000, -1.000000000000000000, -0.000000000000000000 ) ) ;
#115 = ADVANCED_FACE ( 'NONE', ( #16 ), #102, .T. ) ;
#116 = PLANE ( 'NONE',  #348 ) ;
#117 = LENGTH_MEASURE_WITH_UNIT ( LENGTH_MEASURE( 0.02539999999999999897 ), #70 );
#118 = FILL_AREA_STYLE_COLOUR ( '', #167 ) ;
#119 = PRESENTATION_LAYER_ASSIGNMENT (  '', '', ( #57 ) ) ;
#120 = SURFACE_STYLE_USAGE ( .BOTH. , #97 ) ;
#121 = FACE_OUTER_BOUND ( 'NONE', #177, .T. ) ;
#122 =( NAMED_UNIT ( * ) PLANE_ANGLE_UNIT ( ) SI_UNIT ( $, .RADIAN. ) );
#123 = PRODUCT_DEFINITION_CONTEXT ( 'detailed design', #244, 'design' ) ;
#124 = MECHANICAL_DESIGN_GEOMETRIC_PRESENTATION_REPRESENTATION (  '', ( #228 ), #190 ) ;
#125 = EDGE_CURVE ( 'NONE', #59, #8, #9, .T. ) ;
#126 =( CONVERSION_BASED_UNIT ( 'INCH', #22 ) LENGTH_UNIT ( ) NAMED_UNIT ( #48 ) );
#127 = UNCERTAINTY_MEASURE_WITH_UNIT (LENGTH_MEASURE( 1.000000000000000082E-05 ), #198, 'distance_accuracy_value', 'NONE');
#128 =( NAMED_UNIT ( * ) PLANE_ANGLE_UNIT ( ) SI_UNIT ( $, .RADIAN. ) );
#129 = CYLINDRICAL_SURFACE ( 'NONE', #134, 0.06249999999999997918 ) ;
#130 = SURFACE_STYLE_FILL_AREA ( #89 ) ;
#131 = LINE ( 'NONE', #28, #183 ) ;
#132 = VERTEX_POINT ( 'NONE', #175 ) ;
#133 = LINE ( 'NONE', #58, #38 ) ;
#134 = AXIS2_PLACEMENT_3D ( 'NONE', #285, #287, #227 ) ;
#135 = PRODUCT_DEFINITION_FORMATION_WITH_SPECIFIED_SOURCE ( 'ANY', '', #247, .NOT_KNOWN. ) ;
#136 = DIRECTION ( 'NONE',  ( -1.000000000000000000, 0.000000000000000000, 0.000000000000000000 ) ) ;
#137 = DIRECTION ( 'NONE',  ( 0.000000000000000000, 0.4999999999999979461, 0.8660254037844397068 ) ) ;
#138 = ORIENTED_EDGE ( 'NONE', *, *, #74, .F. ) ;
#139 = EDGE_LOOP ( 'NONE', ( #245, #329, #4 ) ) ;
#140 =( NAMED_UNIT ( * ) SI_UNIT ( $, .STERADIAN. ) SOLID_ANGLE_UNIT ( ) );
#141 = ORIENTED_EDGE ( 'NONE', *, *, #233, .F. ) ;
#142 = PRESENTATION_STYLE_ASSIGNMENT (( #120 ) ) ;
#143 = DIRECTION ( 'NONE',  ( -0.000000000000000000, -1.000000000000000000, -0.000000000000000000 ) ) ;
#144 =( GEOMETRIC_REPRESENTATION_CONTEXT ( 3 ) GLOBAL_UNCERTAINTY_ASSIGNED_CONTEXT ( ( #319 ) ) GLOBAL_UNIT_ASSIGNED_CONTEXT ( ( #126, #128, #261 ) ) REPRESENTATION_CONTEXT ( 'NONE', 'WORKASPACE' ) );
#145 =( CONVERSION_BASED_UNIT ( 'INCH', #15 ) LENGTH_UNIT ( ) NAMED_UNIT ( #172 ) );
#146 = APPLICATION_PROTOCOL_DEFINITION ( 'draft international standard', 'automotive_design', 1998, #244 ) ;
#147 = PRESENTATION_LAYER_ASSIGNMENT (  '', '', ( #305 ) ) ;
#148 = FACE_OUTER_BOUND ( 'NONE', #179, .T. ) ;
#149 = CLOSED_SHELL ( 'NONE', ( #312, #337, #88, #160 ) ) ;
#150 = VECTOR ( 'NONE', #323, 39.37007874015748143 ) ;
#151 = CARTESIAN_POINT ( 'NONE',  ( 0.06249999999999991673, 1.500000000000000222, 7.654042494670923648E-18 ) ) ;
#152 = VERTEX_POINT ( 'NONE', #344 ) ;
#153 = ADVANCED_FACE ( 'NONE', ( #232 ), #129, .T. ) ;
#154 = CARTESIAN_POINT ( 'NONE',  ( 3.244069492476312449E-16, 0.5000000000000000000, 0.000000000000000000 ) ) ;
#155 = SURFACE_SIDE_STYLE ('',( #130 ) ) ;
#156 = MECHANICAL_DESIGN_GEOMETRIC_PRESENTATION_REPRESENTATION (  '', ( #13 ), #239 ) ;
#157 = EDGE_LOOP ( 'NONE', ( #298, #158, #271, #34 ) ) ;
#158 = ORIENTED_EDGE ( 'NONE', *, *, #250, .T. ) ;
#159 = ORIENTED_EDGE ( 'NONE', *, *, #111, .T. ) ;
#160 = ADVANCED_FACE ( 'NONE', ( #349 ), #50, .F. ) ;
#161 = CIRCLE ( 'NONE', #283, 0.06249999999999979183 ) ;
#162 = FILL_AREA_STYLE_COLOUR ( '', #93 ) ;
#163 = PRODUCT_DEFINITION_SHAPE ( 'NONE', 'NONE',  #18 ) ;
#164 =( NAMED_UNIT ( * ) SI_UNIT ( $, .STERADIAN. ) SOLID_ANGLE_UNIT ( ) );
#165 = SURFACE_STYLE_FILL_AREA ( #91 ) ;
#166 = APPLICATION_CONTEXT ( 'automotive_design' ) ;
#167 = COLOUR_RGB ( '',1.000000000000000000, 0.000000000000000000, 0.000000000000000000 ) ;
#168 = CIRCLE ( 'NONE', #229, 0.06249999999999997918 ) ;
#169 = CYLINDRICAL_SURFACE ( 'NONE', #37, 0.06249999999999972938 ) ;
#170 = ADVANCED_FACE ( 'NONE', ( #148 ), #343, .T. ) ;
#171 =( NAMED_UNIT ( * ) SI_UNIT ( $, .STERADIAN. ) SOLID_ANGLE_UNIT ( ) );
#172 = DIMENSIONAL_EXPONENTS ( 1.000000000000000000, 0.000000000000000000, 0.000000000000000000, 0.000000000000000000, 0.000000000000000000, 0.000000000000000000, 0.000000000000000000 ) ;
#173 =( GEOMETRIC_REPRESENTATION_CONTEXT ( 3 ) GLOBAL_UNCERTAINTY_ASSIGNED_CONTEXT ( ( #24 ) ) GLOBAL_UNIT_ASSIGNED_CONTEXT ( ( #310, #221, #164 ) ) REPRESENTATION_CONTEXT ( 'NONE', 'WORKASPACE' ) );
#174 = FACE_OUTER_BOUND ( 'NONE', #139, .T. ) ;
#175 = CARTESIAN_POINT ( 'NONE',  ( -0.06249999999999933387, 0.5000000000000000000, 0.000000000000000000 ) ) ;
#176 = AXIS2_PLACEMENT_3D ( 'NONE', #105, #27, #296 ) ;
#177 = EDGE_LOOP ( 'NONE', ( #80, #159, #138, #141 ) ) ;
#178 = CARTESIAN_POINT ( 'NONE',  ( -0.06249999999999953509, 1.500000000000000222, 0.000000000000000000 ) ) ;
#179 = EDGE_LOOP ( 'NONE', ( #106, #29 ) ) ;
#180 = ADVANCED_FACE ( 'NONE', ( #174 ), #306, .T. ) ;
#181 = CARTESIAN_POINT ( 'NONE',  ( 0.000000000000000000, 39.37007874015748143, 0.000000000000000000 ) ) ;
#182 = CARTESIAN_POINT ( 'NONE',  ( 7.654042494670957545E-18, 0.03608439182435141390, 0.06250000000000000000 ) ) ;
#183 = VECTOR ( 'NONE', #237, 39.37007874015748854 ) ;
#184 = VERTEX_POINT ( 'NONE', #32 ) ;
#185 =( NAMED_UNIT ( * ) PLANE_ANGLE_UNIT ( ) SI_UNIT ( $, .RADIAN. ) );
#186 = EDGE_LOOP ( 'NONE', ( #90, #64 ) ) ;
#187 = DIRECTION ( 'NONE',  ( -1.407099293755282515E-16, 1.000000000000000000, -0.000000000000000000 ) ) ;
#188 =( NAMED_UNIT ( * ) PLANE_ANGLE_UNIT ( ) SI_UNIT ( $, .RADIAN. ) );
#189 = CARTESIAN_POINT ( 'NONE',  ( 0.000000000000000000, 39.37007874015748143, 0.000000000000000000 ) ) ;
#190 =( GEOMETRIC_REPRESENTATION_CONTEXT ( 3 ) GLOBAL_UNCERTAINTY_ASSIGNED_CONTEXT ( ( #127 ) ) GLOBAL_UNIT_ASSIGNED_CONTEXT ( ( #198, #122, #171 ) ) REPRESENTATION_CONTEXT ( 'NONE', 'WORKASPACE' ) );
#191 = PRESENTATION_STYLE_ASSIGNMENT (( #252 ) ) ;
#192 = AXIS2_PLACEMENT_3D ( 'NONE', #242, #327, #84 ) ;
#193 = MECHANICAL_DESIGN_GEOMETRIC_PRESENTATION_REPRESENTATION (  '', ( #57 ), #240 ) ;
#194 = SURFACE_SIDE_STYLE ('',( #52 ) ) ;
#195 =( LENGTH_UNIT ( ) NAMED_UNIT ( * ) SI_UNIT ( $, .METRE. ) );
#196 = DIMENSIONAL_EXPONENTS ( 1.000000000000000000, 0.000000000000000000, 0.000000000000000000, 0.000000000000000000, 0.000000000000000000, 0.000000000000000000, 0.000000000000000000 ) ;
#197 = APPLICATION_PROTOCOL_DEFINITION ( 'draft international standard', 'automotive_design', 1998, #166 ) ;
#198 =( CONVERSION_BASED_UNIT ( 'INCH', #257 ) LENGTH_UNIT ( ) NAMED_UNIT ( #19 ) );
#199 = COLOUR_RGB ( '',1.000000000000000000, 0.000000000000000000, 0.000000000000000000 ) ;
#200 = AXIS2_PLACEMENT_3D ( 'NONE', #181, #243, #350 ) ;
#201 = DIRECTION ( 'NONE',  ( 0.000000000000000000, -0.000000000000000000, 1.000000000000000000 ) ) ;
#202 = FILL_AREA_STYLE_COLOUR ( '', #108 ) ;
#203 = LINE ( 'NONE', #151, #61 ) ;
#204 = VERTEX_POINT ( 'NONE', #208 ) ;
#205 = PRESENTATION_LAYER_ASSIGNMENT (  '', '', ( #13 ) ) ;
#206 = CYLINDRICAL_SURFACE ( 'NONE', #276, 0.06249999999999972938 ) ;
#207 = ORIENTED_EDGE ( 'NONE', *, *, #216, .F. ) ;
#208 = CARTESIAN_POINT ( 'NONE',  ( 0.06249999999999997224, 0.5000000000000000000, 7.654042494670928271E-18 ) ) ;
#209 = ORIENTED_EDGE ( 'NONE', *, *, #125, .T. ) ;
#210 = SURFACE_SIDE_STYLE ('',( #62 ) ) ;
#211 = VERTEX_POINT ( 'NONE', #33 ) ;
#212 = COLOUR_RGB ( '',1.000000000000000000, 0.000000000000000000, 0.000000000000000000 ) ;
#213 = LINE ( 'NONE', #178, #150 ) ;
#214 = CIRCLE ( 'NONE', #176, 0.06249999999999965999 ) ;
#215 = ORIENTED_EDGE ( 'NONE', *, *, #308, .F. ) ;
#216 = EDGE_CURVE ( 'NONE', #204, #333, #203, .T. ) ;
#217 = CARTESIAN_POINT ( 'NONE',  ( 3.244069492476312449E-16, 0.5000000000000000000, 0.000000000000000000 ) ) ;
#218 = DIRECTION ( 'NONE',  ( -1.000000000000000000, 0.000000000000000000, 0.000000000000000000 ) ) ;
#219 = UNCERTAINTY_MEASURE_WITH_UNIT (LENGTH_MEASURE( 1.000000000000000082E-05 ), #338, 'distance_accuracy_value', 'NONE');
#220 = SURFACE_SIDE_STYLE ('',( #225 ) ) ;
#221 =( NAMED_UNIT ( * ) PLANE_ANGLE_UNIT ( ) SI_UNIT ( $, .RADIAN. ) );
#222 = CYLINDRICAL_SURFACE ( 'NONE', #2, 0.06249999999999997918 ) ;
#223 =( NAMED_UNIT ( * ) PLANE_ANGLE_UNIT ( ) SI_UNIT ( $, .RADIAN. ) );
#224 = SURFACE_STYLE_USAGE ( .BOTH. , #303 ) ;
#225 = SURFACE_STYLE_FILL_AREA ( #248 ) ;
#226 = EDGE_CURVE ( 'NONE', #204, #132, #214, .T. ) ;
#227 = DIRECTION ( 'NONE',  ( 0.000000000000000000, 0.000000000000000000, -1.000000000000000000 ) ) ;
#228 = STYLED_ITEM ( 'NONE', ( #76 ), #153 ) ;
#229 = AXIS2_PLACEMENT_3D ( 'NONE', #321, #77, #265 ) ;
#230 = DIRECTION ( 'NONE',  ( 1.000000000000000000, 0.000000000000000000, 0.000000000000000000 ) ) ;
#231 = DIMENSIONAL_EXPONENTS ( 1.000000000000000000, 0.000000000000000000, 0.000000000000000000, 0.000000000000000000, 0.000000000000000000, 0.000000000000000000, 0.000000000000000000 ) ;
#232 = FACE_OUTER_BOUND ( 'NONE', #157, .T. ) ;
#233 = EDGE_CURVE ( 'NONE', #184, #8, #133, .T. ) ;
#234 =( GEOMETRIC_REPRESENTATION_CONTEXT ( 3 ) GLOBAL_UNCERTAINTY_ASSIGNED_CONTEXT ( ( #278 ) ) GLOBAL_UNIT_ASSIGNED_CONTEXT ( ( #332, #185, #55 ) ) REPRESENTATION_CONTEXT ( 'NONE', 'WORKASPACE' ) );
#235 = DIRECTION ( 'NONE',  ( -0.000000000000000000, -1.000000000000000000, -0.000000000000000000 ) ) ;
#236 = LENGTH_MEASURE_WITH_UNIT ( LENGTH_MEASURE( 0.02539999999999999897 ), #270 );
#237 = DIRECTION ( 'NONE',  ( 1.060575238724908024E-16, 0.4999999999999979461, -0.8660254037844397068 ) ) ;
#238 = ORIENTED_EDGE ( 'NONE', *, *, #345, .F. ) ;
#239 =( GEOMETRIC_REPRESENTATION_CONTEXT ( 3 ) GLOBAL_UNCERTAINTY_ASSIGNED_CONTEXT ( ( #219 ) ) GLOBAL_UNIT_ASSIGNED_CONTEXT ( ( #338, #14, #67 ) ) REPRESENTATION_CONTEXT ( 'NONE', 'WORKASPACE' ) );
#240 =( GEOMETRIC_REPRESENTATION_CONTEXT ( 3 ) GLOBAL_UNCERTAINTY_ASSIGNED_CONTEXT ( ( #304 ) ) GLOBAL_UNIT_ASSIGNED_CONTEXT ( ( #254, #223, #65 ) ) REPRESENTATION_CONTEXT ( 'NONE', 'WORKASPACE' ) );
#241 = DIRECTION ( 'NONE',  ( -0.000000000000000000, -1.000000000000000000, -0.000000000000000000 ) ) ;
#242 = CARTESIAN_POINT ( 'NONE',  ( 1.836970198721030181E-16, 1.500000000000000222, 0.000000000000000000 ) ) ;
#243 = DIRECTION ( 'NONE',  ( 0.000000000000000000, 1.000000000000000000, 0.000000000000000000 ) ) ;
#244 = APPLICATION_CONTEXT ( 'automotive_design' ) ;
#245 = ORIENTED_EDGE ( 'NONE', *, *, #315, .F. ) ;
#246 = MECHANICAL_DESIGN_GEOMETRIC_PRESENTATION_REPRESENTATION (  '', ( #44 ), #234 ) ;
#247 = PRODUCT ( '83770', '83770', '', ( #346 ) ) ;
#248 = FILL_AREA_STYLE ('',( #118 ) ) ;
#249 = UNCERTAINTY_MEASURE_WITH_UNIT (LENGTH_MEASURE( 1.000000000000000082E-05 ), #45, 'distance_accuracy_value', 'NONE');
#250 = EDGE_CURVE ( 'NONE', #292, #184, #10, .T. ) ;
#251 = LENGTH_MEASURE_WITH_UNIT ( LENGTH_MEASURE( 0.02539999999999999897 ), #39 );
#252 = SURFACE_STYLE_USAGE ( .BOTH. , #220 ) ;
#253 =( GEOMETRIC_REPRESENTATION_CONTEXT ( 3 ) GLOBAL_UNCERTAINTY_ASSIGNED_CONTEXT ( ( #260 ) ) GLOBAL_UNIT_ASSIGNED_CONTEXT ( ( #145, #94, #140 ) ) REPRESENTATION_CONTEXT ( 'NONE', 'WORKASPACE' ) );
#254 =( CONVERSION_BASED_UNIT ( 'INCH', #300 ) LENGTH_UNIT ( ) NAMED_UNIT ( #196 ) );
#255 = DIRECTION ( 'NONE',  ( -0.000000000000000000, -1.000000000000000000, -0.000000000000000000 ) ) ;
#256 = DIRECTION ( 'NONE',  ( 1.000000000000000000, 1.407099293755282515E-16, 0.000000000000000000 ) ) ;
#257 = LENGTH_MEASURE_WITH_UNIT ( LENGTH_MEASURE( 0.02539999999999999897 ), #347 );
#258 = AXIS2_PLACEMENT_3D ( 'NONE', #75, #288, #256 ) ;
#259 = EDGE_CURVE ( 'NONE', #184, #292, #168, .T. ) ;
#260 = UNCERTAINTY_MEASURE_WITH_UNIT (LENGTH_MEASURE( 1.000000000000000082E-05 ), #145, 'distance_accuracy_value', 'NONE');
#261 =( NAMED_UNIT ( * ) SI_UNIT ( $, .STERADIAN. ) SOLID_ANGLE_UNIT ( ) );
#262 = STYLED_ITEM ( 'NONE', ( #309 ), #326 ) ;
#263 = DIRECTION ( 'NONE',  ( -1.407099293755282515E-16, 1.000000000000000000, -0.000000000000000000 ) ) ;
#264 = PRODUCT_RELATED_PRODUCT_CATEGORY ( 'part', '', ( #247 ) ) ;
#265 = DIRECTION ( 'NONE',  ( 0.000000000000000000, 0.000000000000000000, -1.000000000000000000 ) ) ;
#266 = EDGE_LOOP ( 'NONE', ( #322, #86, #209 ) ) ;
#267 = MECHANICAL_DESIGN_GEOMETRIC_PRESENTATION_REPRESENTATION (  '', ( #290 ), #286 ) ;
#268 = VECTOR ( 'NONE', #137, 39.37007874015748854 ) ;
#269 = ORIENTED_EDGE ( 'NONE', *, *, #308, .T. ) ;
#270 =( LENGTH_UNIT ( ) NAMED_UNIT ( * ) SI_UNIT ( $, .METRE. ) );
#271 = ORIENTED_EDGE ( 'NONE', *, *, #233, .T. ) ;
#272 = FACE_OUTER_BOUND ( 'NONE', #301, .T. ) ;
#273 = EDGE_LOOP ( 'NONE', ( #207, #1, #269, #82 ) ) ;
#274 = PRESENTATION_LAYER_ASSIGNMENT (  '', '', ( #290 ) ) ;
#275 = CARTESIAN_POINT ( 'NONE',  ( 0.06249999999999997224, 1.500000000000000222, 7.654042494670928271E-18 ) ) ;
#276 = AXIS2_PLACEMENT_3D ( 'NONE', #325, #81, #293 ) ;
#277 = CARTESIAN_POINT ( 'NONE',  ( 1.836970198721030181E-16, 1.500000000000000222, 0.000000000000000000 ) ) ;
#278 = UNCERTAINTY_MEASURE_WITH_UNIT (LENGTH_MEASURE( 1.000000000000000082E-05 ), #332, 'distance_accuracy_value', 'NONE');
#279 =( LENGTH_UNIT ( ) NAMED_UNIT ( * ) SI_UNIT ( $, .METRE. ) );
#280 = FILL_AREA_STYLE_COLOUR ( '', #199 ) ;
#281 = DIRECTION ( 'NONE',  ( 0.000000000000000000, 0.000000000000000000, -1.000000000000000000 ) ) ;
#282 = AXIS2_PLACEMENT_3D ( 'NONE', #154, #63, #136 ) ;
#283 = AXIS2_PLACEMENT_3D ( 'NONE', #277, #187, #302 ) ;
#284 = DIRECTION ( 'NONE',  ( 0.000000000000000000, 0.000000000000000000, 1.000000000000000000 ) ) ;
#285 = CARTESIAN_POINT ( 'NONE',  ( 0.000000000000000000, 0.000000000000000000, 0.000000000000000000 ) ) ;
#286 =( GEOMETRIC_REPRESENTATION_CONTEXT ( 3 ) GLOBAL_UNCERTAINTY_ASSIGNED_CONTEXT ( ( #249 ) ) GLOBAL_UNIT_ASSIGNED_CONTEXT ( ( #45, #188, #40 ) ) REPRESENTATION_CONTEXT ( 'NONE', 'WORKASPACE' ) );
#287 = DIRECTION ( 'NONE',  ( -0.000000000000000000, -1.000000000000000000, -0.000000000000000000 ) ) ;
#288 = DIRECTION ( 'NONE',  ( 1.407099293755282515E-16, -1.000000000000000000, 0.000000000000000000 ) ) ;
#289 = EDGE_CURVE ( 'NONE', #211, #8, #131, .T. ) ;
#290 = STYLED_ITEM ( 'NONE', ( #191 ), #96 ) ;
#291 = DIRECTION ( 'NONE',  ( 0.000000000000000000, 0.000000000000000000, -1.000000000000000000 ) ) ;
#292 = VERTEX_POINT ( 'NONE', #113 ) ;
#293 = DIRECTION ( 'NONE',  ( -1.000000000000000000, 0.000000000000000000, 0.000000000000000000 ) ) ;
#294 = CARTESIAN_POINT ( 'NONE',  ( 0.000000000000000000, 0.03608439182435141390, -0.06249999999999999306 ) ) ;
#295 = DIMENSIONAL_EXPONENTS ( 1.000000000000000000, 0.000000000000000000, 0.000000000000000000, 0.000000000000000000, 0.000000000000000000, 0.000000000000000000, 0.000000000000000000 ) ;
#296 = DIRECTION ( 'NONE',  ( -1.000000000000000000, 0.000000000000000000, 0.000000000000000000 ) ) ;
#297 = ADVANCED_BREP_SHAPE_REPRESENTATION ( '83770', ( #326, #336, #51 ), #173 ) ;
#298 = ORIENTED_EDGE ( 'NONE', *, *, #111, .F. ) ;
#299 = FILL_AREA_STYLE ('',( #5 ) ) ;
#300 = LENGTH_MEASURE_WITH_UNIT ( LENGTH_MEASURE( 0.02539999999999999897 ), #279 );
#301 = EDGE_LOOP ( 'NONE', ( #6, #324 ) ) ;
#302 = DIRECTION ( 'NONE',  ( -1.000000000000000000, 0.000000000000000000, 0.000000000000000000 ) ) ;
#303 = SURFACE_SIDE_STYLE ('',( #68 ) ) ;
#304 = UNCERTAINTY_MEASURE_WITH_UNIT (LENGTH_MEASURE( 1.000000000000000082E-05 ), #254, 'distance_accuracy_value', 'NONE');
#305 = STYLED_ITEM ( 'NONE', ( #316 ), #170 ) ;
#306 = CONICAL_SURFACE ( 'NONE', #200, 68.19097667594041923, 1.047197551196600074 ) ;
#307 = PRESENTATION_STYLE_ASSIGNMENT (( #224 ) ) ;
#308 = EDGE_CURVE ( 'NONE', #132, #152, #213, .T. ) ;
#309 = PRESENTATION_STYLE_ASSIGNMENT (( #328 ) ) ;
#310 =( CONVERSION_BASED_UNIT ( 'INCH', #251 ) LENGTH_UNIT ( ) NAMED_UNIT ( #231 ) );
#311 = CARTESIAN_POINT ( 'NONE',  ( 0.000000000000000000, 0.03608439182435141390, 0.000000000000000000 ) ) ;
#312 = ADVANCED_FACE ( 'NONE', ( #107 ), #206, .T. ) ;
#313 = LINE ( 'NONE', #92, #317 ) ;
#314 = MECHANICAL_DESIGN_GEOMETRIC_PRESENTATION_REPRESENTATION (  '', ( #262 ), #253 ) ;
#315 = EDGE_CURVE ( 'NONE', #211, #59, #3, .T. ) ;
#316 = PRESENTATION_STYLE_ASSIGNMENT (( #20 ) ) ;
#317 = VECTOR ( 'NONE', #255, 39.37007874015748143 ) ;
#318 = SURFACE_SIDE_STYLE ('',( #17 ) ) ;
#319 = UNCERTAINTY_MEASURE_WITH_UNIT (LENGTH_MEASURE( 1.000000000000000082E-05 ), #126, 'distance_accuracy_value', 'NONE');
#320 = FILL_AREA_STYLE ('',( #202 ) ) ;
#321 = CARTESIAN_POINT ( 'NONE',  ( 0.000000000000000000, 0.5000000000000000000, 0.000000000000000000 ) ) ;
#322 = ORIENTED_EDGE ( 'NONE', *, *, #289, .F. ) ;
#323 = DIRECTION ( 'NONE',  ( -1.407099293755282515E-16, 1.000000000000000000, -0.000000000000000000 ) ) ;
#324 = ORIENTED_EDGE ( 'NONE', *, *, #226, .F. ) ;
#325 = CARTESIAN_POINT ( 'NONE',  ( 1.836970198721030181E-16, 1.500000000000000222, 0.000000000000000000 ) ) ;
#326 = MANIFOLD_SOLID_BREP ( 'Revolve - Cutting Edge', #99 ) ;
#327 = DIRECTION ( 'NONE',  ( -1.407099293755282515E-16, 1.000000000000000000, -0.000000000000000000 ) ) ;
#328 = SURFACE_STYLE_USAGE ( .BOTH. , #210 ) ;
#329 = ORIENTED_EDGE ( 'NONE', *, *, #289, .T. ) ;
#330 = AXIS2_PLACEMENT_3D ( 'NONE', #311, #235, #47 ) ;
#331 = PRESENTATION_LAYER_ASSIGNMENT (  '', '', ( #44 ) ) ;
#332 =( CONVERSION_BASED_UNIT ( 'INCH', #236 ) LENGTH_UNIT ( ) NAMED_UNIT ( #71 ) );
#333 = VERTEX_POINT ( 'NONE', #275 ) ;
#334 = DIRECTION ( 'NONE',  ( -1.000000000000000000, -1.407099293755282515E-16, 0.000000000000000000 ) ) ;
#335 = CARTESIAN_POINT ( 'NONE',  ( 0.000000000000000000, 0.000000000000000000, 0.000000000000000000 ) ) ;
#336 = MANIFOLD_SOLID_BREP ( 'Revolve - Tool Body (Straight Shanked)', #149 ) ;
#337 = ADVANCED_FACE ( 'NONE', ( #272 ), #116, .F. ) ;
#338 =( CONVERSION_BASED_UNIT ( 'INCH', #117 ) LENGTH_UNIT ( ) NAMED_UNIT ( #295 ) );
#339 = MECHANICAL_DESIGN_GEOMETRIC_PRESENTATION_REPRESENTATION (  '', ( #305 ), #144 ) ;
#340 = COLOUR_RGB ( '',0.7921568627450980005, 0.8196078431372548767, 0.9333333333333333481 ) ;
#341 = DIRECTION ( 'NONE',  ( 0.000000000000000000, 1.000000000000000000, 0.000000000000000000 ) ) ;
#342 = LENGTH_MEASURE_WITH_UNIT ( LENGTH_MEASURE( 0.02539999999999999897 ), #41 );
#343 = PLANE ( 'NONE',  #26 ) ;
#344 = CARTESIAN_POINT ( 'NONE',  ( -0.06249999999999960448, 1.500000000000000222, 0.000000000000000000 ) ) ;
#345 = EDGE_CURVE ( 'NONE', #152, #333, #161, .T. ) ;
#346 = PRODUCT_CONTEXT ( 'NONE', #166, 'mechanical' ) ;
#347 =( LENGTH_UNIT ( ) NAMED_UNIT ( * ) SI_UNIT ( $, .METRE. ) );
#348 = AXIS2_PLACEMENT_3D ( 'NONE', #217, #35, #334 ) ;
#349 = FACE_OUTER_BOUND ( 'NONE', #186, .T. ) ;
#350 = DIRECTION ( 'NONE',  ( 0.000000000000000000, 0.000000000000000000, 1.000000000000000000 ) ) ;
#351 = ORIENTED_EDGE ( 'NONE', *, *, #21, .T. ) ;
ENDSEC;
END-ISO-10303-21;
