ISO-10303-21;
HEADER;
FILE_DESCRIPTION (( 'STEP AP214' ),
    '1' );
FILE_NAME ('30167.STEP',
    '2023-06-22T18:05:29',
    ( '' ),
    ( '' ),
    'SwSTEP 2.0',
    'SolidWorks 2023',
    '' );
FILE_SCHEMA (( 'AUTOMOTIVE_DESIGN' ));
ENDSEC;

DATA;
#1 =( LENGTH_UNIT ( ) NAMED_UNIT ( * ) SI_UNIT ( $, .METRE. ) );
#2 = ADVANCED_FACE ( 'NONE', ( #80 ), #183, .T. ) ;
#3 = DIRECTION ( 'NONE',  ( -1.000000000000000000, 0.000000000000000000, 0.000000000000000000 ) ) ;
#4 = LINE ( 'NONE', #68, #238 ) ;
#5 = CARTESIAN_POINT ( 'NONE',  ( 0.000000000000000000, 0.000000000000000000, 0.000000000000000000 ) ) ;
#6 = FACE_OUTER_BOUND ( 'NONE', #12, .T. ) ;
#7 = SHAPE_DEFINITION_REPRESENTATION ( #284, #24 ) ;
#8 = VECTOR ( 'NONE', #283, 39.37007874015748143 ) ;
#9 = EDGE_LOOP ( 'NONE', ( #157, #153, #40, #37 ) ) ;
#10 = DIRECTION ( 'NONE',  ( -1.000000000000000000, 0.000000000000000000, 0.000000000000000000 ) ) ;
#11 = EDGE_CURVE ( 'NONE', #254, #13, #223, .T. ) ;
#12 = EDGE_LOOP ( 'NONE', ( #53, #299 ) ) ;
#13 = VERTEX_POINT ( 'NONE', #200 ) ;
#14 = PRODUCT_CONTEXT ( 'NONE', #290, 'mechanical' ) ;
#15 = EDGE_LOOP ( 'NONE', ( #201, #211, #185, #210 ) ) ;
#16 = CARTESIAN_POINT ( 'NONE',  ( 0.1250000000000000000, 1.000000000000000000, 1.530808498934192125E-17 ) ) ;
#17 = CIRCLE ( 'NONE', #181, 0.1249999999999999861 ) ;
#18 = FILL_AREA_STYLE_COLOUR ( '', #303 ) ;
#19 = STYLED_ITEM ( 'NONE', ( #118 ), #2 ) ;
#20 =( CONVERSION_BASED_UNIT ( 'INCH', #44 ) LENGTH_UNIT ( ) NAMED_UNIT ( #30 ) );
#21 = PLANE ( 'NONE',  #170 ) ;
#22 = DIRECTION ( 'NONE',  ( 0.000000000000000000, 0.000000000000000000, -1.000000000000000000 ) ) ;
#23 = AXIS2_PLACEMENT_3D ( 'NONE', #245, #194, #287 ) ;
#24 = ADVANCED_BREP_SHAPE_REPRESENTATION ( '30167', ( #172, #269, #48 ), #203 ) ;
#25 = PRESENTATION_LAYER_ASSIGNMENT (  '', '', ( #164 ) ) ;
#26 = PLANE ( 'NONE',  #154 ) ;
#27 = SURFACE_STYLE_FILL_AREA ( #63 ) ;
#28 = DIRECTION ( 'NONE',  ( -1.000000000000000000, 0.000000000000000000, 0.000000000000000000 ) ) ;
#29 =( GEOMETRIC_REPRESENTATION_CONTEXT ( 3 ) GLOBAL_UNCERTAINTY_ASSIGNED_CONTEXT ( ( #122 ) ) GLOBAL_UNIT_ASSIGNED_CONTEXT ( ( #192, #242, #93 ) ) REPRESENTATION_CONTEXT ( 'NONE', 'WORKASPACE' ) );
#30 = DIMENSIONAL_EXPONENTS ( 1.000000000000000000, 0.000000000000000000, 0.000000000000000000, 0.000000000000000000, 0.000000000000000000, 0.000000000000000000, 0.000000000000000000 ) ;
#31 = SURFACE_STYLE_FILL_AREA ( #38 ) ;
#32 = ORIENTED_EDGE ( 'NONE', *, *, #158, .F. ) ;
#33 =( LENGTH_UNIT ( ) NAMED_UNIT ( * ) SI_UNIT ( $, .METRE. ) );
#34 = VECTOR ( 'NONE', #292, 39.37007874015748143 ) ;
#35 = COLOUR_RGB ( '',0.7921568627450980005, 0.8196078431372548767, 0.9333333333333333481 ) ;
#36 = ADVANCED_FACE ( 'NONE', ( #6 ), #26, .F. ) ;
#37 = ORIENTED_EDGE ( 'NONE', *, *, #56, .F. ) ;
#38 = FILL_AREA_STYLE ('',( #79 ) ) ;
#39 = UNCERTAINTY_MEASURE_WITH_UNIT (LENGTH_MEASURE( 1.000000000000000082E-05 ), #168, 'distance_accuracy_value', 'NONE');
#40 = ORIENTED_EDGE ( 'NONE', *, *, #291, .T. ) ;
#41 = CARTESIAN_POINT ( 'NONE',  ( 0.000000000000000000, 0.000000000000000000, -0.1250000000000000000 ) ) ;
#42 = LENGTH_MEASURE_WITH_UNIT ( LENGTH_MEASURE( 0.02539999999999999897 ), #260 );
#43 = CIRCLE ( 'NONE', #62, 0.1250000000000000000 ) ;
#44 = LENGTH_MEASURE_WITH_UNIT ( LENGTH_MEASURE( 0.02539999999999999897 ), #258 );
#45 = PRESENTATION_LAYER_ASSIGNMENT (  '', '', ( #115 ) ) ;
#46 = CARTESIAN_POINT ( 'NONE',  ( 1.530808498934191509E-17, 0.000000000000000000, 0.1250000000000000000 ) ) ;
#47 = CARTESIAN_POINT ( 'NONE',  ( 0.000000000000000000, 1.000000000000000000, 0.000000000000000000 ) ) ;
#48 = AXIS2_PLACEMENT_3D ( 'NONE', #67, #265, #233 ) ;
#49 = CARTESIAN_POINT ( 'NONE',  ( 0.000000000000000000, 0.000000000000000000, 0.000000000000000000 ) ) ;
#50 =( NAMED_UNIT ( * ) SI_UNIT ( $, .STERADIAN. ) SOLID_ANGLE_UNIT ( ) );
#51 = ADVANCED_FACE ( 'NONE', ( #179 ), #144, .T. ) ;
#52 = FILL_AREA_STYLE ('',( #165 ) ) ;
#53 = ORIENTED_EDGE ( 'NONE', *, *, #114, .T. ) ;
#54 = CARTESIAN_POINT ( 'NONE',  ( 0.000000000000000000, 0.000000000000000000, 0.000000000000000000 ) ) ;
#55 = FACE_OUTER_BOUND ( 'NONE', #15, .T. ) ;
#56 = EDGE_CURVE ( 'NONE', #135, #256, #120, .T. ) ;
#57 = FACE_OUTER_BOUND ( 'NONE', #277, .T. ) ;
#58 = AXIS2_PLACEMENT_3D ( 'NONE', #49, #177, #199 ) ;
#59 = ORIENTED_EDGE ( 'NONE', *, *, #137, .T. ) ;
#60 = SURFACE_SIDE_STYLE ('',( #307 ) ) ;
#61 = DIRECTION ( 'NONE',  ( -0.000000000000000000, -1.000000000000000000, -0.000000000000000000 ) ) ;
#62 = AXIS2_PLACEMENT_3D ( 'NONE', #227, #274, #186 ) ;
#63 = FILL_AREA_STYLE ('',( #99 ) ) ;
#64 = COLOUR_RGB ( '',1.000000000000000000, 0.000000000000000000, 0.000000000000000000 ) ;
#65 = SURFACE_STYLE_FILL_AREA ( #288 ) ;
#66 = FACE_OUTER_BOUND ( 'NONE', #9, .T. ) ;
#67 = CARTESIAN_POINT ( 'NONE',  ( 0.000000000000000000, 0.000000000000000000, 0.000000000000000000 ) ) ;
#68 = CARTESIAN_POINT ( 'NONE',  ( 0.1249999999999999445, 3.000000000000000444, 1.530808498934191817E-17 ) ) ;
#69 = PRESENTATION_STYLE_ASSIGNMENT (( #131 ) ) ;
#70 = MECHANICAL_DESIGN_GEOMETRIC_PRESENTATION_REPRESENTATION (  '', ( #19 ), #202 ) ;
#71 = AXIS2_PLACEMENT_3D ( 'NONE', #54, #300, #81 ) ;
#72 = DIMENSIONAL_EXPONENTS ( 1.000000000000000000, 0.000000000000000000, 0.000000000000000000, 0.000000000000000000, 0.000000000000000000, 0.000000000000000000, 0.000000000000000000 ) ;
#73 = DIRECTION ( 'NONE',  ( 0.000000000000000000, 0.000000000000000000, -1.000000000000000000 ) ) ;
#74 = DIRECTION ( 'NONE',  ( 1.000000000000000000, 3.061616997868386099E-17, 0.000000000000000000 ) ) ;
#75 = ADVANCED_FACE ( 'NONE', ( #249 ), #189, .T. ) ;
#76 =( CONVERSION_BASED_UNIT ( 'INCH', #224 ) LENGTH_UNIT ( ) NAMED_UNIT ( #270 ) );
#77 = DIMENSIONAL_EXPONENTS ( 1.000000000000000000, 0.000000000000000000, 0.000000000000000000, 0.000000000000000000, 0.000000000000000000, 0.000000000000000000, 0.000000000000000000 ) ;
#78 = AXIS2_PLACEMENT_3D ( 'NONE', #240, #205, #28 ) ;
#79 = FILL_AREA_STYLE_COLOUR ( '', #103 ) ;
#80 = FACE_OUTER_BOUND ( 'NONE', #187, .T. ) ;
#81 = DIRECTION ( 'NONE',  ( 0.000000000000000000, 0.000000000000000000, -1.000000000000000000 ) ) ;
#82 = VERTEX_POINT ( 'NONE', #293 ) ;
#83 = EDGE_CURVE ( 'NONE', #248, #82, #4, .T. ) ;
#84 = DIRECTION ( 'NONE',  ( -3.061616997868386099E-17, 1.000000000000000000, -0.000000000000000000 ) ) ;
#85 = ORIENTED_EDGE ( 'NONE', *, *, #276, .F. ) ;
#86 = DIRECTION ( 'NONE',  ( -0.000000000000000000, -1.000000000000000000, -0.000000000000000000 ) ) ;
#87 =( NAMED_UNIT ( * ) SI_UNIT ( $, .STERADIAN. ) SOLID_ANGLE_UNIT ( ) );
#88 = SURFACE_SIDE_STYLE ('',( #305 ) ) ;
#89 = DIRECTION ( 'NONE',  ( -1.000000000000000000, 0.000000000000000000, 0.000000000000000000 ) ) ;
#90 = LENGTH_MEASURE_WITH_UNIT ( LENGTH_MEASURE( 0.02539999999999999897 ), #117 );
#91 =( NAMED_UNIT ( * ) PLANE_ANGLE_UNIT ( ) SI_UNIT ( $, .RADIAN. ) );
#92 = SURFACE_STYLE_USAGE ( .BOTH. , #60 ) ;
#93 =( NAMED_UNIT ( * ) SI_UNIT ( $, .STERADIAN. ) SOLID_ANGLE_UNIT ( ) );
#94 = DIRECTION ( 'NONE',  ( -1.000000000000000000, -3.061616997868386099E-17, 0.000000000000000000 ) ) ;
#95 = DIRECTION ( 'NONE',  ( 0.000000000000000000, 0.000000000000000000, -1.000000000000000000 ) ) ;
#96 =( GEOMETRIC_REPRESENTATION_CONTEXT ( 3 ) GLOBAL_UNCERTAINTY_ASSIGNED_CONTEXT ( ( #301 ) ) GLOBAL_UNIT_ASSIGNED_CONTEXT ( ( #76, #228, #271 ) ) REPRESENTATION_CONTEXT ( 'NONE', 'WORKASPACE' ) );
#97 = ORIENTED_EDGE ( 'NONE', *, *, #291, .F. ) ;
#98 = FILL_AREA_STYLE_COLOUR ( '', #35 ) ;
#99 = FILL_AREA_STYLE_COLOUR ( '', #64 ) ;
#100 = DIRECTION ( 'NONE',  ( 0.000000000000000000, 1.000000000000000000, 0.000000000000000000 ) ) ;
#101 = CARTESIAN_POINT ( 'NONE',  ( 0.1249999999999999861, 3.000000000000000444, 0.000000000000000000 ) ) ;
#102 = DIRECTION ( 'NONE',  ( 3.061616997868386099E-17, -1.000000000000000000, 0.000000000000000000 ) ) ;
#103 = COLOUR_RGB ( '',0.7921568627450980005, 0.8196078431372548767, 0.9333333333333333481 ) ;
#104 = ADVANCED_FACE ( 'NONE', ( #66 ), #124, .T. ) ;
#105 = CARTESIAN_POINT ( 'NONE',  ( -0.1250000000000000833, 3.000000000000000444, 0.000000000000000000 ) ) ;
#106 = PRESENTATION_STYLE_ASSIGNMENT (( #207 ) ) ;
#107 = PRODUCT ( '30167', '30167', '', ( #14 ) ) ;
#108 = VERTEX_POINT ( 'NONE', #151 ) ;
#109 = STYLED_ITEM ( 'NONE', ( #304 ), #75 ) ;
#110 = CARTESIAN_POINT ( 'NONE',  ( 7.582401355855259480E-33, 1.000000000000000000, 0.000000000000000000 ) ) ;
#111 = CARTESIAN_POINT ( 'NONE',  ( -6.123233995736772199E-17, 3.000000000000000444, 0.000000000000000000 ) ) ;
#112 = EDGE_LOOP ( 'NONE', ( #167, #279, #302, #85 ) ) ;
#113 = PRODUCT_DEFINITION_CONTEXT ( 'detailed design', #149, 'design' ) ;
#114 = EDGE_CURVE ( 'NONE', #13, #82, #196, .T. ) ;
#115 = STYLED_ITEM ( 'NONE', ( #106 ), #172 ) ;
#116 = FILL_AREA_STYLE ('',( #18 ) ) ;
#117 =( LENGTH_UNIT ( ) NAMED_UNIT ( * ) SI_UNIT ( $, .METRE. ) );
#118 = PRESENTATION_STYLE_ASSIGNMENT (( #193 ) ) ;
#119 = CARTESIAN_POINT ( 'NONE',  ( 0.000000000000000000, 0.000000000000000000, -0.1250000000000000000 ) ) ;
#120 = CIRCLE ( 'NONE', #272, 0.1250000000000000000 ) ;
#121 = CIRCLE ( 'NONE', #273, 0.1249999999999999861 ) ;
#122 = UNCERTAINTY_MEASURE_WITH_UNIT (LENGTH_MEASURE( 1.000000000000000082E-05 ), #192, 'distance_accuracy_value', 'NONE');
#123 = CARTESIAN_POINT ( 'NONE',  ( 5.858436651022893041E-35, 1.000000000000000000, 0.000000000000000000 ) ) ;
#124 = CYLINDRICAL_SURFACE ( 'NONE', #229, 0.1250000000000000000 ) ;
#125 = PRESENTATION_LAYER_ASSIGNMENT (  '', '', ( #109 ) ) ;
#126 =( NAMED_UNIT ( * ) SI_UNIT ( $, .STERADIAN. ) SOLID_ANGLE_UNIT ( ) );
#127 = STYLED_ITEM ( 'NONE', ( #184 ), #195 ) ;
#128 =( NAMED_UNIT ( * ) PLANE_ANGLE_UNIT ( ) SI_UNIT ( $, .RADIAN. ) );
#129 = DIRECTION ( 'NONE',  ( -0.000000000000000000, -1.000000000000000000, -0.000000000000000000 ) ) ;
#130 = ORIENTED_EDGE ( 'NONE', *, *, #56, .T. ) ;
#131 = SURFACE_STYLE_USAGE ( .BOTH. , #266 ) ;
#132 =( NAMED_UNIT ( * ) PLANE_ANGLE_UNIT ( ) SI_UNIT ( $, .RADIAN. ) );
#133 =( LENGTH_UNIT ( ) NAMED_UNIT ( * ) SI_UNIT ( $, .METRE. ) );
#134 = AXIS2_PLACEMENT_3D ( 'NONE', #138, #215, #89 ) ;
#135 = VERTEX_POINT ( 'NONE', #173 ) ;
#136 = CARTESIAN_POINT ( 'NONE',  ( -0.1249999999999999861, 1.000000000000000000, 0.000000000000000000 ) ) ;
#137 = EDGE_CURVE ( 'NONE', #251, #135, #263, .T. ) ;
#138 = CARTESIAN_POINT ( 'NONE',  ( -6.123233995736772199E-17, 3.000000000000000444, 0.000000000000000000 ) ) ;
#139 = CIRCLE ( 'NONE', #294, 0.1249999999999999861 ) ;
#140 =( LENGTH_UNIT ( ) NAMED_UNIT ( * ) SI_UNIT ( $, .METRE. ) );
#141 = ADVANCED_FACE ( 'NONE', ( #239 ), #21, .F. ) ;
#142 = UNCERTAINTY_MEASURE_WITH_UNIT (LENGTH_MEASURE( 1.000000000000000082E-05 ), #253, 'distance_accuracy_value', 'NONE');
#143 = DIRECTION ( 'NONE',  ( -0.000000000000000000, -1.000000000000000000, -0.000000000000000000 ) ) ;
#144 = CYLINDRICAL_SURFACE ( 'NONE', #78, 0.1250000000000000278 ) ;
#145 = PRODUCT_RELATED_PRODUCT_CATEGORY ( 'part', '', ( #107 ) ) ;
#146 = LENGTH_MEASURE_WITH_UNIT ( LENGTH_MEASURE( 0.02539999999999999897 ), #1 );
#147 = MECHANICAL_DESIGN_GEOMETRIC_PRESENTATION_REPRESENTATION (  '', ( #109 ), #29 ) ;
#148 = DIRECTION ( 'NONE',  ( 0.000000000000000000, -0.000000000000000000, 1.000000000000000000 ) ) ;
#149 = APPLICATION_CONTEXT ( 'automotive_design' ) ;
#150 = DIMENSIONAL_EXPONENTS ( 1.000000000000000000, 0.000000000000000000, 0.000000000000000000, 0.000000000000000000, 0.000000000000000000, 0.000000000000000000, 0.000000000000000000 ) ;
#151 = CARTESIAN_POINT ( 'NONE',  ( 0.000000000000000000, 1.000000000000000000, -0.1249999999999999861 ) ) ;
#152 = EDGE_LOOP ( 'NONE', ( #232, #32 ) ) ;
#153 = ORIENTED_EDGE ( 'NONE', *, *, #281, .T. ) ;
#154 = AXIS2_PLACEMENT_3D ( 'NONE', #101, #102, #74 ) ;
#155 = PLANE ( 'NONE',  #71 ) ;
#156 = DIMENSIONAL_EXPONENTS ( 1.000000000000000000, 0.000000000000000000, 0.000000000000000000, 0.000000000000000000, 0.000000000000000000, 0.000000000000000000, 0.000000000000000000 ) ;
#157 = ORIENTED_EDGE ( 'NONE', *, *, #137, .F. ) ;
#158 = EDGE_CURVE ( 'NONE', #248, #254, #209, .T. ) ;
#159 = SURFACE_SIDE_STYLE ('',( #231 ) ) ;
#160 = ORIENTED_EDGE ( 'NONE', *, *, #175, .F. ) ;
#161 = LENGTH_MEASURE_WITH_UNIT ( LENGTH_MEASURE( 0.02539999999999999897 ), #33 );
#162 = ORIENTED_EDGE ( 'NONE', *, *, #262, .F. ) ;
#163 = AXIS2_PLACEMENT_3D ( 'NONE', #110, #204, #297 ) ;
#164 = STYLED_ITEM ( 'NONE', ( #191 ), #269 ) ;
#165 = FILL_AREA_STYLE_COLOUR ( '', #241 ) ;
#166 = EDGE_CURVE ( 'NONE', #254, #248, #17, .T. ) ;
#167 = ORIENTED_EDGE ( 'NONE', *, *, #83, .F. ) ;
#168 =( CONVERSION_BASED_UNIT ( 'INCH', #42 ) LENGTH_UNIT ( ) NAMED_UNIT ( #156 ) );
#169 = ORIENTED_EDGE ( 'NONE', *, *, #262, .T. ) ;
#170 = AXIS2_PLACEMENT_3D ( 'NONE', #123, #220, #94 ) ;
#171 = AXIS2_PLACEMENT_3D ( 'NONE', #111, #212, #3 ) ;
#172 = MANIFOLD_SOLID_BREP ( 'Revolve - Cutting Edge', #218 ) ;
#173 = CARTESIAN_POINT ( 'NONE',  ( 1.530808498934191509E-17, 0.000000000000000000, 0.1250000000000000000 ) ) ;
#174 = MECHANICAL_DESIGN_GEOMETRIC_PRESENTATION_REPRESENTATION (  '', ( #164 ), #219 ) ;
#175 = EDGE_CURVE ( 'NONE', #256, #135, #43, .T. ) ;
#176 = SURFACE_STYLE_USAGE ( .BOTH. , #214 ) ;
#177 = DIRECTION ( 'NONE',  ( -0.000000000000000000, -1.000000000000000000, -0.000000000000000000 ) ) ;
#178 = PRESENTATION_LAYER_ASSIGNMENT (  '', '', ( #278 ) ) ;
#179 = FACE_OUTER_BOUND ( 'NONE', #112, .T. ) ;
#180 =( NAMED_UNIT ( * ) SI_UNIT ( $, .STERADIAN. ) SOLID_ANGLE_UNIT ( ) );
#181 = AXIS2_PLACEMENT_3D ( 'NONE', #246, #84, #10 ) ;
#182 = SURFACE_SIDE_STYLE ('',( #31 ) ) ;
#183 = PLANE ( 'NONE',  #285 ) ;
#184 = PRESENTATION_STYLE_ASSIGNMENT (( #226 ) ) ;
#185 = ORIENTED_EDGE ( 'NONE', *, *, #114, .F. ) ;
#186 = DIRECTION ( 'NONE',  ( 0.000000000000000000, 0.000000000000000000, -1.000000000000000000 ) ) ;
#187 = EDGE_LOOP ( 'NONE', ( #162, #267 ) ) ;
#188 = MECHANICAL_DESIGN_GEOMETRIC_PRESENTATION_REPRESENTATION (  '', ( #278 ), #259 ) ;
#189 = CYLINDRICAL_SURFACE ( 'NONE', #58, 0.1250000000000000000 ) ;
#190 = DIRECTION ( 'NONE',  ( 0.000000000000000000, 0.000000000000000000, -1.000000000000000000 ) ) ;
#191 = PRESENTATION_STYLE_ASSIGNMENT (( #176 ) ) ;
#192 =( CONVERSION_BASED_UNIT ( 'INCH', #90 ) LENGTH_UNIT ( ) NAMED_UNIT ( #150 ) );
#193 = SURFACE_STYLE_USAGE ( .BOTH. , #88 ) ;
#194 = DIRECTION ( 'NONE',  ( -3.061616997868386099E-17, 1.000000000000000000, -0.000000000000000000 ) ) ;
#195 = ADVANCED_FACE ( 'NONE', ( #57 ), #155, .T. ) ;
#196 = CIRCLE ( 'NONE', #23, 0.1250000000000000555 ) ;
#197 = MECHANICAL_DESIGN_GEOMETRIC_PRESENTATION_REPRESENTATION (  '', ( #127 ), #252 ) ;
#198 =( CONVERSION_BASED_UNIT ( 'INCH', #146 ) LENGTH_UNIT ( ) NAMED_UNIT ( #77 ) );
#199 = DIRECTION ( 'NONE',  ( 0.000000000000000000, 0.000000000000000000, -1.000000000000000000 ) ) ;
#200 = CARTESIAN_POINT ( 'NONE',  ( -0.1250000000000001110, 3.000000000000000444, 0.000000000000000000 ) ) ;
#201 = ORIENTED_EDGE ( 'NONE', *, *, #166, .T. ) ;
#202 =( GEOMETRIC_REPRESENTATION_CONTEXT ( 3 ) GLOBAL_UNCERTAINTY_ASSIGNED_CONTEXT ( ( #286 ) ) GLOBAL_UNIT_ASSIGNED_CONTEXT ( ( #20, #132, #126 ) ) REPRESENTATION_CONTEXT ( 'NONE', 'WORKASPACE' ) );
#203 =( GEOMETRIC_REPRESENTATION_CONTEXT ( 3 ) GLOBAL_UNCERTAINTY_ASSIGNED_CONTEXT ( ( #261 ) ) GLOBAL_UNIT_ASSIGNED_CONTEXT ( ( #216, #91, #87 ) ) REPRESENTATION_CONTEXT ( 'NONE', 'WORKASPACE' ) );
#204 = DIRECTION ( 'NONE',  ( -3.061616997868386099E-17, 1.000000000000000000, -0.000000000000000000 ) ) ;
#205 = DIRECTION ( 'NONE',  ( -3.061616997868386099E-17, 1.000000000000000000, -0.000000000000000000 ) ) ;
#206 = DIMENSIONAL_EXPONENTS ( 1.000000000000000000, 0.000000000000000000, 0.000000000000000000, 0.000000000000000000, 0.000000000000000000, 0.000000000000000000, 0.000000000000000000 ) ;
#207 = SURFACE_STYLE_USAGE ( .BOTH. , #182 ) ;
#208 = ADVANCED_FACE ( 'NONE', ( #55 ), #250, .T. ) ;
#209 = CIRCLE ( 'NONE', #163, 0.1249999999999999861 ) ;
#210 = ORIENTED_EDGE ( 'NONE', *, *, #11, .F. ) ;
#211 = ORIENTED_EDGE ( 'NONE', *, *, #83, .T. ) ;
#212 = DIRECTION ( 'NONE',  ( -3.061616997868386099E-17, 1.000000000000000000, -0.000000000000000000 ) ) ;
#213 = ORIENTED_EDGE ( 'NONE', *, *, #175, .T. ) ;
#214 = SURFACE_SIDE_STYLE ('',( #65 ) ) ;
#215 = DIRECTION ( 'NONE',  ( -3.061616997868386099E-17, 1.000000000000000000, -0.000000000000000000 ) ) ;
#216 =( CONVERSION_BASED_UNIT ( 'INCH', #237 ) LENGTH_UNIT ( ) NAMED_UNIT ( #72 ) );
#217 = FILL_AREA_STYLE_COLOUR ( '', #309 ) ;
#218 = CLOSED_SHELL ( 'NONE', ( #75, #2, #104, #195 ) ) ;
#219 =( GEOMETRIC_REPRESENTATION_CONTEXT ( 3 ) GLOBAL_UNCERTAINTY_ASSIGNED_CONTEXT ( ( #39 ) ) GLOBAL_UNIT_ASSIGNED_CONTEXT ( ( #168, #255, #264 ) ) REPRESENTATION_CONTEXT ( 'NONE', 'WORKASPACE' ) );
#220 = DIRECTION ( 'NONE',  ( -3.061616997868386099E-17, 1.000000000000000000, 0.000000000000000000 ) ) ;
#221 = DIRECTION ( 'NONE',  ( -0.000000000000000000, -1.000000000000000000, -0.000000000000000000 ) ) ;
#222 = APPLICATION_PROTOCOL_DEFINITION ( 'draft international standard', 'automotive_design', 1998, #290 ) ;
#223 = LINE ( 'NONE', #105, #34 ) ;
#224 = LENGTH_MEASURE_WITH_UNIT ( LENGTH_MEASURE( 0.02539999999999999897 ), #133 );
#225 = CIRCLE ( 'NONE', #134, 0.1250000000000000555 ) ;
#226 = SURFACE_STYLE_USAGE ( .BOTH. , #159 ) ;
#227 = CARTESIAN_POINT ( 'NONE',  ( 0.000000000000000000, 0.000000000000000000, 0.000000000000000000 ) ) ;
#228 =( NAMED_UNIT ( * ) PLANE_ANGLE_UNIT ( ) SI_UNIT ( $, .RADIAN. ) );
#229 = AXIS2_PLACEMENT_3D ( 'NONE', #5, #129, #73 ) ;
#230 = EDGE_LOOP ( 'NONE', ( #169, #59, #160, #97 ) ) ;
#231 = SURFACE_STYLE_FILL_AREA ( #52 ) ;
#232 = ORIENTED_EDGE ( 'NONE', *, *, #166, .F. ) ;
#233 = DIRECTION ( 'NONE',  ( 1.000000000000000000, 0.000000000000000000, 0.000000000000000000 ) ) ;
#234 = LINE ( 'NONE', #119, #8 ) ;
#235 = MECHANICAL_DESIGN_GEOMETRIC_PRESENTATION_REPRESENTATION (  '', ( #115 ), #96 ) ;
#236 = PRESENTATION_LAYER_ASSIGNMENT (  '', '', ( #127 ) ) ;
#237 = LENGTH_MEASURE_WITH_UNIT ( LENGTH_MEASURE( 0.02539999999999999897 ), #140 );
#238 = VECTOR ( 'NONE', #244, 39.37007874015748143 ) ;
#239 = FACE_OUTER_BOUND ( 'NONE', #152, .T. ) ;
#240 = CARTESIAN_POINT ( 'NONE',  ( -6.123233995736772199E-17, 3.000000000000000444, 0.000000000000000000 ) ) ;
#241 = COLOUR_RGB ( '',1.000000000000000000, 0.000000000000000000, 0.000000000000000000 ) ;
#242 =( NAMED_UNIT ( * ) PLANE_ANGLE_UNIT ( ) SI_UNIT ( $, .RADIAN. ) );
#243 = PRODUCT_DEFINITION_FORMATION_WITH_SPECIFIED_SOURCE ( 'ANY', '', #107, .NOT_KNOWN. ) ;
#244 = DIRECTION ( 'NONE',  ( -3.061616997868386099E-17, 1.000000000000000000, -0.000000000000000000 ) ) ;
#245 = CARTESIAN_POINT ( 'NONE',  ( -6.123233995736772199E-17, 3.000000000000000444, 0.000000000000000000 ) ) ;
#246 = CARTESIAN_POINT ( 'NONE',  ( 7.582401355855259480E-33, 1.000000000000000000, 0.000000000000000000 ) ) ;
#247 = APPLICATION_PROTOCOL_DEFINITION ( 'draft international standard', 'automotive_design', 1998, #149 ) ;
#248 = VERTEX_POINT ( 'NONE', #16 ) ;
#249 = FACE_OUTER_BOUND ( 'NONE', #230, .T. ) ;
#250 = CYLINDRICAL_SURFACE ( 'NONE', #171, 0.1250000000000000278 ) ;
#251 = VERTEX_POINT ( 'NONE', #306 ) ;
#252 =( GEOMETRIC_REPRESENTATION_CONTEXT ( 3 ) GLOBAL_UNCERTAINTY_ASSIGNED_CONTEXT ( ( #142 ) ) GLOBAL_UNIT_ASSIGNED_CONTEXT ( ( #253, #296, #180 ) ) REPRESENTATION_CONTEXT ( 'NONE', 'WORKASPACE' ) );
#253 =( CONVERSION_BASED_UNIT ( 'INCH', #161 ) LENGTH_UNIT ( ) NAMED_UNIT ( #206 ) );
#254 = VERTEX_POINT ( 'NONE', #136 ) ;
#255 =( NAMED_UNIT ( * ) PLANE_ANGLE_UNIT ( ) SI_UNIT ( $, .RADIAN. ) );
#256 = VERTEX_POINT ( 'NONE', #41 ) ;
#257 = PRODUCT_DEFINITION ( 'UNKNOWN', '', #243, #113 ) ;
#258 =( LENGTH_UNIT ( ) NAMED_UNIT ( * ) SI_UNIT ( $, .METRE. ) );
#259 =( GEOMETRIC_REPRESENTATION_CONTEXT ( 3 ) GLOBAL_UNCERTAINTY_ASSIGNED_CONTEXT ( ( #275 ) ) GLOBAL_UNIT_ASSIGNED_CONTEXT ( ( #198, #128, #50 ) ) REPRESENTATION_CONTEXT ( 'NONE', 'WORKASPACE' ) );
#260 =( LENGTH_UNIT ( ) NAMED_UNIT ( * ) SI_UNIT ( $, .METRE. ) );
#261 = UNCERTAINTY_MEASURE_WITH_UNIT (LENGTH_MEASURE( 1.000000000000000082E-05 ), #216, 'distance_accuracy_value', 'NONE');
#262 = EDGE_CURVE ( 'NONE', #108, #251, #121, .T. ) ;
#263 = LINE ( 'NONE', #46, #298 ) ;
#264 =( NAMED_UNIT ( * ) SI_UNIT ( $, .STERADIAN. ) SOLID_ANGLE_UNIT ( ) );
#265 = DIRECTION ( 'NONE',  ( 0.000000000000000000, 0.000000000000000000, 1.000000000000000000 ) ) ;
#266 = SURFACE_SIDE_STYLE ('',( #27 ) ) ;
#267 = ORIENTED_EDGE ( 'NONE', *, *, #281, .F. ) ;
#268 = CARTESIAN_POINT ( 'NONE',  ( 0.000000000000000000, 1.000000000000000000, 0.000000000000000000 ) ) ;
#269 = MANIFOLD_SOLID_BREP ( 'Revolve - Tool Body (Straight Shanked)', #308 ) ;
#270 = DIMENSIONAL_EXPONENTS ( 1.000000000000000000, 0.000000000000000000, 0.000000000000000000, 0.000000000000000000, 0.000000000000000000, 0.000000000000000000, 0.000000000000000000 ) ;
#271 =( NAMED_UNIT ( * ) SI_UNIT ( $, .STERADIAN. ) SOLID_ANGLE_UNIT ( ) );
#272 = AXIS2_PLACEMENT_3D ( 'NONE', #295, #221, #95 ) ;
#273 = AXIS2_PLACEMENT_3D ( 'NONE', #282, #86, #22 ) ;
#274 = DIRECTION ( 'NONE',  ( -0.000000000000000000, -1.000000000000000000, -0.000000000000000000 ) ) ;
#275 = UNCERTAINTY_MEASURE_WITH_UNIT (LENGTH_MEASURE( 1.000000000000000082E-05 ), #198, 'distance_accuracy_value', 'NONE');
#276 = EDGE_CURVE ( 'NONE', #82, #13, #225, .T. ) ;
#277 = EDGE_LOOP ( 'NONE', ( #213, #130 ) ) ;
#278 = STYLED_ITEM ( 'NONE', ( #69 ), #104 ) ;
#279 = ORIENTED_EDGE ( 'NONE', *, *, #158, .T. ) ;
#280 = FILL_AREA_STYLE ('',( #217 ) ) ;
#281 = EDGE_CURVE ( 'NONE', #251, #108, #139, .T. ) ;
#282 = CARTESIAN_POINT ( 'NONE',  ( 0.000000000000000000, 1.000000000000000000, 0.000000000000000000 ) ) ;
#283 = DIRECTION ( 'NONE',  ( -0.000000000000000000, -1.000000000000000000, -0.000000000000000000 ) ) ;
#284 = PRODUCT_DEFINITION_SHAPE ( 'NONE', 'NONE',  #257 ) ;
#285 = AXIS2_PLACEMENT_3D ( 'NONE', #268, #100, #148 ) ;
#286 = UNCERTAINTY_MEASURE_WITH_UNIT (LENGTH_MEASURE( 1.000000000000000082E-05 ), #20, 'distance_accuracy_value', 'NONE');
#287 = DIRECTION ( 'NONE',  ( -1.000000000000000000, 0.000000000000000000, 0.000000000000000000 ) ) ;
#288 = FILL_AREA_STYLE ('',( #98 ) ) ;
#289 = PRESENTATION_LAYER_ASSIGNMENT (  '', '', ( #19 ) ) ;
#290 = APPLICATION_CONTEXT ( 'automotive_design' ) ;
#291 = EDGE_CURVE ( 'NONE', #108, #256, #234, .T. ) ;
#292 = DIRECTION ( 'NONE',  ( -3.061616997868386099E-17, 1.000000000000000000, -0.000000000000000000 ) ) ;
#293 = CARTESIAN_POINT ( 'NONE',  ( 0.1250000000000000000, 3.000000000000000444, 1.530808498934192125E-17 ) ) ;
#294 = AXIS2_PLACEMENT_3D ( 'NONE', #47, #61, #190 ) ;
#295 = CARTESIAN_POINT ( 'NONE',  ( 0.000000000000000000, 0.000000000000000000, 0.000000000000000000 ) ) ;
#296 =( NAMED_UNIT ( * ) PLANE_ANGLE_UNIT ( ) SI_UNIT ( $, .RADIAN. ) );
#297 = DIRECTION ( 'NONE',  ( -1.000000000000000000, 0.000000000000000000, 0.000000000000000000 ) ) ;
#298 = VECTOR ( 'NONE', #143, 39.37007874015748143 ) ;
#299 = ORIENTED_EDGE ( 'NONE', *, *, #276, .T. ) ;
#300 = DIRECTION ( 'NONE',  ( 0.000000000000000000, -1.000000000000000000, -0.000000000000000000 ) ) ;
#301 = UNCERTAINTY_MEASURE_WITH_UNIT (LENGTH_MEASURE( 1.000000000000000082E-05 ), #76, 'distance_accuracy_value', 'NONE');
#302 = ORIENTED_EDGE ( 'NONE', *, *, #11, .T. ) ;
#303 = COLOUR_RGB ( '',1.000000000000000000, 0.000000000000000000, 0.000000000000000000 ) ;
#304 = PRESENTATION_STYLE_ASSIGNMENT (( #92 ) ) ;
#305 = SURFACE_STYLE_FILL_AREA ( #116 ) ;
#306 = CARTESIAN_POINT ( 'NONE',  ( 1.530808498934191201E-17, 1.000000000000000000, 0.1249999999999999861 ) ) ;
#307 = SURFACE_STYLE_FILL_AREA ( #280 ) ;
#308 = CLOSED_SHELL ( 'NONE', ( #208, #141, #51, #36 ) ) ;
#309 = COLOUR_RGB ( '',1.000000000000000000, 0.000000000000000000, 0.000000000000000000 ) ;
ENDSEC;
END-ISO-10303-21;
