ISO-10303-21;
HEADER;
FILE_DESCRIPTION (( 'STEP AP214' ),
    '1' );
FILE_NAME ('Micro_SHLM-060-4X.STEP',
    '2021-09-02T08:14:55',
    ( '' ),
    ( '' ),
    'SwSTEP 2.0',
    'SolidWorks 2020',
    '' );
FILE_SCHEMA (( 'AUTOMOTIVE_DESIGN' ));
ENDSEC;

DATA;
#1 = PRODUCT_RELATED_PRODUCT_CATEGORY ( 'part', '', ( #240 ) ) ;
#2 = ORIENTED_EDGE ( 'NONE', *, *, #270, .T. ) ;
#3 = AXIS2_PLACEMENT_3D ( 'NONE', #276, #99, #47 ) ;
#4 = DIRECTION ( 'NONE',  ( 1.000000000000000000, 0.0000000000000000000, 0.0000000000000000000 ) ) ;
#5 = EDGE_CURVE ( 'NONE', #157, #223, #278, .T. ) ;
#6 = CARTESIAN_POINT ( 'NONE',  ( 0.1179918900000001408, 0.0000000000000000000, 0.9842519999999999047 ) ) ;
#7 = AXIS2_PLACEMENT_3D ( 'NONE', #28, #279, #75 ) ;
#8 = DIRECTION ( 'NONE',  ( 1.000000000000000000, 0.0000000000000000000, 0.0000000000000000000 ) ) ;
#9 = DIMENSIONAL_EXPONENTS ( 1.000000000000000000, 0.0000000000000000000, 0.0000000000000000000, 0.0000000000000000000, 0.0000000000000000000, 0.0000000000000000000, 0.0000000000000000000 ) ;
#10 = SURFACE_STYLE_USAGE ( .BOTH. , #149 ) ;
#11 = DIRECTION ( 'NONE',  ( -1.224646799147353207E-16, -0.0000000000000000000, -1.000000000000000000 ) ) ;
#12 = CIRCLE ( 'NONE', #81, 0.1179918900000000298 ) ;
#13 = ORIENTED_EDGE ( 'NONE', *, *, #165, .F. ) ;
#14 = EDGE_CURVE ( 'NONE', #157, #128, #145, .T. ) ;
#15 = LINE ( 'NONE', #138, #137 ) ;
#16 = EDGE_LOOP ( 'NONE', ( #160, #182, #175, #62 ) ) ;
#17 = ADVANCED_FACE ( 'NONE', ( #95 ), #98, .T. ) ;
#18 =( NAMED_UNIT ( * ) SI_UNIT ( $, .STERADIAN. ) SOLID_ANGLE_UNIT ( ) );
#19 = PRODUCT_DEFINITION_CONTEXT ( 'detailed design', #203, 'design' ) ;
#20 = STYLED_ITEM ( 'NONE', ( #126 ), #295 ) ;
#21 = CARTESIAN_POINT ( 'NONE',  ( -0.1181100000000000344, 0.0000000000000000000, 2.937755999999999368 ) ) ;
#22 = DIRECTION ( 'NONE',  ( 0.0000000000000000000, 0.0000000000000000000, 1.000000000000000000 ) ) ;
#23 = EDGE_LOOP ( 'NONE', ( #287, #246 ) ) ;
#24 = CARTESIAN_POINT ( 'NONE',  ( 0.1181100000000001593, 1.446430334472940625E-17, 0.9849218350957149593 ) ) ;
#25 = AXIS2_PLACEMENT_3D ( 'NONE', #258, #232, #70 ) ;
#26 = CARTESIAN_POINT ( 'NONE',  ( 0.0000000000000000000, 0.0000000000000000000, 2.952755999999999936 ) ) ;
#27 = ADVANCED_FACE ( 'NONE', ( #46 ), #299, .T. ) ;
#28 = CARTESIAN_POINT ( 'NONE',  ( 0.0000000000000000000, 0.0000000000000000000, 2.952755999999999936 ) ) ;
#29 = FACE_OUTER_BOUND ( 'NONE', #274, .T. ) ;
#30 = DIRECTION ( 'NONE',  ( 1.000000000000000000, 0.0000000000000000000, -0.0000000000000000000 ) ) ;
#31 = PRESENTATION_LAYER_ASSIGNMENT (  '', '', ( #20 ) ) ;
#32 = CARTESIAN_POINT ( 'NONE',  ( 0.0000000000000000000, 0.0000000000000000000, 2.952755999999999936 ) ) ;
#33 = DIRECTION ( 'NONE',  ( -0.0000000000000000000, -0.0000000000000000000, -1.000000000000000000 ) ) ;
#34 = AXIS2_PLACEMENT_3D ( 'NONE', #71, #210, #187 ) ;
#35 =( CONVERSION_BASED_UNIT ( 'INCH', #60 ) LENGTH_UNIT ( ) NAMED_UNIT ( #56 ) );
#36 = EDGE_CURVE ( 'NONE', #131, #250, #166, .T. ) ;
#37 = LINE ( 'NONE', #100, #222 ) ;
#38 = DIMENSIONAL_EXPONENTS ( 1.000000000000000000, 0.0000000000000000000, 0.0000000000000000000, 0.0000000000000000000, 0.0000000000000000000, 0.0000000000000000000, 0.0000000000000000000 ) ;
#39 = AXIS2_PLACEMENT_3D ( 'NONE', #146, #254, #183 ) ;
#40 = DIRECTION ( 'NONE',  ( -1.224646799147353207E-16, -0.0000000000000000000, -1.000000000000000000 ) ) ;
#41 = VERTEX_POINT ( 'NONE', #24 ) ;
#42 = DIRECTION ( 'NONE',  ( -1.000000000000000000, 0.0000000000000000000, 1.224646799147352961E-16 ) ) ;
#43 = EDGE_LOOP ( 'NONE', ( #111, #208, #52, #112 ) ) ;
#44 = CIRCLE ( 'NONE', #163, 0.1181100000000000344 ) ;
#45 = VERTEX_POINT ( 'NONE', #53 ) ;
#46 = FACE_OUTER_BOUND ( 'NONE', #43, .T. ) ;
#47 = DIRECTION ( 'NONE',  ( 1.000000000000000000, 0.0000000000000000000, -0.0000000000000000000 ) ) ;
#48 = CIRCLE ( 'NONE', #7, 0.1031099999999991745 ) ;
#49 = PLANE ( 'NONE',  #218 ) ;
#50 = ADVANCED_FACE ( 'NONE', ( #256 ), #93, .T. ) ;
#51 = ADVANCED_FACE ( 'NONE', ( #204 ), #49, .T. ) ;
#52 = ORIENTED_EDGE ( 'NONE', *, *, #241, .F. ) ;
#53 = CARTESIAN_POINT ( 'NONE',  ( 0.1179918900000000159, 1.444983904138465938E-17, 0.0000000000000000000 ) ) ;
#54 = DIRECTION ( 'NONE',  ( 0.0000000000000000000, 0.0000000000000000000, -1.000000000000000000 ) ) ;
#55 = CIRCLE ( 'NONE', #142, 0.1179918900000000159 ) ;
#56 = DIMENSIONAL_EXPONENTS ( 1.000000000000000000, 0.0000000000000000000, 0.0000000000000000000, 0.0000000000000000000, 0.0000000000000000000, 0.0000000000000000000, 0.0000000000000000000 ) ;
#57 = CARTESIAN_POINT ( 'NONE',  ( -0.1179918899999999049, 1.445707119305702665E-17, 0.9842519999999999047 ) ) ;
#58 = CYLINDRICAL_SURFACE ( 'NONE', #118, 0.1181100000000000344 ) ;
#59 =( GEOMETRIC_REPRESENTATION_CONTEXT ( 3 ) GLOBAL_UNCERTAINTY_ASSIGNED_CONTEXT ( ( #134 ) ) GLOBAL_UNIT_ASSIGNED_CONTEXT ( ( #110, #172, #251 ) ) REPRESENTATION_CONTEXT ( 'NONE', 'WORKASPACE' ) );
#60 = LENGTH_MEASURE_WITH_UNIT ( LENGTH_MEASURE( 0.02539999999999999897 ), #120 );
#61 = DIRECTION ( 'NONE',  ( 1.000000000000000000, 0.0000000000000000000, 0.0000000000000000000 ) ) ;
#62 = ORIENTED_EDGE ( 'NONE', *, *, #213, .F. ) ;
#63 = VECTOR ( 'NONE', #161, 39.37007874015748854 ) ;
#64 = PRESENTATION_LAYER_ASSIGNMENT (  '', '', ( #285 ) ) ;
#65 = ORIENTED_EDGE ( 'NONE', *, *, #78, .T. ) ;
#66 = ADVANCED_FACE ( 'NONE', ( #29 ), #231, .T. ) ;
#67 = ORIENTED_EDGE ( 'NONE', *, *, #148, .T. ) ;
#68 = PRODUCT_DEFINITION_SHAPE ( 'NONE', 'NONE',  #109 ) ;
#69 = ORIENTED_EDGE ( 'NONE', *, *, #78, .F. ) ;
#70 = DIRECTION ( 'NONE',  ( -1.000000000000000000, 0.0000000000000000000, 0.0000000000000000000 ) ) ;
#71 = CARTESIAN_POINT ( 'NONE',  ( 0.0000000000000000000, 0.0000000000000000000, 0.0000000000000000000 ) ) ;
#72 = AXIS2_PLACEMENT_3D ( 'NONE', #141, #94, #207 ) ;
#73 = DIRECTION ( 'NONE',  ( 0.0000000000000000000, 0.0000000000000000000, -1.000000000000000000 ) ) ;
#74 = DIRECTION ( 'NONE',  ( -1.000000000000000000, 0.0000000000000000000, 1.224646799147352961E-16 ) ) ;
#75 = DIRECTION ( 'NONE',  ( 1.000000000000000000, 0.0000000000000000000, 0.0000000000000000000 ) ) ;
#76 = FACE_OUTER_BOUND ( 'NONE', #220, .T. ) ;
#77 = CARTESIAN_POINT ( 'NONE',  ( 0.0000000000000000000, 0.0000000000000000000, 2.937755999999999368 ) ) ;
#78 = EDGE_CURVE ( 'NONE', #131, #253, #153, .T. ) ;
#79 = DIRECTION ( 'NONE',  ( 1.000000000000000000, 0.0000000000000000000, 0.0000000000000000000 ) ) ;
#80 = PRESENTATION_STYLE_ASSIGNMENT (( #10 ) ) ;
#81 = AXIS2_PLACEMENT_3D ( 'NONE', #170, #11, #102 ) ;
#82 = APPLICATION_CONTEXT ( 'automotive_design' ) ;
#83 = CARTESIAN_POINT ( 'NONE',  ( 1.206181372760304484E-16, 0.0000000000000000000, 0.9849218350957149593 ) ) ;
#84 = LENGTH_MEASURE_WITH_UNIT ( LENGTH_MEASURE( 0.02539999999999999897 ), #130 );
#85 = ORIENTED_EDGE ( 'NONE', *, *, #5, .T. ) ;
#86 = ORIENTED_EDGE ( 'NONE', *, *, #14, .F. ) ;
#87 = CIRCLE ( 'NONE', #290, 0.1181100000000000344 ) ;
#88 = SURFACE_STYLE_USAGE ( .BOTH. , #271 ) ;
#89 = ORIENTED_EDGE ( 'NONE', *, *, #282, .T. ) ;
#90 = ADVANCED_FACE ( 'NONE', ( #115 ), #140, .F. ) ;
#91 = ORIENTED_EDGE ( 'NONE', *, *, #156, .T. ) ;
#92 = ORIENTED_EDGE ( 'NONE', *, *, #215, .T. ) ;
#93 = CONICAL_SURFACE ( 'NONE', #39, 0.1179918900000000298, 0.1745329251994339192 ) ;
#94 = DIRECTION ( 'NONE',  ( 0.0000000000000000000, 0.0000000000000000000, -1.000000000000000000 ) ) ;
#95 = FACE_OUTER_BOUND ( 'NONE', #159, .T. ) ;
#96 = DIRECTION ( 'NONE',  ( -1.224646799147353207E-16, -0.0000000000000000000, -1.000000000000000000 ) ) ;
#97 = AXIS2_PLACEMENT_3D ( 'NONE', #125, #286, #217 ) ;
#98 = CYLINDRICAL_SURFACE ( 'NONE', #25, 0.1181100000000000344 ) ;
#99 = DIRECTION ( 'NONE',  ( 0.0000000000000000000, 0.0000000000000000000, 1.000000000000000000 ) ) ;
#100 = CARTESIAN_POINT ( 'NONE',  ( 0.1031099999999991745, 1.262733314600825725E-17, 2.952755999999999936 ) ) ;
#101 = CARTESIAN_POINT ( 'NONE',  ( 0.1179918900000000159, 1.444983904138465938E-17, -1.444983904138465938E-17 ) ) ;
#102 = DIRECTION ( 'NONE',  ( -1.000000000000000000, 0.0000000000000000000, 0.0000000000000000000 ) ) ;
#103 = CIRCLE ( 'NONE', #97, 0.1179918900000000159 ) ;
#104 = ORIENTED_EDGE ( 'NONE', *, *, #36, .F. ) ;
#105 = LENGTH_MEASURE_WITH_UNIT ( LENGTH_MEASURE( 0.02539999999999999897 ), #245 );
#106 = ORIENTED_EDGE ( 'NONE', *, *, #291, .F. ) ;
#107 = APPLICATION_PROTOCOL_DEFINITION ( 'draft international standard', 'automotive_design', 1998, #203 ) ;
#108 = COLOUR_RGB ( '',0.7921568627450980005, 0.8196078431372548767, 0.9333333333333333481 ) ;
#109 = PRODUCT_DEFINITION ( 'UNKNOWN', '', #129, #19 ) ;
#110 =( CONVERSION_BASED_UNIT ( 'INCH', #105 ) LENGTH_UNIT ( ) NAMED_UNIT ( #38 ) );
#111 = ORIENTED_EDGE ( 'NONE', *, *, #173, .T. ) ;
#112 = ORIENTED_EDGE ( 'NONE', *, *, #5, .F. ) ;
#113 = ORIENTED_EDGE ( 'NONE', *, *, #173, .F. ) ;
#114 = AXIS2_PLACEMENT_3D ( 'NONE', #192, #168, #167 ) ;
#115 = FACE_OUTER_BOUND ( 'NONE', #23, .T. ) ;
#116 = CARTESIAN_POINT ( 'NONE',  ( -0.1181099999999999095, 0.0000000000000000000, 0.9849218350957149593 ) ) ;
#117 = ORIENTED_EDGE ( 'NONE', *, *, #36, .T. ) ;
#118 = AXIS2_PLACEMENT_3D ( 'NONE', #32, #239, #216 ) ;
#119 = CARTESIAN_POINT ( 'NONE',  ( -0.1179918899999999049, 1.444983904138466246E-17, 0.9842519999999999047 ) ) ;
#120 =( LENGTH_UNIT ( ) NAMED_UNIT ( * ) SI_UNIT ( $, .METRE. ) );
#121 = EDGE_CURVE ( 'NONE', #253, #131, #48, .T. ) ;
#122 = CARTESIAN_POINT ( 'NONE',  ( 1.206181372760304484E-16, 0.0000000000000000000, 0.9849218350957149593 ) ) ;
#123 = VECTOR ( 'NONE', #33, 39.37007874015748143 ) ;
#124 = DIRECTION ( 'NONE',  ( -0.0000000000000000000, -0.0000000000000000000, -1.000000000000000000 ) ) ;
#125 = CARTESIAN_POINT ( 'NONE',  ( 1.769594913022618379E-33, 0.0000000000000000000, 1.444983904138465938E-17 ) ) ;
#126 = PRESENTATION_STYLE_ASSIGNMENT (( #88 ) ) ;
#127 = AXIS2_PLACEMENT_3D ( 'NONE', #228, #96, #74 ) ;
#128 = VERTEX_POINT ( 'NONE', #116 ) ;
#129 = PRODUCT_DEFINITION_FORMATION_WITH_SPECIFIED_SOURCE ( 'ANY', '', #240, .NOT_KNOWN. ) ;
#130 =( LENGTH_UNIT ( ) NAMED_UNIT ( * ) SI_UNIT ( $, .METRE. ) );
#131 = VERTEX_POINT ( 'NONE', #226 ) ;
#132 = ADVANCED_FACE ( 'NONE', ( #298 ), #244, .T. ) ;
#133 = DIRECTION ( 'NONE',  ( -1.224646799147353207E-16, -0.0000000000000000000, -1.000000000000000000 ) ) ;
#134 = UNCERTAINTY_MEASURE_WITH_UNIT (LENGTH_MEASURE( 1.000000000000000082E-05 ), #110, 'distance_accuracy_value', 'NONE');
#135 = VECTOR ( 'NONE', #233, 39.37007874015748143 ) ;
#136 = SURFACE_STYLE_FILL_AREA ( #193 ) ;
#137 = VECTOR ( 'NONE', #288, 39.37007874015748143 ) ;
#138 = CARTESIAN_POINT ( 'NONE',  ( 0.1179918900000001408, 0.0000000000000000000, 0.9842519999999999047 ) ) ;
#139 = EDGE_CURVE ( 'NONE', #194, #250, #44, .T. ) ;
#140 = PLANE ( 'NONE',  #3 ) ;
#141 = CARTESIAN_POINT ( 'NONE',  ( 0.0000000000000000000, 0.0000000000000000000, 2.952755999999999936 ) ) ;
#142 = AXIS2_PLACEMENT_3D ( 'NONE', #262, #133, #42 ) ;
#143 = CARTESIAN_POINT ( 'NONE',  ( 0.0000000000000000000, 0.0000000000000000000, 2.952755999999999936 ) ) ;
#144 = MANIFOLD_SOLID_BREP ( 'Cut-Revolve1', #296 ) ;
#145 = LINE ( 'NONE', #119, #281 ) ;
#146 = CARTESIAN_POINT ( 'NONE',  ( 1.205361061354380629E-16, 0.0000000000000000000, 0.9842519999999999047 ) ) ;
#147 = FACE_OUTER_BOUND ( 'NONE', #16, .T. ) ;
#148 = EDGE_CURVE ( 'NONE', #194, #41, #152, .T. ) ;
#149 = SURFACE_SIDE_STYLE ('',( #169 ) ) ;
#150 = DIRECTION ( 'NONE',  ( -1.000000000000000000, 0.0000000000000000000, 0.0000000000000000000 ) ) ;
#151 = FILL_AREA_STYLE ('',( #211 ) ) ;
#152 = LINE ( 'NONE', #191, #252 ) ;
#153 = CIRCLE ( 'NONE', #297, 0.1031099999999991745 ) ;
#154 = VERTEX_POINT ( 'NONE', #6 ) ;
#155 = PRODUCT_CONTEXT ( 'NONE', #82, 'mechanical' ) ;
#156 = EDGE_CURVE ( 'NONE', #253, #194, #37, .T. ) ;
#157 = VERTEX_POINT ( 'NONE', #57 ) ;
#158 = EDGE_CURVE ( 'NONE', #250, #128, #242, .T. ) ;
#159 = EDGE_LOOP ( 'NONE', ( #92, #67, #269, #289 ) ) ;
#160 = ORIENTED_EDGE ( 'NONE', *, *, #148, .F. ) ;
#161 = DIRECTION ( 'NONE',  ( -0.7071067811865486830, 0.0000000000000000000, -0.7071067811865462405 ) ) ;
#162 = EDGE_LOOP ( 'NONE', ( #65, #179 ) ) ;
#163 = AXIS2_PLACEMENT_3D ( 'NONE', #277, #73, #164 ) ;
#164 = DIRECTION ( 'NONE',  ( 1.000000000000000000, 0.0000000000000000000, 0.0000000000000000000 ) ) ;
#165 = EDGE_CURVE ( 'NONE', #45, #223, #103, .T. ) ;
#166 = LINE ( 'NONE', #259, #63 ) ;
#167 = DIRECTION ( 'NONE',  ( 1.000000000000000000, 0.0000000000000000000, 0.0000000000000000000 ) ) ;
#168 = DIRECTION ( 'NONE',  ( 1.224646799147353207E-16, 0.0000000000000000000, 1.000000000000000000 ) ) ;
#169 = SURFACE_STYLE_FILL_AREA ( #151 ) ;
#170 = CARTESIAN_POINT ( 'NONE',  ( 1.205361061354380629E-16, 0.0000000000000000000, 0.9842519999999999047 ) ) ;
#171 = MECHANICAL_DESIGN_GEOMETRIC_PRESENTATION_REPRESENTATION (  '', ( #285 ), #181 ) ;
#172 =( NAMED_UNIT ( * ) PLANE_ANGLE_UNIT ( ) SI_UNIT ( $, .RADIAN. ) );
#173 = EDGE_CURVE ( 'NONE', #157, #154, #12, .T. ) ;
#174 = ORIENTED_EDGE ( 'NONE', *, *, #229, .F. ) ;
#175 = ORIENTED_EDGE ( 'NONE', *, *, #158, .T. ) ;
#176 = AXIS2_PLACEMENT_3D ( 'NONE', #122, #190, #8 ) ;
#177 = SHAPE_DEFINITION_REPRESENTATION ( #68, #295 ) ;
#178 = ORIENTED_EDGE ( 'NONE', *, *, #291, .T. ) ;
#179 = ORIENTED_EDGE ( 'NONE', *, *, #121, .T. ) ;
#180 = ORIENTED_EDGE ( 'NONE', *, *, #14, .T. ) ;
#181 =( GEOMETRIC_REPRESENTATION_CONTEXT ( 3 ) GLOBAL_UNCERTAINTY_ASSIGNED_CONTEXT ( ( #248 ) ) GLOBAL_UNIT_ASSIGNED_CONTEXT ( ( #35, #188, #283 ) ) REPRESENTATION_CONTEXT ( 'NONE', 'WORKASPACE' ) );
#182 = ORIENTED_EDGE ( 'NONE', *, *, #139, .T. ) ;
#183 = DIRECTION ( 'NONE',  ( 1.000000000000000000, 0.0000000000000000000, 0.0000000000000000000 ) ) ;
#184 = DIRECTION ( 'NONE',  ( 0.0000000000000000000, 0.0000000000000000000, 1.000000000000000000 ) ) ;
#185 = MECHANICAL_DESIGN_GEOMETRIC_PRESENTATION_REPRESENTATION (  '', ( #20 ), #59 ) ;
#186 = ORIENTED_EDGE ( 'NONE', *, *, #156, .F. ) ;
#187 = DIRECTION ( 'NONE',  ( -1.000000000000000000, 0.0000000000000000000, 1.224646799147352961E-16 ) ) ;
#188 =( NAMED_UNIT ( * ) PLANE_ANGLE_UNIT ( ) SI_UNIT ( $, .RADIAN. ) );
#189 = CIRCLE ( 'NONE', #268, 0.1181100000000000344 ) ;
#190 = DIRECTION ( 'NONE',  ( -1.224646799147353207E-16, -0.0000000000000000000, -1.000000000000000000 ) ) ;
#191 = CARTESIAN_POINT ( 'NONE',  ( 0.1181100000000000344, 1.446430334472939084E-17, 2.952755999999999936 ) ) ;
#192 = CARTESIAN_POINT ( 'NONE',  ( 1.205361061354380629E-16, 0.0000000000000000000, 0.9842519999999999047 ) ) ;
#193 = FILL_AREA_STYLE ('',( #197 ) ) ;
#194 = VERTEX_POINT ( 'NONE', #212 ) ;
#195 = CARTESIAN_POINT ( 'NONE',  ( 0.1031099999999991745, 1.354581824536882559E-17, 2.952755999999999936 ) ) ;
#196 = ORIENTED_EDGE ( 'NONE', *, *, #213, .T. ) ;
#197 = FILL_AREA_STYLE_COLOUR ( '', #108 ) ;
#198 = ADVANCED_FACE ( 'NONE', ( #260 ), #199, .T. ) ;
#199 = CONICAL_SURFACE ( 'NONE', #238, 0.1031099999999991745, 0.7853981633974500554 ) ;
#200 = ORIENTED_EDGE ( 'NONE', *, *, #139, .F. ) ;
#201 =( NAMED_UNIT ( * ) PLANE_ANGLE_UNIT ( ) SI_UNIT ( $, .RADIAN. ) );
#202 = ORIENTED_EDGE ( 'NONE', *, *, #215, .F. ) ;
#203 = APPLICATION_CONTEXT ( 'automotive_design' ) ;
#204 = FACE_OUTER_BOUND ( 'NONE', #162, .T. ) ;
#205 = VECTOR ( 'NONE', #264, 39.37007874015748143 ) ;
#206 = CARTESIAN_POINT ( 'NONE',  ( -0.1179918900000000159, 0.0000000000000000000, 1.444983904138465938E-17 ) ) ;
#207 = DIRECTION ( 'NONE',  ( -1.000000000000000000, 0.0000000000000000000, 0.0000000000000000000 ) ) ;
#208 = ORIENTED_EDGE ( 'NONE', *, *, #229, .T. ) ;
#209 = UNCERTAINTY_MEASURE_WITH_UNIT (LENGTH_MEASURE( 1.000000000000000082E-05 ), #221, 'distance_accuracy_value', 'NONE');
#210 = DIRECTION ( 'NONE',  ( -1.224646799147353207E-16, -0.0000000000000000000, -1.000000000000000000 ) ) ;
#211 = FILL_AREA_STYLE_COLOUR ( '', #257 ) ;
#212 = CARTESIAN_POINT ( 'NONE',  ( 0.1181100000000000344, 1.446430334472939084E-17, 2.937755999999999368 ) ) ;
#213 = EDGE_CURVE ( 'NONE', #41, #128, #214, .T. ) ;
#214 = CIRCLE ( 'NONE', #176, 0.1181100000000000344 ) ;
#215 = EDGE_CURVE ( 'NONE', #250, #194, #189, .T. ) ;
#216 = DIRECTION ( 'NONE',  ( -1.000000000000000000, 0.0000000000000000000, 0.0000000000000000000 ) ) ;
#217 = DIRECTION ( 'NONE',  ( -1.000000000000000000, 0.0000000000000000000, 1.224646799147352961E-16 ) ) ;
#218 = AXIS2_PLACEMENT_3D ( 'NONE', #143, #255, #30 ) ;
#219 = APPLICATION_PROTOCOL_DEFINITION ( 'draft international standard', 'automotive_design', 1998, #82 ) ;
#220 = EDGE_LOOP ( 'NONE', ( #86, #272, #178, #196 ) ) ;
#221 =( CONVERSION_BASED_UNIT ( 'INCH', #84 ) LENGTH_UNIT ( ) NAMED_UNIT ( #9 ) );
#222 = VECTOR ( 'NONE', #266, 39.37007874015748854 ) ;
#223 = VERTEX_POINT ( 'NONE', #235 ) ;
#224 = CARTESIAN_POINT ( 'NONE',  ( 0.0000000000000000000, 0.0000000000000000000, 0.0000000000000000000 ) ) ;
#225 = ORIENTED_EDGE ( 'NONE', *, *, #121, .F. ) ;
#226 = CARTESIAN_POINT ( 'NONE',  ( -0.1031099999999991745, 0.0000000000000000000, 2.952755999999999936 ) ) ;
#227 = ADVANCED_FACE ( 'NONE', ( #76 ), #273, .T. ) ;
#228 = CARTESIAN_POINT ( 'NONE',  ( 0.0000000000000000000, 0.0000000000000000000, 0.0000000000000000000 ) ) ;
#229 = EDGE_CURVE ( 'NONE', #154, #45, #236, .T. ) ;
#230 =( GEOMETRIC_REPRESENTATION_CONTEXT ( 3 ) GLOBAL_UNCERTAINTY_ASSIGNED_CONTEXT ( ( #209 ) ) GLOBAL_UNIT_ASSIGNED_CONTEXT ( ( #221, #201, #18 ) ) REPRESENTATION_CONTEXT ( 'NONE', 'WORKASPACE' ) );
#231 = CYLINDRICAL_SURFACE ( 'NONE', #34, 0.1179918900000000159 ) ;
#232 = DIRECTION ( 'NONE',  ( -0.0000000000000000000, -0.0000000000000000000, -1.000000000000000000 ) ) ;
#233 = DIRECTION ( 'NONE',  ( -1.224646799147353207E-16, -0.0000000000000000000, -1.000000000000000000 ) ) ;
#234 = AXIS2_PLACEMENT_3D ( 'NONE', #224, #22, #61 ) ;
#235 = CARTESIAN_POINT ( 'NONE',  ( -0.1179918900000000159, 0.0000000000000000000, 2.889967808276931875E-17 ) ) ;
#236 = LINE ( 'NONE', #101, #205 ) ;
#237 = ADVANCED_FACE ( 'NONE', ( #147 ), #58, .T. ) ;
#238 = AXIS2_PLACEMENT_3D ( 'NONE', #263, #54, #150 ) ;
#239 = DIRECTION ( 'NONE',  ( -0.0000000000000000000, -0.0000000000000000000, -1.000000000000000000 ) ) ;
#240 = PRODUCT ( 'Micro_SHLM-060-4X', 'Micro_SHLM-060-4X', '', ( #155 ) ) ;
#241 = EDGE_CURVE ( 'NONE', #223, #45, #55, .T. ) ;
#242 = LINE ( 'NONE', #284, #123 ) ;
#243 = DIRECTION ( 'NONE',  ( -1.000000000000000000, 0.0000000000000000000, 0.0000000000000000000 ) ) ;
#244 = CONICAL_SURFACE ( 'NONE', #72, 0.1031099999999991745, 0.7853981633974500554 ) ;
#245 =( LENGTH_UNIT ( ) NAMED_UNIT ( * ) SI_UNIT ( $, .METRE. ) );
#246 = ORIENTED_EDGE ( 'NONE', *, *, #165, .T. ) ;
#247 = DIRECTION ( 'NONE',  ( -1.224646799147353207E-16, -0.0000000000000000000, -1.000000000000000000 ) ) ;
#248 = UNCERTAINTY_MEASURE_WITH_UNIT (LENGTH_MEASURE( 1.000000000000000082E-05 ), #35, 'distance_accuracy_value', 'NONE');
#249 = CARTESIAN_POINT ( 'NONE',  ( 1.205361061354380629E-16, 0.0000000000000000000, 0.9842519999999999047 ) ) ;
#250 = VERTEX_POINT ( 'NONE', #21 ) ;
#251 =( NAMED_UNIT ( * ) SI_UNIT ( $, .STERADIAN. ) SOLID_ANGLE_UNIT ( ) );
#252 = VECTOR ( 'NONE', #124, 39.37007874015748143 ) ;
#253 = VERTEX_POINT ( 'NONE', #195 ) ;
#254 = DIRECTION ( 'NONE',  ( 1.224646799147353207E-16, 0.0000000000000000000, 1.000000000000000000 ) ) ;
#255 = DIRECTION ( 'NONE',  ( 0.0000000000000000000, 0.0000000000000000000, 1.000000000000000000 ) ) ;
#256 = FACE_OUTER_BOUND ( 'NONE', #294, .T. ) ;
#257 = COLOUR_RGB ( '',0.7921568627450980005, 0.8196078431372548767, 0.9333333333333333481 ) ;
#258 = CARTESIAN_POINT ( 'NONE',  ( 0.0000000000000000000, 0.0000000000000000000, 2.952755999999999936 ) ) ;
#259 = CARTESIAN_POINT ( 'NONE',  ( -0.1031099999999991745, 0.0000000000000000000, 2.952755999999999936 ) ) ;
#260 = FACE_OUTER_BOUND ( 'NONE', #267, .T. ) ;
#261 = CIRCLE ( 'NONE', #265, 0.1179918900000000298 ) ;
#262 = CARTESIAN_POINT ( 'NONE',  ( 1.769594913022618379E-33, 0.0000000000000000000, 1.444983904138465938E-17 ) ) ;
#263 = CARTESIAN_POINT ( 'NONE',  ( 0.0000000000000000000, 0.0000000000000000000, 2.952755999999999936 ) ) ;
#264 = DIRECTION ( 'NONE',  ( -1.224646799147353207E-16, -0.0000000000000000000, -1.000000000000000000 ) ) ;
#265 = AXIS2_PLACEMENT_3D ( 'NONE', #249, #247, #243 ) ;
#266 = DIRECTION ( 'NONE',  ( 0.7071067811865486830, 8.659560562354947649E-17, -0.7071067811865462405 ) ) ;
#267 = EDGE_LOOP ( 'NONE', ( #225, #91, #202, #104 ) ) ;
#268 = AXIS2_PLACEMENT_3D ( 'NONE', #77, #280, #79 ) ;
#269 = ORIENTED_EDGE ( 'NONE', *, *, #282, .F. ) ;
#270 = EDGE_CURVE ( 'NONE', #154, #157, #261, .T. ) ;
#271 = SURFACE_SIDE_STYLE ('',( #136 ) ) ;
#272 = ORIENTED_EDGE ( 'NONE', *, *, #270, .F. ) ;
#273 = CONICAL_SURFACE ( 'NONE', #114, 0.1179918900000000298, 0.1745329251994339192 ) ;
#274 = EDGE_LOOP ( 'NONE', ( #174, #2, #85, #13 ) ) ;
#275 = DIRECTION ( 'NONE',  ( -0.1736481776669312194, 2.126576849575783625E-17, 0.9848077530122080203 ) ) ;
#276 = CARTESIAN_POINT ( 'NONE',  ( 0.0000000000000000000, 0.0000000000000000000, 0.0000000000000000000 ) ) ;
#277 = CARTESIAN_POINT ( 'NONE',  ( 0.0000000000000000000, 0.0000000000000000000, 2.937755999999999368 ) ) ;
#278 = LINE ( 'NONE', #206, #135 ) ;
#279 = DIRECTION ( 'NONE',  ( 0.0000000000000000000, 0.0000000000000000000, 1.000000000000000000 ) ) ;
#280 = DIRECTION ( 'NONE',  ( 0.0000000000000000000, 0.0000000000000000000, -1.000000000000000000 ) ) ;
#281 = VECTOR ( 'NONE', #275, 39.37007874015747433 ) ;
#282 = EDGE_CURVE ( 'NONE', #128, #41, #87, .T. ) ;
#283 =( NAMED_UNIT ( * ) SI_UNIT ( $, .STERADIAN. ) SOLID_ANGLE_UNIT ( ) );
#284 = CARTESIAN_POINT ( 'NONE',  ( -0.1181100000000000344, 0.0000000000000000000, 2.952755999999999936 ) ) ;
#285 = STYLED_ITEM ( 'NONE', ( #80 ), #144 ) ;
#286 = DIRECTION ( 'NONE',  ( -1.224646799147353207E-16, -0.0000000000000000000, -1.000000000000000000 ) ) ;
#287 = ORIENTED_EDGE ( 'NONE', *, *, #241, .T. ) ;
#288 = DIRECTION ( 'NONE',  ( 0.1736481776669314137, 0.0000000000000000000, 0.9848077530122077983 ) ) ;
#289 = ORIENTED_EDGE ( 'NONE', *, *, #158, .F. ) ;
#290 = AXIS2_PLACEMENT_3D ( 'NONE', #83, #40, #293 ) ;
#291 = EDGE_CURVE ( 'NONE', #154, #41, #15, .T. ) ;
#292 = EDGE_LOOP ( 'NONE', ( #186, #69, #117, #200 ) ) ;
#293 = DIRECTION ( 'NONE',  ( 1.000000000000000000, 0.0000000000000000000, 0.0000000000000000000 ) ) ;
#294 = EDGE_LOOP ( 'NONE', ( #113, #180, #89, #106 ) ) ;
#295 = ADVANCED_BREP_SHAPE_REPRESENTATION ( 'Micro_SHLM-060-4X', ( #144, #234 ), #230 ) ;
#296 = CLOSED_SHELL ( 'NONE', ( #27, #50, #198, #17, #237, #51, #132, #227, #66, #90 ) ) ;
#297 = AXIS2_PLACEMENT_3D ( 'NONE', #26, #184, #4 ) ;
#298 = FACE_OUTER_BOUND ( 'NONE', #292, .T. ) ;
#299 = CYLINDRICAL_SURFACE ( 'NONE', #127, 0.1179918900000000159 ) ;
ENDSEC;
END-ISO-10303-21;
