ISO-10303-21;
HEADER;
FILE_DESCRIPTION (( 'STEP AP214' ),
    '1' );
FILE_NAME ('Micro_SFPM-060-20.STEP',
    '2021-09-02T07:21:29',
    ( '' ),
    ( '' ),
    'SwSTEP 2.0',
    'SolidWorks 2020',
    '' );
FILE_SCHEMA (( 'AUTOMOTIVE_DESIGN' ));
ENDSEC;

DATA;
#1 = SURFACE_SIDE_STYLE ('',( #235 ) ) ;
#2 = AXIS2_PLACEMENT_3D ( 'NONE', #290, #81, #193 ) ;
#3 = LINE ( 'NONE', #191, #261 ) ;
#4 = DIRECTION ( 'NONE',  ( 1.000000000000000000, 0.0000000000000000000, 0.0000000000000000000 ) ) ;
#5 = EDGE_CURVE ( 'NONE', #123, #272, #295, .T. ) ;
#6 = CIRCLE ( 'NONE', #2, 0.1181100000000000066 ) ;
#7 = ADVANCED_FACE ( 'NONE', ( #179 ), #155, .T. ) ;
#8 = DIRECTION ( 'NONE',  ( 0.0000000000000000000, 0.0000000000000000000, 1.000000000000000000 ) ) ;
#9 = FACE_OUTER_BOUND ( 'NONE', #11, .T. ) ;
#10 = CARTESIAN_POINT ( 'NONE',  ( 0.1031100000000002570, 1.354581824536888722E-17, 2.244094000000000033 ) ) ;
#11 = EDGE_LOOP ( 'NONE', ( #109, #170, #255, #273 ) ) ;
#12 = DIRECTION ( 'NONE',  ( -1.000000000000000000, 0.0000000000000000000, 0.0000000000000000000 ) ) ;
#13 = MECHANICAL_DESIGN_GEOMETRIC_PRESENTATION_REPRESENTATION (  '', ( #80 ), #141 ) ;
#14 = VERTEX_POINT ( 'NONE', #59 ) ;
#15 = CARTESIAN_POINT ( 'NONE',  ( 0.1031100000000002570, 1.262733314600838667E-17, 2.244094000000000033 ) ) ;
#16 = SURFACE_STYLE_USAGE ( .BOTH. , #1 ) ;
#17 = DIRECTION ( 'NONE',  ( 0.7071067811865358044, 8.659560562354788645E-17, -0.7071067811865590080 ) ) ;
#18 = EDGE_LOOP ( 'NONE', ( #57, #178 ) ) ;
#19 =( LENGTH_UNIT ( ) NAMED_UNIT ( * ) SI_UNIT ( $, .METRE. ) );
#20 = LENGTH_MEASURE_WITH_UNIT ( LENGTH_MEASURE( 0.02539999999999999897 ), #138 );
#21 = FACE_OUTER_BOUND ( 'NONE', #35, .T. ) ;
#22 = CARTESIAN_POINT ( 'NONE',  ( 9.642893389422242582E-17, 0.0000000000000000000, 0.7874019999999999353 ) ) ;
#23 = DIRECTION ( 'NONE',  ( -1.000000000000000000, 0.0000000000000000000, 0.0000000000000000000 ) ) ;
#24 = CARTESIAN_POINT ( 'NONE',  ( -0.1181099999999999095, 0.0000000000000000000, 0.7880718350957151008 ) ) ;
#25 = APPLICATION_CONTEXT ( 'automotive_design' ) ;
#26 = EDGE_LOOP ( 'NONE', ( #205, #256, #128, #93 ) ) ;
#27 = FACE_OUTER_BOUND ( 'NONE', #166, .T. ) ;
#28 = DIMENSIONAL_EXPONENTS ( 1.000000000000000000, 0.0000000000000000000, 0.0000000000000000000, 0.0000000000000000000, 0.0000000000000000000, 0.0000000000000000000, 0.0000000000000000000 ) ;
#29 = PLANE ( 'NONE',  #74 ) ;
#30 = LINE ( 'NONE', #200, #165 ) ;
#31 = EDGE_CURVE ( 'NONE', #230, #62, #252, .T. ) ;
#32 = VECTOR ( 'NONE', #122, 39.37007874015748143 ) ;
#33 = CARTESIAN_POINT ( 'NONE',  ( -0.1181100000000000066, 0.0000000000000000000, 2.229093999999999465 ) ) ;
#34 = ORIENTED_EDGE ( 'NONE', *, *, #254, .T. ) ;
#35 = EDGE_LOOP ( 'NONE', ( #280, #251, #181, #132 ) ) ;
#36 = AXIS2_PLACEMENT_3D ( 'NONE', #264, #103, #242 ) ;
#37 = FILL_AREA_STYLE ('',( #276 ) ) ;
#38 = ORIENTED_EDGE ( 'NONE', *, *, #73, .T. ) ;
#39 = PRODUCT_RELATED_PRODUCT_CATEGORY ( 'part', '', ( #72 ) ) ;
#40 = VERTEX_POINT ( 'NONE', #296 ) ;
#41 = AXIS2_PLACEMENT_3D ( 'NONE', #216, #163, #274 ) ;
#42 =( NAMED_UNIT ( * ) PLANE_ANGLE_UNIT ( ) SI_UNIT ( $, .RADIAN. ) );
#43 = CLOSED_SHELL ( 'NONE', ( #291, #131, #243, #286, #7, #66, #94, #136, #201, #199 ) ) ;
#44 = DIRECTION ( 'NONE',  ( -1.224646799147353207E-16, -0.0000000000000000000, -1.000000000000000000 ) ) ;
#45 =( NAMED_UNIT ( * ) SI_UNIT ( $, .STERADIAN. ) SOLID_ANGLE_UNIT ( ) );
#46 = DIMENSIONAL_EXPONENTS ( 1.000000000000000000, 0.0000000000000000000, 0.0000000000000000000, 0.0000000000000000000, 0.0000000000000000000, 0.0000000000000000000, 0.0000000000000000000 ) ;
#47 = AXIS2_PLACEMENT_3D ( 'NONE', #55, #121, #172 ) ;
#48 = VECTOR ( 'NONE', #86, 39.37007874015748854 ) ;
#49 = CARTESIAN_POINT ( 'NONE',  ( 1.769594913022618037E-33, 0.0000000000000000000, 1.444983904138465938E-17 ) ) ;
#50 = DIRECTION ( 'NONE',  ( 1.000000000000000000, 0.0000000000000000000, 0.0000000000000000000 ) ) ;
#51 = LENGTH_MEASURE_WITH_UNIT ( LENGTH_MEASURE( 0.02539999999999999897 ), #222 );
#52 = EDGE_CURVE ( 'NONE', #159, #14, #98, .T. ) ;
#53 = DIRECTION ( 'NONE',  ( -1.224646799147353207E-16, -0.0000000000000000000, -1.000000000000000000 ) ) ;
#54 = MANIFOLD_SOLID_BREP ( 'Cut-Revolve1', #43 ) ;
#55 = CARTESIAN_POINT ( 'NONE',  ( 0.0000000000000000000, 0.0000000000000000000, 0.0000000000000000000 ) ) ;
#56 = CIRCLE ( 'NONE', #207, 0.1031100000000002570 ) ;
#57 = ORIENTED_EDGE ( 'NONE', *, *, #268, .T. ) ;
#58 = APPLICATION_CONTEXT ( 'automotive_design' ) ;
#59 = CARTESIAN_POINT ( 'NONE',  ( 0.1181100000000001177, 1.446430334472940317E-17, 0.7880718350957151008 ) ) ;
#60 = CARTESIAN_POINT ( 'NONE',  ( -0.1031100000000002570, 0.0000000000000000000, 2.244094000000000033 ) ) ;
#61 = LINE ( 'NONE', #133, #226 ) ;
#62 = VERTEX_POINT ( 'NONE', #233 ) ;
#63 = AXIS2_PLACEMENT_3D ( 'NONE', #49, #218, #100 ) ;
#64 = PRODUCT_CONTEXT ( 'NONE', #25, 'mechanical' ) ;
#65 = CARTESIAN_POINT ( 'NONE',  ( 9.651096503481483597E-17, 0.0000000000000000000, 0.7880718350957151008 ) ) ;
#66 = ADVANCED_FACE ( 'NONE', ( #117 ), #299, .T. ) ;
#67 = SURFACE_SIDE_STYLE ('',( #279 ) ) ;
#68 = CIRCLE ( 'NONE', #41, 0.1181100000000000066 ) ;
#69 =( NAMED_UNIT ( * ) SI_UNIT ( $, .STERADIAN. ) SOLID_ANGLE_UNIT ( ) );
#70 = CARTESIAN_POINT ( 'NONE',  ( 0.1179918899999999882, 1.444983904138465938E-17, 0.0000000000000000000 ) ) ;
#71 = ADVANCED_BREP_SHAPE_REPRESENTATION ( 'Micro_SFPM-060-20', ( #54, #247 ), #202 ) ;
#72 = PRODUCT ( 'Micro_SFPM-060-20', 'Micro_SFPM-060-20', '', ( #64 ) ) ;
#73 = EDGE_CURVE ( 'NONE', #203, #40, #217, .T. ) ;
#74 = AXIS2_PLACEMENT_3D ( 'NONE', #267, #8, #101 ) ;
#75 = UNCERTAINTY_MEASURE_WITH_UNIT (LENGTH_MEASURE( 1.000000000000000082E-05 ), #204, 'distance_accuracy_value', 'NONE');
#76 = DIRECTION ( 'NONE',  ( -1.224646799147353207E-16, -0.0000000000000000000, -1.000000000000000000 ) ) ;
#77 = CARTESIAN_POINT ( 'NONE',  ( 0.0000000000000000000, 0.0000000000000000000, 2.244094000000000033 ) ) ;
#78 = FACE_OUTER_BOUND ( 'NONE', #26, .T. ) ;
#79 = COLOUR_RGB ( '',0.7921568627450980005, 0.8196078431372548767, 0.9333333333333333481 ) ;
#80 = STYLED_ITEM ( 'NONE', ( #137 ), #71 ) ;
#81 = DIRECTION ( 'NONE',  ( 0.0000000000000000000, 0.0000000000000000000, -1.000000000000000000 ) ) ;
#82 = CARTESIAN_POINT ( 'NONE',  ( -0.1181100000000000066, 0.0000000000000000000, 2.244094000000000033 ) ) ;
#83 = EDGE_CURVE ( 'NONE', #62, #14, #262, .T. ) ;
#84 = VECTOR ( 'NONE', #17, 39.37007874015748854 ) ;
#85 = CONICAL_SURFACE ( 'NONE', #151, 0.1179918899999999882, 0.1745329251994339192 ) ;
#86 = DIRECTION ( 'NONE',  ( -0.7071067811865358044, 0.0000000000000000000, -0.7071067811865590080 ) ) ;
#87 = VERTEX_POINT ( 'NONE', #115 ) ;
#88 =( GEOMETRIC_REPRESENTATION_CONTEXT ( 3 ) GLOBAL_UNCERTAINTY_ASSIGNED_CONTEXT ( ( #238 ) ) GLOBAL_UNIT_ASSIGNED_CONTEXT ( ( #164, #209, #45 ) ) REPRESENTATION_CONTEXT ( 'NONE', 'WORKASPACE' ) );
#89 = EDGE_CURVE ( 'NONE', #203, #134, #3, .T. ) ;
#90 = ORIENTED_EDGE ( 'NONE', *, *, #224, .F. ) ;
#91 = AXIS2_PLACEMENT_3D ( 'NONE', #22, #239, #23 ) ;
#92 = FILL_AREA_STYLE_COLOUR ( '', #79 ) ;
#93 = ORIENTED_EDGE ( 'NONE', *, *, #116, .F. ) ;
#94 = ADVANCED_FACE ( 'NONE', ( #287 ), #288, .T. ) ;
#95 = DIRECTION ( 'NONE',  ( -0.0000000000000000000, -0.0000000000000000000, -1.000000000000000000 ) ) ;
#96 = AXIS2_PLACEMENT_3D ( 'NONE', #65, #110, #206 ) ;
#97 = EDGE_CURVE ( 'NONE', #40, #203, #246, .T. ) ;
#98 = CIRCLE ( 'NONE', #96, 0.1181100000000000066 ) ;
#99 = DIRECTION ( 'NONE',  ( 0.0000000000000000000, 0.0000000000000000000, 1.000000000000000000 ) ) ;
#100 = DIRECTION ( 'NONE',  ( -1.000000000000000000, 0.0000000000000000000, 1.224646799147353454E-16 ) ) ;
#101 = DIRECTION ( 'NONE',  ( 1.000000000000000000, 0.0000000000000000000, -0.0000000000000000000 ) ) ;
#102 = PRESENTATION_LAYER_ASSIGNMENT (  '', '', ( #80 ) ) ;
#103 = DIRECTION ( 'NONE',  ( 0.0000000000000000000, 0.0000000000000000000, 1.000000000000000000 ) ) ;
#104 = EDGE_LOOP ( 'NONE', ( #152, #34 ) ) ;
#105 = AXIS2_PLACEMENT_3D ( 'NONE', #289, #245, #168 ) ;
#106 = COLOUR_RGB ( '',0.7921568627450980005, 0.8196078431372548767, 0.9333333333333333481 ) ;
#107 = ORIENTED_EDGE ( 'NONE', *, *, #83, .T. ) ;
#108 = ORIENTED_EDGE ( 'NONE', *, *, #116, .T. ) ;
#109 = ORIENTED_EDGE ( 'NONE', *, *, #254, .F. ) ;
#110 = DIRECTION ( 'NONE',  ( -1.224646799147353207E-16, -0.0000000000000000000, -1.000000000000000000 ) ) ;
#111 = EDGE_CURVE ( 'NONE', #62, #272, #68, .T. ) ;
#112 = CARTESIAN_POINT ( 'NONE',  ( 9.642893389422242582E-17, 0.0000000000000000000, 0.7874019999999999353 ) ) ;
#113 = CARTESIAN_POINT ( 'NONE',  ( 0.1181100000000000066, 1.446430334472939084E-17, 2.244094000000000033 ) ) ;
#114 = CIRCLE ( 'NONE', #36, 0.1031100000000002570 ) ;
#115 = CARTESIAN_POINT ( 'NONE',  ( -0.1179918899999999882, 0.0000000000000000000, 2.889967808276931875E-17 ) ) ;
#116 = EDGE_CURVE ( 'NONE', #40, #87, #61, .T. ) ;
#117 = FACE_OUTER_BOUND ( 'NONE', #104, .T. ) ;
#118 = DIMENSIONAL_EXPONENTS ( 1.000000000000000000, 0.0000000000000000000, 0.0000000000000000000, 0.0000000000000000000, 0.0000000000000000000, 0.0000000000000000000, 0.0000000000000000000 ) ;
#119 = CONICAL_SURFACE ( 'NONE', #241, 0.1031100000000002570, 0.7853981633974318477 ) ;
#120 = CYLINDRICAL_SURFACE ( 'NONE', #278, 0.1181100000000000066 ) ;
#121 = DIRECTION ( 'NONE',  ( -1.224646799147353207E-16, -0.0000000000000000000, -1.000000000000000000 ) ) ;
#122 = DIRECTION ( 'NONE',  ( -0.0000000000000000000, -0.0000000000000000000, -1.000000000000000000 ) ) ;
#123 = VERTEX_POINT ( 'NONE', #210 ) ;
#124 = DIRECTION ( 'NONE',  ( -0.0000000000000000000, -0.0000000000000000000, -1.000000000000000000 ) ) ;
#125 = DIRECTION ( 'NONE',  ( 0.0000000000000000000, 0.0000000000000000000, 1.000000000000000000 ) ) ;
#126 = DIRECTION ( 'NONE',  ( -1.000000000000000000, 0.0000000000000000000, 0.0000000000000000000 ) ) ;
#127 = ORIENTED_EDGE ( 'NONE', *, *, #190, .F. ) ;
#128 = ORIENTED_EDGE ( 'NONE', *, *, #268, .F. ) ;
#129 = PRODUCT_DEFINITION_FORMATION_WITH_SPECIFIED_SOURCE ( 'ANY', '', #72, .NOT_KNOWN. ) ;
#130 = DIRECTION ( 'NONE',  ( 0.0000000000000000000, 0.0000000000000000000, 1.000000000000000000 ) ) ;
#131 = ADVANCED_FACE ( 'NONE', ( #188 ), #85, .T. ) ;
#132 = ORIENTED_EDGE ( 'NONE', *, *, #224, .T. ) ;
#133 = CARTESIAN_POINT ( 'NONE',  ( -0.1179918899999999882, 0.0000000000000000000, 1.444983904138465938E-17 ) ) ;
#134 = VERTEX_POINT ( 'NONE', #70 ) ;
#135 = ORIENTED_EDGE ( 'NONE', *, *, #31, .F. ) ;
#136 = ADVANCED_FACE ( 'NONE', ( #21 ), #140, .T. ) ;
#137 = PRESENTATION_STYLE_ASSIGNMENT (( #16 ) ) ;
#138 =( LENGTH_UNIT ( ) NAMED_UNIT ( * ) SI_UNIT ( $, .METRE. ) );
#139 = DIRECTION ( 'NONE',  ( 1.224646799147353207E-16, 0.0000000000000000000, 1.000000000000000000 ) ) ;
#140 = CONICAL_SURFACE ( 'NONE', #297, 0.1179918899999999882, 0.1745329251994339192 ) ;
#141 =( GEOMETRIC_REPRESENTATION_CONTEXT ( 3 ) GLOBAL_UNCERTAINTY_ASSIGNED_CONTEXT ( ( #75 ) ) GLOBAL_UNIT_ASSIGNED_CONTEXT ( ( #204, #42, #281 ) ) REPRESENTATION_CONTEXT ( 'NONE', 'WORKASPACE' ) );
#142 = EDGE_CURVE ( 'NONE', #40, #159, #198, .T. ) ;
#143 = CARTESIAN_POINT ( 'NONE',  ( 0.0000000000000000000, 0.0000000000000000000, 2.244094000000000033 ) ) ;
#144 = ORIENTED_EDGE ( 'NONE', *, *, #192, .T. ) ;
#145 = DIRECTION ( 'NONE',  ( -1.000000000000000000, 0.0000000000000000000, 0.0000000000000000000 ) ) ;
#146 = CARTESIAN_POINT ( 'NONE',  ( 0.0000000000000000000, 0.0000000000000000000, 2.244094000000000033 ) ) ;
#147 = AXIS2_PLACEMENT_3D ( 'NONE', #143, #167, #259 ) ;
#148 = FACE_OUTER_BOUND ( 'NONE', #18, .T. ) ;
#149 = CYLINDRICAL_SURFACE ( 'NONE', #47, 0.1179918899999999882 ) ;
#150 = LINE ( 'NONE', #82, #32 ) ;
#151 = AXIS2_PLACEMENT_3D ( 'NONE', #284, #139, #162 ) ;
#152 = ORIENTED_EDGE ( 'NONE', *, *, #190, .T. ) ;
#153 = EDGE_LOOP ( 'NONE', ( #182, #38, #108, #270 ) ) ;
#154 = ORIENTED_EDGE ( 'NONE', *, *, #111, .T. ) ;
#155 = CYLINDRICAL_SURFACE ( 'NONE', #173, 0.1181100000000000066 ) ;
#156 = VECTOR ( 'NONE', #95, 39.37007874015748143 ) ;
#157 = ORIENTED_EDGE ( 'NONE', *, *, #52, .F. ) ;
#158 = CARTESIAN_POINT ( 'NONE',  ( 0.0000000000000000000, 0.0000000000000000000, 0.0000000000000000000 ) ) ;
#159 = VERTEX_POINT ( 'NONE', #24 ) ;
#160 = SURFACE_STYLE_USAGE ( .BOTH. , #67 ) ;
#161 = AXIS2_PLACEMENT_3D ( 'NONE', #146, #125, #211 ) ;
#162 = DIRECTION ( 'NONE',  ( 1.000000000000000000, 0.0000000000000000000, 0.0000000000000000000 ) ) ;
#163 = DIRECTION ( 'NONE',  ( 0.0000000000000000000, 0.0000000000000000000, -1.000000000000000000 ) ) ;
#164 =( CONVERSION_BASED_UNIT ( 'INCH', #20 ) LENGTH_UNIT ( ) NAMED_UNIT ( #118 ) );
#165 = VECTOR ( 'NONE', #175, 39.37007874015748143 ) ;
#166 = EDGE_LOOP ( 'NONE', ( #231, #107, #157, #186 ) ) ;
#167 = DIRECTION ( 'NONE',  ( 0.0000000000000000000, 0.0000000000000000000, -1.000000000000000000 ) ) ;
#168 = DIRECTION ( 'NONE',  ( -1.000000000000000000, 0.0000000000000000000, 1.224646799147353454E-16 ) ) ;
#169 = EDGE_CURVE ( 'NONE', #203, #14, #30, .T. ) ;
#170 = ORIENTED_EDGE ( 'NONE', *, *, #31, .T. ) ;
#171 = UNCERTAINTY_MEASURE_WITH_UNIT (LENGTH_MEASURE( 1.000000000000000082E-05 ), #244, 'distance_accuracy_value', 'NONE');
#172 = DIRECTION ( 'NONE',  ( -1.000000000000000000, 0.0000000000000000000, 1.224646799147353454E-16 ) ) ;
#173 = AXIS2_PLACEMENT_3D ( 'NONE', #271, #225, #12 ) ;
#174 = DIRECTION ( 'NONE',  ( 1.000000000000000000, 0.0000000000000000000, 0.0000000000000000000 ) ) ;
#175 = DIRECTION ( 'NONE',  ( 0.1736481776669314137, 0.0000000000000000000, 0.9848077530122077983 ) ) ;
#176 = CARTESIAN_POINT ( 'NONE',  ( 0.0000000000000000000, 0.0000000000000000000, 2.244094000000000033 ) ) ;
#177 = AXIS2_PLACEMENT_3D ( 'NONE', #220, #76, #50 ) ;
#178 = ORIENTED_EDGE ( 'NONE', *, *, #249, .T. ) ;
#179 = FACE_OUTER_BOUND ( 'NONE', #180, .T. ) ;
#180 = EDGE_LOOP ( 'NONE', ( #275, #154, #144, #90 ) ) ;
#181 = ORIENTED_EDGE ( 'NONE', *, *, #169, .T. ) ;
#182 = ORIENTED_EDGE ( 'NONE', *, *, #89, .F. ) ;
#183 = MECHANICAL_DESIGN_GEOMETRIC_PRESENTATION_REPRESENTATION (  '', ( #283 ), #88 ) ;
#184 = EDGE_LOOP ( 'NONE', ( #135, #127, #214, #293 ) ) ;
#185 = FILL_AREA_STYLE ('',( #92 ) ) ;
#186 = ORIENTED_EDGE ( 'NONE', *, *, #192, .F. ) ;
#187 = DIRECTION ( 'NONE',  ( 1.000000000000000000, 0.0000000000000000000, 0.0000000000000000000 ) ) ;
#188 = FACE_OUTER_BOUND ( 'NONE', #277, .T. ) ;
#189 = VECTOR ( 'NONE', #223, 39.37007874015747433 ) ;
#190 = EDGE_CURVE ( 'NONE', #123, #230, #56, .T. ) ;
#191 = CARTESIAN_POINT ( 'NONE',  ( 0.1179918899999999882, 1.444983904138465938E-17, -1.444983904138465938E-17 ) ) ;
#192 = EDGE_CURVE ( 'NONE', #272, #159, #150, .T. ) ;
#193 = DIRECTION ( 'NONE',  ( 1.000000000000000000, 0.0000000000000000000, 0.0000000000000000000 ) ) ;
#194 = CARTESIAN_POINT ( 'NONE',  ( 0.0000000000000000000, 0.0000000000000000000, 0.0000000000000000000 ) ) ;
#195 = ORIENTED_EDGE ( 'NONE', *, *, #97, .F. ) ;
#196 = CARTESIAN_POINT ( 'NONE',  ( -0.1179918899999998910, 1.444983904138465938E-17, 0.7874019999999999353 ) ) ;
#197 = CIRCLE ( 'NONE', #177, 0.1181100000000000066 ) ;
#198 = LINE ( 'NONE', #196, #189 ) ;
#199 = ADVANCED_FACE ( 'NONE', ( #148 ), #29, .F. ) ;
#200 = CARTESIAN_POINT ( 'NONE',  ( 0.1179918900000000992, 0.0000000000000000000, 0.7874019999999999353 ) ) ;
#201 = ADVANCED_FACE ( 'NONE', ( #219 ), #149, .T. ) ;
#202 =( GEOMETRIC_REPRESENTATION_CONTEXT ( 3 ) GLOBAL_UNCERTAINTY_ASSIGNED_CONTEXT ( ( #171 ) ) GLOBAL_UNIT_ASSIGNED_CONTEXT ( ( #244, #232, #69 ) ) REPRESENTATION_CONTEXT ( 'NONE', 'WORKASPACE' ) );
#203 = VERTEX_POINT ( 'NONE', #265 ) ;
#204 =( CONVERSION_BASED_UNIT ( 'INCH', #282 ) LENGTH_UNIT ( ) NAMED_UNIT ( #28 ) );
#205 = ORIENTED_EDGE ( 'NONE', *, *, #97, .T. ) ;
#206 = DIRECTION ( 'NONE',  ( 1.000000000000000000, 0.0000000000000000000, 0.0000000000000000000 ) ) ;
#207 = AXIS2_PLACEMENT_3D ( 'NONE', #77, #99, #174 ) ;
#208 = PRESENTATION_STYLE_ASSIGNMENT (( #160 ) ) ;
#209 =( NAMED_UNIT ( * ) PLANE_ANGLE_UNIT ( ) SI_UNIT ( $, .RADIAN. ) );
#210 = CARTESIAN_POINT ( 'NONE',  ( -0.1031100000000002570, 0.0000000000000000000, 2.244094000000000033 ) ) ;
#211 = DIRECTION ( 'NONE',  ( 1.000000000000000000, 0.0000000000000000000, -0.0000000000000000000 ) ) ;
#212 = CIRCLE ( 'NONE', #63, 0.1179918899999999882 ) ;
#213 = CARTESIAN_POINT ( 'NONE',  ( 9.642893389422242582E-17, 0.0000000000000000000, 0.7874019999999999353 ) ) ;
#214 = ORIENTED_EDGE ( 'NONE', *, *, #5, .T. ) ;
#215 = EDGE_CURVE ( 'NONE', #272, #62, #6, .T. ) ;
#216 = CARTESIAN_POINT ( 'NONE',  ( 0.0000000000000000000, 0.0000000000000000000, 2.229093999999999465 ) ) ;
#217 = CIRCLE ( 'NONE', #294, 0.1179918899999999882 ) ;
#218 = DIRECTION ( 'NONE',  ( -1.224646799147353207E-16, -0.0000000000000000000, -1.000000000000000000 ) ) ;
#219 = FACE_OUTER_BOUND ( 'NONE', #153, .T. ) ;
#220 = CARTESIAN_POINT ( 'NONE',  ( 9.651096503481483597E-17, 0.0000000000000000000, 0.7880718350957151008 ) ) ;
#221 = AXIS2_PLACEMENT_3D ( 'NONE', #194, #53, #269 ) ;
#222 =( LENGTH_UNIT ( ) NAMED_UNIT ( * ) SI_UNIT ( $, .METRE. ) );
#223 = DIRECTION ( 'NONE',  ( -0.1736481776669312194, 2.126576849575783625E-17, 0.9848077530122080203 ) ) ;
#224 = EDGE_CURVE ( 'NONE', #14, #159, #197, .T. ) ;
#225 = DIRECTION ( 'NONE',  ( -0.0000000000000000000, -0.0000000000000000000, -1.000000000000000000 ) ) ;
#226 = VECTOR ( 'NONE', #258, 39.37007874015748143 ) ;
#227 = ORIENTED_EDGE ( 'NONE', *, *, #52, .T. ) ;
#228 = ORIENTED_EDGE ( 'NONE', *, *, #142, .T. ) ;
#229 = SHAPE_DEFINITION_REPRESENTATION ( #260, #71 ) ;
#230 = VERTEX_POINT ( 'NONE', #10 ) ;
#231 = ORIENTED_EDGE ( 'NONE', *, *, #215, .T. ) ;
#232 =( NAMED_UNIT ( * ) PLANE_ANGLE_UNIT ( ) SI_UNIT ( $, .RADIAN. ) );
#233 = CARTESIAN_POINT ( 'NONE',  ( 0.1181100000000000066, 1.446430334472939084E-17, 2.229093999999999465 ) ) ;
#234 = APPLICATION_PROTOCOL_DEFINITION ( 'draft international standard', 'automotive_design', 1998, #25 ) ;
#235 = SURFACE_STYLE_FILL_AREA ( #37 ) ;
#236 = CIRCLE ( 'NONE', #105, 0.1179918899999999882 ) ;
#237 = PRODUCT_DEFINITION ( 'UNKNOWN', '', #129, #263 ) ;
#238 = UNCERTAINTY_MEASURE_WITH_UNIT (LENGTH_MEASURE( 1.000000000000000082E-05 ), #164, 'distance_accuracy_value', 'NONE');
#239 = DIRECTION ( 'NONE',  ( -1.224646799147353207E-16, -0.0000000000000000000, -1.000000000000000000 ) ) ;
#240 = CYLINDRICAL_SURFACE ( 'NONE', #221, 0.1179918899999999882 ) ;
#241 = AXIS2_PLACEMENT_3D ( 'NONE', #176, #292, #126 ) ;
#242 = DIRECTION ( 'NONE',  ( 1.000000000000000000, 0.0000000000000000000, 0.0000000000000000000 ) ) ;
#243 = ADVANCED_FACE ( 'NONE', ( #9 ), #119, .T. ) ;
#244 =( CONVERSION_BASED_UNIT ( 'INCH', #51 ) LENGTH_UNIT ( ) NAMED_UNIT ( #46 ) );
#245 = DIRECTION ( 'NONE',  ( -1.224646799147353207E-16, -0.0000000000000000000, -1.000000000000000000 ) ) ;
#246 = CIRCLE ( 'NONE', #91, 0.1179918899999999882 ) ;
#247 = AXIS2_PLACEMENT_3D ( 'NONE', #158, #130, #187 ) ;
#248 = CARTESIAN_POINT ( 'NONE',  ( 0.0000000000000000000, 0.0000000000000000000, 2.244094000000000033 ) ) ;
#249 = EDGE_CURVE ( 'NONE', #134, #87, #236, .T. ) ;
#250 = ORIENTED_EDGE ( 'NONE', *, *, #169, .F. ) ;
#251 = ORIENTED_EDGE ( 'NONE', *, *, #73, .F. ) ;
#252 = LINE ( 'NONE', #15, #84 ) ;
#253 = DIRECTION ( 'NONE',  ( -1.224646799147353207E-16, -0.0000000000000000000, -1.000000000000000000 ) ) ;
#254 = EDGE_CURVE ( 'NONE', #230, #123, #114, .T. ) ;
#255 = ORIENTED_EDGE ( 'NONE', *, *, #215, .F. ) ;
#256 = ORIENTED_EDGE ( 'NONE', *, *, #89, .T. ) ;
#257 = DIRECTION ( 'NONE',  ( 1.224646799147353207E-16, 0.0000000000000000000, 1.000000000000000000 ) ) ;
#258 = DIRECTION ( 'NONE',  ( -1.224646799147353207E-16, -0.0000000000000000000, -1.000000000000000000 ) ) ;
#259 = DIRECTION ( 'NONE',  ( -1.000000000000000000, 0.0000000000000000000, 0.0000000000000000000 ) ) ;
#260 = PRODUCT_DEFINITION_SHAPE ( 'NONE', 'NONE',  #237 ) ;
#261 = VECTOR ( 'NONE', #44, 39.37007874015748143 ) ;
#262 = LINE ( 'NONE', #113, #156 ) ;
#263 = PRODUCT_DEFINITION_CONTEXT ( 'detailed design', #58, 'design' ) ;
#264 = CARTESIAN_POINT ( 'NONE',  ( 0.0000000000000000000, 0.0000000000000000000, 2.244094000000000033 ) ) ;
#265 = CARTESIAN_POINT ( 'NONE',  ( 0.1179918900000000992, 0.0000000000000000000, 0.7874019999999999353 ) ) ;
#266 = PRESENTATION_LAYER_ASSIGNMENT (  '', '', ( #283 ) ) ;
#267 = CARTESIAN_POINT ( 'NONE',  ( 0.0000000000000000000, 0.0000000000000000000, 0.0000000000000000000 ) ) ;
#268 = EDGE_CURVE ( 'NONE', #87, #134, #212, .T. ) ;
#269 = DIRECTION ( 'NONE',  ( -1.000000000000000000, 0.0000000000000000000, 1.224646799147353454E-16 ) ) ;
#270 = ORIENTED_EDGE ( 'NONE', *, *, #249, .F. ) ;
#271 = CARTESIAN_POINT ( 'NONE',  ( 0.0000000000000000000, 0.0000000000000000000, 2.244094000000000033 ) ) ;
#272 = VERTEX_POINT ( 'NONE', #33 ) ;
#273 = ORIENTED_EDGE ( 'NONE', *, *, #5, .F. ) ;
#274 = DIRECTION ( 'NONE',  ( 1.000000000000000000, 0.0000000000000000000, 0.0000000000000000000 ) ) ;
#275 = ORIENTED_EDGE ( 'NONE', *, *, #83, .F. ) ;
#276 = FILL_AREA_STYLE_COLOUR ( '', #106 ) ;
#277 = EDGE_LOOP ( 'NONE', ( #195, #228, #227, #250 ) ) ;
#278 = AXIS2_PLACEMENT_3D ( 'NONE', #248, #124, #145 ) ;
#279 = SURFACE_STYLE_FILL_AREA ( #185 ) ;
#280 = ORIENTED_EDGE ( 'NONE', *, *, #142, .F. ) ;
#281 =( NAMED_UNIT ( * ) SI_UNIT ( $, .STERADIAN. ) SOLID_ANGLE_UNIT ( ) );
#282 = LENGTH_MEASURE_WITH_UNIT ( LENGTH_MEASURE( 0.02539999999999999897 ), #19 );
#283 = STYLED_ITEM ( 'NONE', ( #208 ), #54 ) ;
#284 = CARTESIAN_POINT ( 'NONE',  ( 9.642893389422242582E-17, 0.0000000000000000000, 0.7874019999999999353 ) ) ;
#285 = DIRECTION ( 'NONE',  ( -1.000000000000000000, 0.0000000000000000000, 0.0000000000000000000 ) ) ;
#286 = ADVANCED_FACE ( 'NONE', ( #27 ), #120, .T. ) ;
#287 = FACE_OUTER_BOUND ( 'NONE', #184, .T. ) ;
#288 = CONICAL_SURFACE ( 'NONE', #147, 0.1031100000000002570, 0.7853981633974318477 ) ;
#289 = CARTESIAN_POINT ( 'NONE',  ( 1.769594913022618037E-33, 0.0000000000000000000, 1.444983904138465938E-17 ) ) ;
#290 = CARTESIAN_POINT ( 'NONE',  ( 0.0000000000000000000, 0.0000000000000000000, 2.229093999999999465 ) ) ;
#291 = ADVANCED_FACE ( 'NONE', ( #78 ), #240, .T. ) ;
#292 = DIRECTION ( 'NONE',  ( 0.0000000000000000000, 0.0000000000000000000, -1.000000000000000000 ) ) ;
#293 = ORIENTED_EDGE ( 'NONE', *, *, #111, .F. ) ;
#294 = AXIS2_PLACEMENT_3D ( 'NONE', #112, #253, #285 ) ;
#295 = LINE ( 'NONE', #60, #48 ) ;
#296 = CARTESIAN_POINT ( 'NONE',  ( -0.1179918899999998910, 1.445707119305702357E-17, 0.7874019999999999353 ) ) ;
#297 = AXIS2_PLACEMENT_3D ( 'NONE', #213, #257, #4 ) ;
#298 = APPLICATION_PROTOCOL_DEFINITION ( 'draft international standard', 'automotive_design', 1998, #58 ) ;
#299 = PLANE ( 'NONE',  #161 ) ;
ENDSEC;
END-ISO-10303-21;
