ISO-10303-21;
HEADER;
FILE_DESCRIPTION (( 'STEP AP214' ),
    '1' );
FILE_NAME ('Micro_RTCM-050-2X.STEP',
    '2021-09-03T18:22:50',
    ( '' ),
    ( '' ),
    'SwSTEP 2.0',
    'SolidWorks 2020',
    '' );
FILE_SCHEMA (( 'AUTOMOTIVE_DESIGN' ));
ENDSEC;

DATA;
#1 = VECTOR ( 'NONE', #190, 39.37007874015748854 ) ;
#2 = ORIENTED_EDGE ( 'NONE', *, *, #45, .F. ) ;
#3 = CARTESIAN_POINT ( 'NONE',  ( -0.09842500000000001248, 0.0000000000000000000, 1.968503999999999809 ) ) ;
#4 = EDGE_CURVE ( 'NONE', #25, #86, #117, .T. ) ;
#5 = DIRECTION ( 'NONE',  ( 0.0000000000000000000, 0.0000000000000000000, 1.000000000000000000 ) ) ;
#6 = ORIENTED_EDGE ( 'NONE', *, *, #246, .T. ) ;
#7 =( CONVERSION_BASED_UNIT ( 'INCH', #235 ) LENGTH_UNIT ( ) NAMED_UNIT ( #242 ) );
#8 = AXIS2_PLACEMENT_3D ( 'NONE', #108, #185, #205 ) ;
#9 = EDGE_CURVE ( 'NONE', #21, #149, #216, .T. ) ;
#10 = UNCERTAINTY_MEASURE_WITH_UNIT (LENGTH_MEASURE( 1.000000000000000082E-05 ), #7, 'distance_accuracy_value', 'NONE');
#11 = CARTESIAN_POINT ( 'NONE',  ( -0.09842500000000001248, 0.0000000000000000000, 0.3526340167055667107 ) ) ;
#12 = APPLICATION_CONTEXT ( 'automotive_design' ) ;
#13 = FACE_OUTER_BOUND ( 'NONE', #26, .T. ) ;
#14 = SURFACE_STYLE_USAGE ( .BOTH. , #143 ) ;
#15 = MANIFOLD_SOLID_BREP ( 'Mirror1', #225 ) ;
#16 = PLANE ( 'NONE',  #236 ) ;
#17 = ORIENTED_EDGE ( 'NONE', *, *, #245, .F. ) ;
#18 = CARTESIAN_POINT ( 'NONE',  ( -0.003936999999999995191, -6.267864782716068801E-18, 1.968503999999999809 ) ) ;
#19 =( GEOMETRIC_REPRESENTATION_CONTEXT ( 3 ) GLOBAL_UNCERTAINTY_ASSIGNED_CONTEXT ( ( #10 ) ) GLOBAL_UNIT_ASSIGNED_CONTEXT ( ( #7, #98, #123 ) ) REPRESENTATION_CONTEXT ( 'NONE', 'WORKASPACE' ) );
#20 = MECHANICAL_DESIGN_GEOMETRIC_PRESENTATION_REPRESENTATION (  '', ( #207 ), #22 ) ;
#21 = VERTEX_POINT ( 'NONE', #181 ) ;
#22 =( GEOMETRIC_REPRESENTATION_CONTEXT ( 3 ) GLOBAL_UNCERTAINTY_ASSIGNED_CONTEXT ( ( #184 ) ) GLOBAL_UNIT_ASSIGNED_CONTEXT ( ( #142, #70, #129 ) ) REPRESENTATION_CONTEXT ( 'NONE', 'WORKASPACE' ) );
#23 = ORIENTED_EDGE ( 'NONE', *, *, #189, .T. ) ;
#24 = DIRECTION ( 'NONE',  ( -1.000000000000000000, 0.0000000000000000000, 0.0000000000000000000 ) ) ;
#25 = VERTEX_POINT ( 'NONE', #154 ) ;
#26 = EDGE_LOOP ( 'NONE', ( #197, #83, #196, #203 ) ) ;
#27 = FACE_OUTER_BOUND ( 'NONE', #62, .T. ) ;
#28 = VERTEX_POINT ( 'NONE', #11 ) ;
#29 = CIRCLE ( 'NONE', #165, 0.003936999999999995191 ) ;
#30 = UNCERTAINTY_MEASURE_WITH_UNIT (LENGTH_MEASURE( 1.000000000000000082E-05 ), #187, 'distance_accuracy_value', 'NONE');
#31 = CARTESIAN_POINT ( 'NONE',  ( -0.003936999999999995191, 6.267864782716068801E-18, 0.0000000000000000000 ) ) ;
#32 = FILL_AREA_STYLE ('',( #140 ) ) ;
#33 = PRESENTATION_STYLE_ASSIGNMENT (( #14 ) ) ;
#34 = DIRECTION ( 'NONE',  ( -1.000000000000000000, 0.0000000000000000000, 0.0000000000000000000 ) ) ;
#35 = AXIS2_PLACEMENT_3D ( 'NONE', #72, #92, #206 ) ;
#36 = APPLICATION_CONTEXT ( 'automotive_design' ) ;
#37 = FACE_OUTER_BOUND ( 'NONE', #136, .T. ) ;
#38 = CARTESIAN_POINT ( 'NONE',  ( 0.0000000000000000000, 0.0000000000000000000, 0.0000000000000000000 ) ) ;
#39 = COLOUR_RGB ( '',0.7921568627450980005, 0.8196078431372548767, 0.9333333333333333481 ) ;
#40 = DIRECTION ( 'NONE',  ( 0.0000000000000000000, 0.0000000000000000000, -1.000000000000000000 ) ) ;
#41 = MECHANICAL_DESIGN_GEOMETRIC_PRESENTATION_REPRESENTATION (  '', ( #94 ), #19 ) ;
#42 = ORIENTED_EDGE ( 'NONE', *, *, #4, .T. ) ;
#43 = AXIS2_PLACEMENT_3D ( 'NONE', #109, #88, #34 ) ;
#44 = CARTESIAN_POINT ( 'NONE',  ( 0.0000000000000000000, 0.0000000000000000000, 1.615869983294433210 ) ) ;
#45 = EDGE_CURVE ( 'NONE', #21, #209, #174, .T. ) ;
#46 = ORIENTED_EDGE ( 'NONE', *, *, #211, .F. ) ;
#47 = ORIENTED_EDGE ( 'NONE', *, *, #144, .T. ) ;
#48 = ADVANCED_FACE ( 'NONE', ( #158 ), #237, .T. ) ;
#49 = LINE ( 'NONE', #179, #195 ) ;
#50 =( NAMED_UNIT ( * ) PLANE_ANGLE_UNIT ( ) SI_UNIT ( $, .RADIAN. ) );
#51 = CARTESIAN_POINT ( 'NONE',  ( -0.003936999999999995191, -4.821434448243123477E-19, 1.968503999999999809 ) ) ;
#52 = APPLICATION_PROTOCOL_DEFINITION ( 'draft international standard', 'automotive_design', 1998, #36 ) ;
#53 = EDGE_CURVE ( 'NONE', #155, #248, #193, .T. ) ;
#54 = CONICAL_SURFACE ( 'NONE', #35, 0.003936999999999995191, 0.2617993877991504625 ) ;
#55 = FACE_OUTER_BOUND ( 'NONE', #133, .T. ) ;
#56 = EDGE_CURVE ( 'NONE', #248, #86, #224, .T. ) ;
#57 = CIRCLE ( 'NONE', #43, 0.003936999999999995191 ) ;
#58 = ORIENTED_EDGE ( 'NONE', *, *, #106, .F. ) ;
#59 = CARTESIAN_POINT ( 'NONE',  ( 0.09842500000000001248, 1.205358612060782468E-17, 0.3526340167055667107 ) ) ;
#60 = DIRECTION ( 'NONE',  ( -0.0000000000000000000, -0.0000000000000000000, -1.000000000000000000 ) ) ;
#61 = AXIS2_PLACEMENT_3D ( 'NONE', #132, #40, #172 ) ;
#62 = EDGE_LOOP ( 'NONE', ( #180, #151, #153, #231 ) ) ;
#63 = ORIENTED_EDGE ( 'NONE', *, *, #56, .T. ) ;
#64 = DIRECTION ( 'NONE',  ( -0.0000000000000000000, -0.0000000000000000000, -1.000000000000000000 ) ) ;
#65 = FILL_AREA_STYLE ('',( #118 ) ) ;
#66 =( NAMED_UNIT ( * ) SI_UNIT ( $, .STERADIAN. ) SOLID_ANGLE_UNIT ( ) );
#67 = EDGE_LOOP ( 'NONE', ( #243, #17 ) ) ;
#68 = DIRECTION ( 'NONE',  ( 1.000000000000000000, 0.0000000000000000000, -0.0000000000000000000 ) ) ;
#69 = DIRECTION ( 'NONE',  ( -1.000000000000000000, 0.0000000000000000000, 0.0000000000000000000 ) ) ;
#70 =( NAMED_UNIT ( * ) PLANE_ANGLE_UNIT ( ) SI_UNIT ( $, .RADIAN. ) );
#71 = DIRECTION ( 'NONE',  ( -1.000000000000000000, 0.0000000000000000000, 0.0000000000000000000 ) ) ;
#72 = CARTESIAN_POINT ( 'NONE',  ( 0.0000000000000000000, 0.0000000000000000000, 0.0000000000000000000 ) ) ;
#73 = CONICAL_SURFACE ( 'NONE', #8, 0.003936999999999995191, 0.2617993877991504625 ) ;
#74 = ADVANCED_FACE ( 'NONE', ( #13 ), #73, .T. ) ;
#75 = ADVANCED_FACE ( 'NONE', ( #87 ), #16, .T. ) ;
#76 = CARTESIAN_POINT ( 'NONE',  ( 0.0000000000000000000, 0.0000000000000000000, 1.968503999999999809 ) ) ;
#77 = EDGE_LOOP ( 'NONE', ( #215, #42, #173, #103 ) ) ;
#78 = PRESENTATION_LAYER_ASSIGNMENT (  '', '', ( #94 ) ) ;
#79 = DIRECTION ( 'NONE',  ( 0.0000000000000000000, 0.0000000000000000000, -1.000000000000000000 ) ) ;
#80 = SURFACE_STYLE_FILL_AREA ( #65 ) ;
#81 = LINE ( 'NONE', #218, #214 ) ;
#82 = VECTOR ( 'NONE', #130, 39.37007874015748854 ) ;
#83 = ORIENTED_EDGE ( 'NONE', *, *, #245, .T. ) ;
#84 = DIRECTION ( 'NONE',  ( -1.000000000000000000, 0.0000000000000000000, 0.0000000000000000000 ) ) ;
#85 = PLANE ( 'NONE',  #247 ) ;
#86 = VERTEX_POINT ( 'NONE', #170 ) ;
#87 = FACE_OUTER_BOUND ( 'NONE', #67, .T. ) ;
#88 = DIRECTION ( 'NONE',  ( 0.0000000000000000000, 0.0000000000000000000, -1.000000000000000000 ) ) ;
#89 =( LENGTH_UNIT ( ) NAMED_UNIT ( * ) SI_UNIT ( $, .METRE. ) );
#90 = LENGTH_MEASURE_WITH_UNIT ( LENGTH_MEASURE( 0.02539999999999999897 ), #89 );
#91 = ORIENTED_EDGE ( 'NONE', *, *, #4, .F. ) ;
#92 = DIRECTION ( 'NONE',  ( 0.0000000000000000000, 0.0000000000000000000, 1.000000000000000000 ) ) ;
#93 = DIRECTION ( 'NONE',  ( 0.0000000000000000000, 0.0000000000000000000, -1.000000000000000000 ) ) ;
#94 = STYLED_ITEM ( 'NONE', ( #137 ), #15 ) ;
#95 = DIRECTION ( 'NONE',  ( 0.0000000000000000000, 0.0000000000000000000, 1.000000000000000000 ) ) ;
#96 = ADVANCED_FACE ( 'NONE', ( #55 ), #152, .T. ) ;
#97 = PRODUCT ( 'Micro_RTCM-050-2X', 'Micro_RTCM-050-2X', '', ( #166 ) ) ;
#98 =( NAMED_UNIT ( * ) PLANE_ANGLE_UNIT ( ) SI_UNIT ( $, .RADIAN. ) );
#99 = CARTESIAN_POINT ( 'NONE',  ( 0.0000000000000000000, 0.0000000000000000000, 1.615869983294433210 ) ) ;
#100 = ORIENTED_EDGE ( 'NONE', *, *, #9, .T. ) ;
#101 = CARTESIAN_POINT ( 'NONE',  ( 0.0000000000000000000, 0.0000000000000000000, 0.0000000000000000000 ) ) ;
#102 = SURFACE_STYLE_USAGE ( .BOTH. , #134 ) ;
#103 = ORIENTED_EDGE ( 'NONE', *, *, #246, .F. ) ;
#104 = CIRCLE ( 'NONE', #200, 0.09842500000000001248 ) ;
#105 = EDGE_LOOP ( 'NONE', ( #147, #150 ) ) ;
#106 = EDGE_CURVE ( 'NONE', #86, #28, #157, .T. ) ;
#107 = LINE ( 'NONE', #223, #1 ) ;
#108 = CARTESIAN_POINT ( 'NONE',  ( 0.0000000000000000000, 0.0000000000000000000, 1.968503999999999809 ) ) ;
#109 = CARTESIAN_POINT ( 'NONE',  ( 0.0000000000000000000, 0.0000000000000000000, 1.968503999999999809 ) ) ;
#110 = ADVANCED_FACE ( 'NONE', ( #175 ), #139, .T. ) ;
#111 =( GEOMETRIC_REPRESENTATION_CONTEXT ( 3 ) GLOBAL_UNCERTAINTY_ASSIGNED_CONTEXT ( ( #30 ) ) GLOBAL_UNIT_ASSIGNED_CONTEXT ( ( #187, #50, #66 ) ) REPRESENTATION_CONTEXT ( 'NONE', 'WORKASPACE' ) );
#112 = DIRECTION ( 'NONE',  ( -0.0000000000000000000, -0.0000000000000000000, -1.000000000000000000 ) ) ;
#113 = ORIENTED_EDGE ( 'NONE', *, *, #249, .F. ) ;
#114 = DIRECTION ( 'NONE',  ( -1.000000000000000000, 0.0000000000000000000, 0.0000000000000000000 ) ) ;
#115 = APPLICATION_PROTOCOL_DEFINITION ( 'draft international standard', 'automotive_design', 1998, #12 ) ;
#116 = CIRCLE ( 'NONE', #128, 0.09842500000000001248 ) ;
#117 = CIRCLE ( 'NONE', #145, 0.09842500000000001248 ) ;
#118 = FILL_AREA_STYLE_COLOUR ( '', #213 ) ;
#119 = EDGE_CURVE ( 'NONE', #155, #25, #49, .T. ) ;
#120 = CARTESIAN_POINT ( 'NONE',  ( 0.0000000000000000000, 0.0000000000000000000, 1.968503999999999809 ) ) ;
#121 = DIRECTION ( 'NONE',  ( -1.000000000000000000, 0.0000000000000000000, 0.0000000000000000000 ) ) ;
#122 = CARTESIAN_POINT ( 'NONE',  ( 0.003936999999999995191, 0.0000000000000000000, 1.968503999999999809 ) ) ;
#123 =( NAMED_UNIT ( * ) SI_UNIT ( $, .STERADIAN. ) SOLID_ANGLE_UNIT ( ) );
#124 = DIRECTION ( 'NONE',  ( -0.0000000000000000000, -0.0000000000000000000, -1.000000000000000000 ) ) ;
#125 = LENGTH_MEASURE_WITH_UNIT ( LENGTH_MEASURE( 0.02539999999999999897 ), #162 );
#126 = CIRCLE ( 'NONE', #171, 0.09842500000000001248 ) ;
#127 = CARTESIAN_POINT ( 'NONE',  ( 0.0000000000000000000, 0.0000000000000000000, 0.3526340167055667107 ) ) ;
#128 = AXIS2_PLACEMENT_3D ( 'NONE', #99, #79, #232 ) ;
#129 =( NAMED_UNIT ( * ) SI_UNIT ( $, .STERADIAN. ) SOLID_ANGLE_UNIT ( ) );
#130 = DIRECTION ( 'NONE',  ( -0.2588190451025217387, -3.169619151431776651E-17, -0.9659258262890679791 ) ) ;
#131 = AXIS2_PLACEMENT_3D ( 'NONE', #101, #5, #138 ) ;
#132 = CARTESIAN_POINT ( 'NONE',  ( 0.0000000000000000000, 0.0000000000000000000, 1.968503999999999809 ) ) ;
#133 = EDGE_LOOP ( 'NONE', ( #239, #63, #91, #176 ) ) ;
#134 = SURFACE_SIDE_STYLE ('',( #80 ) ) ;
#135 = AXIS2_PLACEMENT_3D ( 'NONE', #38, #95, #244 ) ;
#136 = EDGE_LOOP ( 'NONE', ( #113, #2, #100, #6 ) ) ;
#137 = PRESENTATION_STYLE_ASSIGNMENT (( #102 ) ) ;
#138 = DIRECTION ( 'NONE',  ( 1.000000000000000000, 0.0000000000000000000, 0.0000000000000000000 ) ) ;
#139 = CYLINDRICAL_SURFACE ( 'NONE', #188, 0.09842500000000001248 ) ;
#140 = FILL_AREA_STYLE_COLOUR ( '', #39 ) ;
#141 = DIRECTION ( 'NONE',  ( -1.000000000000000000, 0.0000000000000000000, 0.0000000000000000000 ) ) ;
#142 =( CONVERSION_BASED_UNIT ( 'INCH', #90 ) LENGTH_UNIT ( ) NAMED_UNIT ( #178 ) );
#143 = SURFACE_SIDE_STYLE ('',( #241 ) ) ;
#144 = EDGE_CURVE ( 'NONE', #86, #25, #116, .T. ) ;
#145 = AXIS2_PLACEMENT_3D ( 'NONE', #44, #160, #121 ) ;
#146 = CARTESIAN_POINT ( 'NONE',  ( 0.0000000000000000000, 0.0000000000000000000, 1.968503999999999809 ) ) ;
#147 = ORIENTED_EDGE ( 'NONE', *, *, #45, .T. ) ;
#148 = DIRECTION ( 'NONE',  ( -0.0000000000000000000, -0.0000000000000000000, -1.000000000000000000 ) ) ;
#149 = VERTEX_POINT ( 'NONE', #59 ) ;
#150 = ORIENTED_EDGE ( 'NONE', *, *, #220, .T. ) ;
#151 = ORIENTED_EDGE ( 'NONE', *, *, #249, .T. ) ;
#152 = CONICAL_SURFACE ( 'NONE', #61, 0.003936999999999995191, 0.2617993877991504625 ) ;
#153 = ORIENTED_EDGE ( 'NONE', *, *, #211, .T. ) ;
#154 = CARTESIAN_POINT ( 'NONE',  ( 0.09842500000000001248, 1.205358612060782468E-17, 1.615869983294433210 ) ) ;
#155 = VERTEX_POINT ( 'NONE', #122 ) ;
#156 = PRODUCT_DEFINITION ( 'UNKNOWN', '', #163, #194 ) ;
#157 = LINE ( 'NONE', #3, #222 ) ;
#158 = FACE_OUTER_BOUND ( 'NONE', #77, .T. ) ;
#159 = CARTESIAN_POINT ( 'NONE',  ( 0.0000000000000000000, 0.0000000000000000000, 0.0000000000000000000 ) ) ;
#160 = DIRECTION ( 'NONE',  ( 0.0000000000000000000, 0.0000000000000000000, -1.000000000000000000 ) ) ;
#161 = CARTESIAN_POINT ( 'NONE',  ( 0.0000000000000000000, 0.0000000000000000000, 0.0000000000000000000 ) ) ;
#162 =( LENGTH_UNIT ( ) NAMED_UNIT ( * ) SI_UNIT ( $, .METRE. ) );
#163 = PRODUCT_DEFINITION_FORMATION_WITH_SPECIFIED_SOURCE ( 'ANY', '', #97, .NOT_KNOWN. ) ;
#164 = CARTESIAN_POINT ( 'NONE',  ( 0.0000000000000000000, 0.0000000000000000000, 0.3526340167055667107 ) ) ;
#165 = AXIS2_PLACEMENT_3D ( 'NONE', #161, #148, #141 ) ;
#166 = PRODUCT_CONTEXT ( 'NONE', #36, 'mechanical' ) ;
#167 = ADVANCED_FACE ( 'NONE', ( #27 ), #183, .T. ) ;
#168 = EDGE_LOOP ( 'NONE', ( #47, #23, #46, #58 ) ) ;
#169 = ADVANCED_BREP_SHAPE_REPRESENTATION ( 'Micro_RTCM-050-2X', ( #15, #135 ), #111 ) ;
#170 = CARTESIAN_POINT ( 'NONE',  ( -0.09842500000000001248, 0.0000000000000000000, 1.615869983294433210 ) ) ;
#171 = AXIS2_PLACEMENT_3D ( 'NONE', #164, #227, #114 ) ;
#172 = DIRECTION ( 'NONE',  ( 1.000000000000000000, 0.0000000000000000000, 0.0000000000000000000 ) ) ;
#173 = ORIENTED_EDGE ( 'NONE', *, *, #106, .T. ) ;
#174 = CIRCLE ( 'NONE', #230, 0.003936999999999995191 ) ;
#175 = FACE_OUTER_BOUND ( 'NONE', #168, .T. ) ;
#176 = ORIENTED_EDGE ( 'NONE', *, *, #119, .F. ) ;
#177 = CARTESIAN_POINT ( 'NONE',  ( 0.003936999999999995191, 0.0000000000000000000, 0.0000000000000000000 ) ) ;
#178 = DIMENSIONAL_EXPONENTS ( 1.000000000000000000, 0.0000000000000000000, 0.0000000000000000000, 0.0000000000000000000, 0.0000000000000000000, 0.0000000000000000000, 0.0000000000000000000 ) ;
#179 = CARTESIAN_POINT ( 'NONE',  ( 0.003936999999999995191, 0.0000000000000000000, 1.968503999999999809 ) ) ;
#180 = ORIENTED_EDGE ( 'NONE', *, *, #220, .F. ) ;
#181 = CARTESIAN_POINT ( 'NONE',  ( 0.003936999999999995191, 0.0000000000000000000, 0.0000000000000000000 ) ) ;
#182 = VECTOR ( 'NONE', #199, 39.37007874015748854 ) ;
#183 = CONICAL_SURFACE ( 'NONE', #131, 0.003936999999999995191, 0.2617993877991504625 ) ;
#184 = UNCERTAINTY_MEASURE_WITH_UNIT (LENGTH_MEASURE( 1.000000000000000082E-05 ), #142, 'distance_accuracy_value', 'NONE');
#185 = DIRECTION ( 'NONE',  ( 0.0000000000000000000, 0.0000000000000000000, -1.000000000000000000 ) ) ;
#186 = DIRECTION ( 'NONE',  ( -0.0000000000000000000, -0.0000000000000000000, -1.000000000000000000 ) ) ;
#187 =( CONVERSION_BASED_UNIT ( 'INCH', #125 ) LENGTH_UNIT ( ) NAMED_UNIT ( #202 ) );
#188 = AXIS2_PLACEMENT_3D ( 'NONE', #120, #234, #24 ) ;
#189 = EDGE_CURVE ( 'NONE', #25, #149, #81, .T. ) ;
#190 = DIRECTION ( 'NONE',  ( -0.2588190451025217387, 3.169619151431776651E-17, 0.9659258262890679791 ) ) ;
#191 = SHAPE_DEFINITION_REPRESENTATION ( #240, #169 ) ;
#192 = ADVANCED_FACE ( 'NONE', ( #204 ), #85, .F. ) ;
#193 = CIRCLE ( 'NONE', #226, 0.003936999999999995191 ) ;
#194 = PRODUCT_DEFINITION_CONTEXT ( 'detailed design', #12, 'design' ) ;
#195 = VECTOR ( 'NONE', #198, 39.37007874015748854 ) ;
#196 = ORIENTED_EDGE ( 'NONE', *, *, #119, .T. ) ;
#197 = ORIENTED_EDGE ( 'NONE', *, *, #56, .F. ) ;
#198 = DIRECTION ( 'NONE',  ( 0.2588190451025217387, 0.0000000000000000000, -0.9659258262890679791 ) ) ;
#199 = DIRECTION ( 'NONE',  ( 0.2588190451025217387, 0.0000000000000000000, 0.9659258262890679791 ) ) ;
#200 = AXIS2_PLACEMENT_3D ( 'NONE', #127, #112, #221 ) ;
#201 =( LENGTH_UNIT ( ) NAMED_UNIT ( * ) SI_UNIT ( $, .METRE. ) );
#202 = DIMENSIONAL_EXPONENTS ( 1.000000000000000000, 0.0000000000000000000, 0.0000000000000000000, 0.0000000000000000000, 0.0000000000000000000, 0.0000000000000000000, 0.0000000000000000000 ) ;
#203 = ORIENTED_EDGE ( 'NONE', *, *, #144, .F. ) ;
#204 = FACE_OUTER_BOUND ( 'NONE', #105, .T. ) ;
#205 = DIRECTION ( 'NONE',  ( 1.000000000000000000, 0.0000000000000000000, 0.0000000000000000000 ) ) ;
#206 = DIRECTION ( 'NONE',  ( 1.000000000000000000, 0.0000000000000000000, 0.0000000000000000000 ) ) ;
#207 = STYLED_ITEM ( 'NONE', ( #33 ), #169 ) ;
#208 = ADVANCED_FACE ( 'NONE', ( #37 ), #54, .T. ) ;
#209 = VERTEX_POINT ( 'NONE', #31 ) ;
#210 = DIRECTION ( 'NONE',  ( 1.000000000000000000, 0.0000000000000000000, -0.0000000000000000000 ) ) ;
#211 = EDGE_CURVE ( 'NONE', #28, #149, #104, .T. ) ;
#212 = PRODUCT_RELATED_PRODUCT_CATEGORY ( 'part', '', ( #97 ) ) ;
#213 = COLOUR_RGB ( '',0.7921568627450980005, 0.8196078431372548767, 0.9333333333333333481 ) ;
#214 = VECTOR ( 'NONE', #124, 39.37007874015748143 ) ;
#215 = ORIENTED_EDGE ( 'NONE', *, *, #189, .F. ) ;
#216 = LINE ( 'NONE', #177, #182 ) ;
#217 = PRESENTATION_LAYER_ASSIGNMENT (  '', '', ( #207 ) ) ;
#218 = CARTESIAN_POINT ( 'NONE',  ( 0.09842500000000001248, 1.205358612060782468E-17, 1.968503999999999809 ) ) ;
#219 = CARTESIAN_POINT ( 'NONE',  ( 0.0000000000000000000, 0.0000000000000000000, 1.968503999999999809 ) ) ;
#220 = EDGE_CURVE ( 'NONE', #209, #21, #29, .T. ) ;
#221 = DIRECTION ( 'NONE',  ( -1.000000000000000000, 0.0000000000000000000, 0.0000000000000000000 ) ) ;
#222 = VECTOR ( 'NONE', #64, 39.37007874015748143 ) ;
#223 = CARTESIAN_POINT ( 'NONE',  ( -0.003936999999999995191, 4.821434448243123477E-19, 0.0000000000000000000 ) ) ;
#224 = LINE ( 'NONE', #51, #82 ) ;
#225 = CLOSED_SHELL ( 'NONE', ( #96, #167, #110, #48, #208, #192, #74, #75 ) ) ;
#226 = AXIS2_PLACEMENT_3D ( 'NONE', #146, #93, #69 ) ;
#227 = DIRECTION ( 'NONE',  ( -0.0000000000000000000, -0.0000000000000000000, -1.000000000000000000 ) ) ;
#228 = DIRECTION ( 'NONE',  ( 0.0000000000000000000, 0.0000000000000000000, 1.000000000000000000 ) ) ;
#229 = AXIS2_PLACEMENT_3D ( 'NONE', #219, #186, #71 ) ;
#230 = AXIS2_PLACEMENT_3D ( 'NONE', #233, #60, #84 ) ;
#231 = ORIENTED_EDGE ( 'NONE', *, *, #9, .F. ) ;
#232 = DIRECTION ( 'NONE',  ( -1.000000000000000000, 0.0000000000000000000, 0.0000000000000000000 ) ) ;
#233 = CARTESIAN_POINT ( 'NONE',  ( 0.0000000000000000000, 0.0000000000000000000, 0.0000000000000000000 ) ) ;
#234 = DIRECTION ( 'NONE',  ( -0.0000000000000000000, -0.0000000000000000000, -1.000000000000000000 ) ) ;
#235 = LENGTH_MEASURE_WITH_UNIT ( LENGTH_MEASURE( 0.02539999999999999897 ), #201 );
#236 = AXIS2_PLACEMENT_3D ( 'NONE', #76, #228, #210 ) ;
#237 = CYLINDRICAL_SURFACE ( 'NONE', #229, 0.09842500000000001248 ) ;
#238 = DIRECTION ( 'NONE',  ( 0.0000000000000000000, 0.0000000000000000000, 1.000000000000000000 ) ) ;
#239 = ORIENTED_EDGE ( 'NONE', *, *, #53, .T. ) ;
#240 = PRODUCT_DEFINITION_SHAPE ( 'NONE', 'NONE',  #156 ) ;
#241 = SURFACE_STYLE_FILL_AREA ( #32 ) ;
#242 = DIMENSIONAL_EXPONENTS ( 1.000000000000000000, 0.0000000000000000000, 0.0000000000000000000, 0.0000000000000000000, 0.0000000000000000000, 0.0000000000000000000, 0.0000000000000000000 ) ;
#243 = ORIENTED_EDGE ( 'NONE', *, *, #53, .F. ) ;
#244 = DIRECTION ( 'NONE',  ( 1.000000000000000000, 0.0000000000000000000, 0.0000000000000000000 ) ) ;
#245 = EDGE_CURVE ( 'NONE', #248, #155, #57, .T. ) ;
#246 = EDGE_CURVE ( 'NONE', #149, #28, #126, .T. ) ;
#247 = AXIS2_PLACEMENT_3D ( 'NONE', #159, #238, #68 ) ;
#248 = VERTEX_POINT ( 'NONE', #18 ) ;
#249 = EDGE_CURVE ( 'NONE', #209, #28, #107, .T. ) ;
ENDSEC;
END-ISO-10303-21;
