ISO-10303-21;
HEADER;
FILE_DESCRIPTION (( 'STEP AP214' ),
    '1' );
FILE_NAME ('49065.STEP',
    '2023-06-30T21:56:46',
    ( '' ),
    ( '' ),
    'SwSTEP 2.0',
    'SolidWorks 2023',
    '' );
FILE_SCHEMA (( 'AUTOMOTIVE_DESIGN' ));
ENDSEC;

DATA;
#1 = STYLED_ITEM ( 'NONE', ( #314 ), #66 ) ;
#2 = CARTESIAN_POINT ( 'NONE',  ( -0.09375000000000002776, 3.000000000000000444, 0.000000000000000000 ) ) ;
#3 = SURFACE_SIDE_STYLE ('',( #106 ) ) ;
#4 = ORIENTED_EDGE ( 'NONE', *, *, #128, .F. ) ;
#5 = EDGE_CURVE ( 'NONE', #114, #41, #163, .T. ) ;
#6 = DIRECTION ( 'NONE',  ( 0.000000000000000000, 0.000000000000000000, -1.000000000000000000 ) ) ;
#7 = CARTESIAN_POINT ( 'NONE',  ( 0.09374999999999990286, 1.000000000000000000, 1.148106374200642322E-17 ) ) ;
#8 = ORIENTED_EDGE ( 'NONE', *, *, #341, .F. ) ;
#9 = COLOUR_RGB ( '',0.7921568627450980005, 0.8196078431372548767, 0.9333333333333333481 ) ;
#10 =( NAMED_UNIT ( * ) PLANE_ANGLE_UNIT ( ) SI_UNIT ( $, .RADIAN. ) );
#11 = CIRCLE ( 'NONE', #42, 0.09374999999999995837 ) ;
#12 = DIRECTION ( 'NONE',  ( -1.000000000000000000, 0.000000000000000000, 0.000000000000000000 ) ) ;
#13 =( NAMED_UNIT ( * ) SI_UNIT ( $, .STERADIAN. ) SOLID_ANGLE_UNIT ( ) );
#14 = ORIENTED_EDGE ( 'NONE', *, *, #146, .T. ) ;
#15 = DIMENSIONAL_EXPONENTS ( 1.000000000000000000, 0.000000000000000000, 0.000000000000000000, 0.000000000000000000, 0.000000000000000000, 0.000000000000000000, 0.000000000000000000 ) ;
#16 =( GEOMETRIC_REPRESENTATION_CONTEXT ( 3 ) GLOBAL_UNCERTAINTY_ASSIGNED_CONTEXT ( ( #153 ) ) GLOBAL_UNIT_ASSIGNED_CONTEXT ( ( #361, #328, #64 ) ) REPRESENTATION_CONTEXT ( 'NONE', 'WORKASPACE' ) );
#17 = AXIS2_PLACEMENT_3D ( 'NONE', #127, #103, #264 ) ;
#18 = ORIENTED_EDGE ( 'NONE', *, *, #128, .T. ) ;
#19 = AXIS2_PLACEMENT_3D ( 'NONE', #253, #368, #93 ) ;
#20 = CARTESIAN_POINT ( 'NONE',  ( 0.09374999999999975020, 3.000000000000000444, 1.148106374200641398E-17 ) ) ;
#21 =( LENGTH_UNIT ( ) NAMED_UNIT ( * ) SI_UNIT ( $, .METRE. ) );
#22 = CARTESIAN_POINT ( 'NONE',  ( 0.000000000000000000, 1.000000000000000000, 0.000000000000000000 ) ) ;
#23 = EDGE_LOOP ( 'NONE', ( #169, #194 ) ) ;
#24 = ADVANCED_FACE ( 'NONE', ( #158 ), #82, .T. ) ;
#25 = DIRECTION ( 'NONE',  ( 1.224646799147353700E-16, -1.000000000000000000, 0.000000000000000000 ) ) ;
#26 =( NAMED_UNIT ( * ) SI_UNIT ( $, .STERADIAN. ) SOLID_ANGLE_UNIT ( ) );
#27 = LENGTH_MEASURE_WITH_UNIT ( LENGTH_MEASURE( 0.02539999999999999897 ), #206 );
#28 = PRESENTATION_LAYER_ASSIGNMENT (  '', '', ( #338 ) ) ;
#29 = AXIS2_PLACEMENT_3D ( 'NONE', #280, #118, #180 ) ;
#30 = ADVANCED_FACE ( 'NONE', ( #242 ), #322, .T. ) ;
#31 = MANIFOLD_SOLID_BREP ( 'Revolve - Cutting Edge', #57 ) ;
#32 = DIRECTION ( 'NONE',  ( 0.000000000000000000, 0.000000000000000000, -1.000000000000000000 ) ) ;
#33 = PRESENTATION_LAYER_ASSIGNMENT (  '', '', ( #188 ) ) ;
#34 = VECTOR ( 'NONE', #367, 39.37007874015748143 ) ;
#35 = PLANE ( 'NONE',  #178 ) ;
#36 = UNCERTAINTY_MEASURE_WITH_UNIT (LENGTH_MEASURE( 1.000000000000000082E-05 ), #48, 'distance_accuracy_value', 'NONE');
#37 = EDGE_CURVE ( 'NONE', #236, #133, #147, .T. ) ;
#38 = SURFACE_STYLE_USAGE ( .BOTH. , #183 ) ;
#39 = FILL_AREA_STYLE_COLOUR ( '', #298 ) ;
#40 =( LENGTH_UNIT ( ) NAMED_UNIT ( * ) SI_UNIT ( $, .METRE. ) );
#41 = VERTEX_POINT ( 'NONE', #7 ) ;
#42 = AXIS2_PLACEMENT_3D ( 'NONE', #326, #126, #316 ) ;
#43 = DIRECTION ( 'NONE',  ( -1.224646799147353700E-16, 1.000000000000000000, -0.000000000000000000 ) ) ;
#44 = DIRECTION ( 'NONE',  ( -1.000000000000000000, 0.000000000000000000, 0.000000000000000000 ) ) ;
#45 = DIRECTION ( 'NONE',  ( -0.000000000000000000, -1.000000000000000000, -0.000000000000000000 ) ) ;
#46 =( LENGTH_UNIT ( ) NAMED_UNIT ( * ) SI_UNIT ( $, .METRE. ) );
#47 = ORIENTED_EDGE ( 'NONE', *, *, #89, .T. ) ;
#48 =( CONVERSION_BASED_UNIT ( 'INCH', #83 ) LENGTH_UNIT ( ) NAMED_UNIT ( #269 ) );
#49 = CARTESIAN_POINT ( 'NONE',  ( -6.123233995736772199E-17, 3.000000000000000444, 0.000000000000000000 ) ) ;
#50 = MECHANICAL_DESIGN_GEOMETRIC_PRESENTATION_REPRESENTATION (  '', ( #230 ), #216 ) ;
#51 = PRESENTATION_LAYER_ASSIGNMENT (  '', '', ( #1 ) ) ;
#52 = CARTESIAN_POINT ( 'NONE',  ( 0.000000000000000000, 0.09375000000000004163, 0.000000000000000000 ) ) ;
#53 = DIRECTION ( 'NONE',  ( 0.000000000000000000, 0.000000000000000000, -1.000000000000000000 ) ) ;
#54 = DIRECTION ( 'NONE',  ( -1.224646799147353700E-16, 1.000000000000000000, -0.000000000000000000 ) ) ;
#55 = DIRECTION ( 'NONE',  ( -0.000000000000000000, -1.000000000000000000, -0.000000000000000000 ) ) ;
#56 =( CONVERSION_BASED_UNIT ( 'INCH', #324 ) LENGTH_UNIT ( ) NAMED_UNIT ( #198 ) );
#57 = CLOSED_SHELL ( 'NONE', ( #30, #212, #175, #74, #66 ) ) ;
#58 = PRODUCT ( '49065', '49065', '', ( #176 ) ) ;
#59 = ORIENTED_EDGE ( 'NONE', *, *, #281, .F. ) ;
#60 = ADVANCED_FACE ( 'NONE', ( #284 ), #35, .F. ) ;
#61 = SURFACE_SIDE_STYLE ('',( #200 ) ) ;
#62 = SURFACE_STYLE_USAGE ( .BOTH. , #279 ) ;
#63 = PLANE ( 'NONE',  #256 ) ;
#64 =( NAMED_UNIT ( * ) SI_UNIT ( $, .STERADIAN. ) SOLID_ANGLE_UNIT ( ) );
#65 = STYLED_ITEM ( 'NONE', ( #218 ), #74 ) ;
#66 = ADVANCED_FACE ( 'NONE', ( #184 ), #140, .T. ) ;
#67 = CARTESIAN_POINT ( 'NONE',  ( 0.000000000000000000, 0.09375000000000004163, 0.000000000000000000 ) ) ;
#68 = SHAPE_DEFINITION_REPRESENTATION ( #270, #157 ) ;
#69 = EDGE_CURVE ( 'NONE', #185, #91, #372, .T. ) ;
#70 = COLOUR_RGB ( '',0.7921568627450980005, 0.8196078431372548767, 0.9333333333333333481 ) ;
#71 = SURFACE_STYLE_FILL_AREA ( #312 ) ;
#72 = SURFACE_STYLE_USAGE ( .BOTH. , #3 ) ;
#73 = ORIENTED_EDGE ( 'NONE', *, *, #69, .T. ) ;
#74 = ADVANCED_FACE ( 'NONE', ( #331 ), #195, .T. ) ;
#75 = LENGTH_MEASURE_WITH_UNIT ( LENGTH_MEASURE( 0.02539999999999999897 ), #46 );
#76 = ORIENTED_EDGE ( 'NONE', *, *, #364, .F. ) ;
#77 = UNCERTAINTY_MEASURE_WITH_UNIT (LENGTH_MEASURE( 1.000000000000000082E-05 ), #143, 'distance_accuracy_value', 'NONE');
#78 = CYLINDRICAL_SURFACE ( 'NONE', #299, 0.09374999999999994449 ) ;
#79 = CARTESIAN_POINT ( 'NONE',  ( -1.148106374200644017E-17, 0.09375000000000002776, 0.000000000000000000 ) ) ;
#80 = EDGE_LOOP ( 'NONE', ( #76, #332, #129, #155 ) ) ;
#81 = SURFACE_STYLE_USAGE ( .BOTH. , #244 ) ;
#82 = CYLINDRICAL_SURFACE ( 'NONE', #177, 0.09374999999999981959 ) ;
#83 = LENGTH_MEASURE_WITH_UNIT ( LENGTH_MEASURE( 0.02539999999999999897 ), #317 );
#84 = MECHANICAL_DESIGN_GEOMETRIC_PRESENTATION_REPRESENTATION (  '', ( #1 ), #171 ) ;
#85 = CARTESIAN_POINT ( 'NONE',  ( 0.000000000000000000, 0.000000000000000000, 0.000000000000000000 ) ) ;
#86 = VECTOR ( 'NONE', #88, 39.37007874015748143 ) ;
#87 =( NAMED_UNIT ( * ) PLANE_ANGLE_UNIT ( ) SI_UNIT ( $, .RADIAN. ) );
#88 = DIRECTION ( 'NONE',  ( -0.000000000000000000, -1.000000000000000000, -0.000000000000000000 ) ) ;
#89 = EDGE_CURVE ( 'NONE', #159, #136, #346, .T. ) ;
#90 = FILL_AREA_STYLE ('',( #304 ) ) ;
#91 = VERTEX_POINT ( 'NONE', #98 ) ;
#92 = FILL_AREA_STYLE ('',( #226 ) ) ;
#93 = DIRECTION ( 'NONE',  ( -1.000000000000000000, 0.000000000000000000, 0.000000000000000000 ) ) ;
#94 = CARTESIAN_POINT ( 'NONE',  ( 1.148106374200642938E-17, 0.000000000000000000, 0.09374999999999994449 ) ) ;
#95 = ADVANCED_FACE ( 'NONE', ( #123 ), #204, .T. ) ;
#96 = AXIS2_PLACEMENT_3D ( 'NONE', #189, #289, #44 ) ;
#97 = AXIS2_PLACEMENT_3D ( 'NONE', #285, #247, #168 ) ;
#98 = CARTESIAN_POINT ( 'NONE',  ( -5.740531871003220085E-18, 0.000000000000000000, 0.000000000000000000 ) ) ;
#99 = PRODUCT_RELATED_PRODUCT_CATEGORY ( 'part', '', ( #58 ) ) ;
#100 = DIRECTION ( 'NONE',  ( -0.000000000000000000, -1.000000000000000000, -0.000000000000000000 ) ) ;
#101 = AXIS2_PLACEMENT_3D ( 'NONE', #22, #308, #371 ) ;
#102 = SURFACE_STYLE_USAGE ( .BOTH. , #348 ) ;
#103 = DIRECTION ( 'NONE',  ( 0.000000000000000000, 1.000000000000000000, 0.000000000000000000 ) ) ;
#104 = EDGE_LOOP ( 'NONE', ( #108, #320, #325, #172 ) ) ;
#105 = CARTESIAN_POINT ( 'NONE',  ( 0.000000000000000000, 0.000000000000000000, 0.000000000000000000 ) ) ;
#106 = SURFACE_STYLE_FILL_AREA ( #131 ) ;
#107 = DIRECTION ( 'NONE',  ( 1.000000000000000000, 0.000000000000000000, 0.000000000000000000 ) ) ;
#108 = ORIENTED_EDGE ( 'NONE', *, *, #5, .T. ) ;
#109 =( CONVERSION_BASED_UNIT ( 'INCH', #286 ) LENGTH_UNIT ( ) NAMED_UNIT ( #15 ) );
#110 =( NAMED_UNIT ( * ) SI_UNIT ( $, .STERADIAN. ) SOLID_ANGLE_UNIT ( ) );
#111 = LINE ( 'NONE', #20, #347 ) ;
#112 = ORIENTED_EDGE ( 'NONE', *, *, #69, .F. ) ;
#113 = SURFACE_STYLE_USAGE ( .BOTH. , #265 ) ;
#114 = VERTEX_POINT ( 'NONE', #254 ) ;
#115 = STYLED_ITEM ( 'NONE', ( #205 ), #277 ) ;
#116 = ORIENTED_EDGE ( 'NONE', *, *, #237, .F. ) ;
#117 = LINE ( 'NONE', #94, #86 ) ;
#118 = DIRECTION ( 'NONE',  ( 1.224646799147353207E-16, -0.000000000000000000, 1.000000000000000000 ) ) ;
#119 = AXIS2_PLACEMENT_3D ( 'NONE', #67, #100, #32 ) ;
#120 =( GEOMETRIC_REPRESENTATION_CONTEXT ( 3 ) GLOBAL_UNCERTAINTY_ASSIGNED_CONTEXT ( ( #209 ) ) GLOBAL_UNIT_ASSIGNED_CONTEXT ( ( #144, #225, #203 ) ) REPRESENTATION_CONTEXT ( 'NONE', 'WORKASPACE' ) );
#121 = CARTESIAN_POINT ( 'NONE',  ( -0.09375000000000002776, 0.09375000000000004163, 1.148106374200643555E-17 ) ) ;
#122 = UNCERTAINTY_MEASURE_WITH_UNIT (LENGTH_MEASURE( 1.000000000000000082E-05 ), #109, 'distance_accuracy_value', 'NONE');
#123 = FACE_OUTER_BOUND ( 'NONE', #80, .T. ) ;
#124 = CARTESIAN_POINT ( 'NONE',  ( 1.836970198721030181E-16, 1.000000000000000000, 0.000000000000000000 ) ) ;
#125 = CIRCLE ( 'NONE', #119, 0.09374999999999998612 ) ;
#126 = DIRECTION ( 'NONE',  ( -1.224646799147353700E-16, 1.000000000000000000, -0.000000000000000000 ) ) ;
#127 = CARTESIAN_POINT ( 'NONE',  ( 0.000000000000000000, 1.000000000000000000, 0.000000000000000000 ) ) ;
#128 = EDGE_CURVE ( 'NONE', #159, #91, #182, .T. ) ;
#129 = ORIENTED_EDGE ( 'NONE', *, *, #354, .T. ) ;
#130 = LINE ( 'NONE', #161, #266 ) ;
#131 = FILL_AREA_STYLE ('',( #318 ) ) ;
#132 = DIRECTION ( 'NONE',  ( 0.000000000000000000, 0.000000000000000000, 1.000000000000000000 ) ) ;
#133 = VERTEX_POINT ( 'NONE', #228 ) ;
#134 =( GEOMETRIC_REPRESENTATION_CONTEXT ( 3 ) GLOBAL_UNCERTAINTY_ASSIGNED_CONTEXT ( ( #36 ) ) GLOBAL_UNIT_ASSIGNED_CONTEXT ( ( #48, #156, #321 ) ) REPRESENTATION_CONTEXT ( 'NONE', 'WORKASPACE' ) );
#135 =( NAMED_UNIT ( * ) SI_UNIT ( $, .STERADIAN. ) SOLID_ANGLE_UNIT ( ) );
#136 = VERTEX_POINT ( 'NONE', #342 ) ;
#137 = SURFACE_STYLE_FILL_AREA ( #268 ) ;
#138 = APPLICATION_CONTEXT ( 'automotive_design' ) ;
#139 = PRESENTATION_LAYER_ASSIGNMENT (  '', '', ( #199 ) ) ;
#140 = SPHERICAL_SURFACE ( 'NONE', #273, 0.09375000000000002776 ) ;
#141 = DIMENSIONAL_EXPONENTS ( 1.000000000000000000, 0.000000000000000000, 0.000000000000000000, 0.000000000000000000, 0.000000000000000000, 0.000000000000000000, 0.000000000000000000 ) ;
#142 = DIRECTION ( 'NONE',  ( -0.000000000000000000, -1.000000000000000000, -0.000000000000000000 ) ) ;
#143 =( CONVERSION_BASED_UNIT ( 'INCH', #359 ) LENGTH_UNIT ( ) NAMED_UNIT ( #219 ) );
#144 =( CONVERSION_BASED_UNIT ( 'INCH', #27 ) LENGTH_UNIT ( ) NAMED_UNIT ( #352 ) );
#145 = COLOUR_RGB ( '',1.000000000000000000, 0.000000000000000000, 0.000000000000000000 ) ;
#146 = EDGE_CURVE ( 'NONE', #260, #159, #363, .T. ) ;
#147 = CIRCLE ( 'NONE', #196, 0.09374999999999995837 ) ;
#148 = CARTESIAN_POINT ( 'NONE',  ( 0.09374999999999988898, 3.000000000000000444, 0.000000000000000000 ) ) ;
#149 = FACE_OUTER_BOUND ( 'NONE', #274, .T. ) ;
#150 =( GEOMETRIC_REPRESENTATION_CONTEXT ( 3 ) GLOBAL_UNCERTAINTY_ASSIGNED_CONTEXT ( ( #77 ) ) GLOBAL_UNIT_ASSIGNED_CONTEXT ( ( #143, #10, #110 ) ) REPRESENTATION_CONTEXT ( 'NONE', 'WORKASPACE' ) );
#151 = PRESENTATION_STYLE_ASSIGNMENT (( #38 ) ) ;
#152 =( CONVERSION_BASED_UNIT ( 'INCH', #75 ) LENGTH_UNIT ( ) NAMED_UNIT ( #141 ) );
#153 = UNCERTAINTY_MEASURE_WITH_UNIT (LENGTH_MEASURE( 1.000000000000000082E-05 ), #361, 'distance_accuracy_value', 'NONE');
#154 = AXIS2_PLACEMENT_3D ( 'NONE', #292, #45, #6 ) ;
#155 = ORIENTED_EDGE ( 'NONE', *, *, #272, .F. ) ;
#156 =( NAMED_UNIT ( * ) PLANE_ANGLE_UNIT ( ) SI_UNIT ( $, .RADIAN. ) );
#157 = ADVANCED_BREP_SHAPE_REPRESENTATION ( '49065', ( #31, #277, #252 ), #340 ) ;
#158 = FACE_OUTER_BOUND ( 'NONE', #104, .T. ) ;
#159 = VERTEX_POINT ( 'NONE', #121 ) ;
#160 = EDGE_CURVE ( 'NONE', #136, #185, #125, .T. ) ;
#161 = CARTESIAN_POINT ( 'NONE',  ( 0.000000000000000000, 0.000000000000000000, -0.09374999999999994449 ) ) ;
#162 = DIRECTION ( 'NONE',  ( -1.224646799147353700E-16, 1.000000000000000000, -0.000000000000000000 ) ) ;
#163 = CIRCLE ( 'NONE', #96, 0.09374999999999972244 ) ;
#164 = CIRCLE ( 'NONE', #154, 0.09374999999999998612 ) ;
#165 =( LENGTH_UNIT ( ) NAMED_UNIT ( * ) SI_UNIT ( $, .METRE. ) );
#166 = CIRCLE ( 'NONE', #101, 0.09374999999999988898 ) ;
#167 = DIRECTION ( 'NONE',  ( -0.000000000000000000, -1.000000000000000000, -0.000000000000000000 ) ) ;
#168 = DIRECTION ( 'NONE',  ( -1.000000000000000000, 0.000000000000000000, 0.000000000000000000 ) ) ;
#169 = ORIENTED_EDGE ( 'NONE', *, *, #5, .F. ) ;
#170 = CARTESIAN_POINT ( 'NONE',  ( 1.148106374200642476E-17, 1.000000000000000000, 0.09374999999999988898 ) ) ;
#171 =( GEOMETRIC_REPRESENTATION_CONTEXT ( 3 ) GLOBAL_UNCERTAINTY_ASSIGNED_CONTEXT ( ( #261 ) ) GLOBAL_UNIT_ASSIGNED_CONTEXT ( ( #56, #249, #13 ) ) REPRESENTATION_CONTEXT ( 'NONE', 'WORKASPACE' ) );
#172 = ORIENTED_EDGE ( 'NONE', *, *, #354, .F. ) ;
#173 =( CONVERSION_BASED_UNIT ( 'INCH', #333 ) LENGTH_UNIT ( ) NAMED_UNIT ( #291 ) );
#174 = SURFACE_STYLE_USAGE ( .BOTH. , #61 ) ;
#175 = ADVANCED_FACE ( 'NONE', ( #149 ), #231, .T. ) ;
#176 = PRODUCT_CONTEXT ( 'NONE', #201, 'mechanical' ) ;
#177 = AXIS2_PLACEMENT_3D ( 'NONE', #49, #162, #12 ) ;
#178 = AXIS2_PLACEMENT_3D ( 'NONE', #124, #344, #257 ) ;
#179 = APPLICATION_PROTOCOL_DEFINITION ( 'draft international standard', 'automotive_design', 1998, #138 ) ;
#180 = DIRECTION ( 'NONE',  ( 1.000000000000000000, 0.000000000000000000, -1.224646799147353207E-16 ) ) ;
#181 = COLOUR_RGB ( '',1.000000000000000000, 0.000000000000000000, 0.000000000000000000 ) ;
#182 = CIRCLE ( 'NONE', #29, 0.09375000000000002776 ) ;
#183 = SURFACE_SIDE_STYLE ('',( #71 ) ) ;
#184 = FACE_OUTER_BOUND ( 'NONE', #215, .T. ) ;
#185 = VERTEX_POINT ( 'NONE', #186 ) ;
#186 = CARTESIAN_POINT ( 'NONE',  ( 0.09374999999999998612, 0.09375000000000004163, 0.000000000000000000 ) ) ;
#187 =( NAMED_UNIT ( * ) PLANE_ANGLE_UNIT ( ) SI_UNIT ( $, .RADIAN. ) );
#188 = STYLED_ITEM ( 'NONE', ( #238 ), #212 ) ;
#189 = CARTESIAN_POINT ( 'NONE',  ( 1.836970198721030427E-16, 1.000000000000000000, 0.000000000000000000 ) ) ;
#190 = DIRECTION ( 'NONE',  ( -0.000000000000000000, -1.000000000000000000, -0.000000000000000000 ) ) ;
#191 = DIRECTION ( 'NONE',  ( 1.000000000000000000, 0.000000000000000000, 0.000000000000000000 ) ) ;
#192 = EDGE_LOOP ( 'NONE', ( #210, #222 ) ) ;
#193 =( NAMED_UNIT ( * ) PLANE_ANGLE_UNIT ( ) SI_UNIT ( $, .RADIAN. ) );
#194 = ORIENTED_EDGE ( 'NONE', *, *, #337, .F. ) ;
#195 = CYLINDRICAL_SURFACE ( 'NONE', #233, 0.09374999999999994449 ) ;
#196 = AXIS2_PLACEMENT_3D ( 'NONE', #239, #43, #263 ) ;
#197 = CARTESIAN_POINT ( 'NONE',  ( 0.000000000000000000, 1.000000000000000000, 0.000000000000000000 ) ) ;
#198 = DIMENSIONAL_EXPONENTS ( 1.000000000000000000, 0.000000000000000000, 0.000000000000000000, 0.000000000000000000, 0.000000000000000000, 0.000000000000000000, 0.000000000000000000 ) ;
#199 = STYLED_ITEM ( 'NONE', ( #151 ), #175 ) ;
#200 = SURFACE_STYLE_FILL_AREA ( #90 ) ;
#201 = APPLICATION_CONTEXT ( 'automotive_design' ) ;
#202 = VERTEX_POINT ( 'NONE', #319 ) ;
#203 =( NAMED_UNIT ( * ) SI_UNIT ( $, .STERADIAN. ) SOLID_ANGLE_UNIT ( ) );
#204 = CYLINDRICAL_SURFACE ( 'NONE', #355, 0.09374999999999981959 ) ;
#205 = PRESENTATION_STYLE_ASSIGNMENT (( #62 ) ) ;
#206 =( LENGTH_UNIT ( ) NAMED_UNIT ( * ) SI_UNIT ( $, .METRE. ) );
#207 =( GEOMETRIC_REPRESENTATION_CONTEXT ( 3 ) GLOBAL_UNCERTAINTY_ASSIGNED_CONTEXT ( ( #122 ) ) GLOBAL_UNIT_ASSIGNED_CONTEXT ( ( #109, #193, #135 ) ) REPRESENTATION_CONTEXT ( 'NONE', 'WORKASPACE' ) );
#208 = CIRCLE ( 'NONE', #241, 0.09374999999999988898 ) ;
#209 = UNCERTAINTY_MEASURE_WITH_UNIT (LENGTH_MEASURE( 1.000000000000000082E-05 ), #144, 'distance_accuracy_value', 'NONE');
#210 = ORIENTED_EDGE ( 'NONE', *, *, #37, .T. ) ;
#211 = DIRECTION ( 'NONE',  ( 0.000000000000000000, 0.000000000000000000, -1.000000000000000000 ) ) ;
#212 = ADVANCED_FACE ( 'NONE', ( #214 ), #78, .T. ) ;
#213 = ORIENTED_EDGE ( 'NONE', *, *, #281, .T. ) ;
#214 = FACE_OUTER_BOUND ( 'NONE', #358, .T. ) ;
#215 = EDGE_LOOP ( 'NONE', ( #4, #47, #360, #73 ) ) ;
#216 =( GEOMETRIC_REPRESENTATION_CONTEXT ( 3 ) GLOBAL_UNCERTAINTY_ASSIGNED_CONTEXT ( ( #350 ) ) GLOBAL_UNIT_ASSIGNED_CONTEXT ( ( #152, #187, #235 ) ) REPRESENTATION_CONTEXT ( 'NONE', 'WORKASPACE' ) );
#217 =( LENGTH_UNIT ( ) NAMED_UNIT ( * ) SI_UNIT ( $, .METRE. ) );
#218 = PRESENTATION_STYLE_ASSIGNMENT (( #113 ) ) ;
#219 = DIMENSIONAL_EXPONENTS ( 1.000000000000000000, 0.000000000000000000, 0.000000000000000000, 0.000000000000000000, 0.000000000000000000, 0.000000000000000000, 0.000000000000000000 ) ;
#220 = DIRECTION ( 'NONE',  ( 0.000000000000000000, 0.000000000000000000, -1.000000000000000000 ) ) ;
#221 = CARTESIAN_POINT ( 'NONE',  ( -1.148106374200644017E-17, 0.09375000000000002776, 0.000000000000000000 ) ) ;
#222 = ORIENTED_EDGE ( 'NONE', *, *, #272, .T. ) ;
#223 = PRESENTATION_LAYER_ASSIGNMENT (  '', '', ( #230 ) ) ;
#224 = MECHANICAL_DESIGN_GEOMETRIC_PRESENTATION_REPRESENTATION (  '', ( #199 ), #207 ) ;
#225 =( NAMED_UNIT ( * ) PLANE_ANGLE_UNIT ( ) SI_UNIT ( $, .RADIAN. ) );
#226 = FILL_AREA_STYLE_COLOUR ( '', #70 ) ;
#227 = AXIS2_PLACEMENT_3D ( 'NONE', #79, #229, #191 ) ;
#228 = CARTESIAN_POINT ( 'NONE',  ( 0.09374999999999988898, 3.000000000000000444, 1.148106374200642168E-17 ) ) ;
#229 = DIRECTION ( 'NONE',  ( 0.000000000000000000, 0.000000000000000000, 1.000000000000000000 ) ) ;
#230 = STYLED_ITEM ( 'NONE', ( #313 ), #31 ) ;
#231 = PLANE ( 'NONE',  #17 ) ;
#232 = SURFACE_STYLE_FILL_AREA ( #258 ) ;
#233 = AXIS2_PLACEMENT_3D ( 'NONE', #85, #55, #271 ) ;
#234 = CIRCLE ( 'NONE', #19, 0.09374999999999972244 ) ;
#235 =( NAMED_UNIT ( * ) SI_UNIT ( $, .STERADIAN. ) SOLID_ANGLE_UNIT ( ) );
#236 = VERTEX_POINT ( 'NONE', #2 ) ;
#237 = EDGE_CURVE ( 'NONE', #185, #260, #164, .T. ) ;
#238 = PRESENTATION_STYLE_ASSIGNMENT (( #81 ) ) ;
#239 = CARTESIAN_POINT ( 'NONE',  ( -6.123233995736772199E-17, 3.000000000000000444, 0.000000000000000000 ) ) ;
#240 = AXIS2_PLACEMENT_3D ( 'NONE', #343, #310, #283 ) ;
#241 = AXIS2_PLACEMENT_3D ( 'NONE', #197, #142, #220 ) ;
#242 = FACE_OUTER_BOUND ( 'NONE', #288, .T. ) ;
#243 = DIMENSIONAL_EXPONENTS ( 1.000000000000000000, 0.000000000000000000, 0.000000000000000000, 0.000000000000000000, 0.000000000000000000, 0.000000000000000000, 0.000000000000000000 ) ;
#244 = SURFACE_SIDE_STYLE ('',( #262 ) ) ;
#245 = ORIENTED_EDGE ( 'NONE', *, *, #259, .F. ) ;
#246 = LENGTH_MEASURE_WITH_UNIT ( LENGTH_MEASURE( 0.02539999999999999897 ), #165 );
#247 = DIRECTION ( 'NONE',  ( 0.000000000000000000, 0.000000000000000000, -1.000000000000000000 ) ) ;
#248 = PRESENTATION_LAYER_ASSIGNMENT (  '', '', ( #115 ) ) ;
#249 =( NAMED_UNIT ( * ) PLANE_ANGLE_UNIT ( ) SI_UNIT ( $, .RADIAN. ) );
#250 = DIRECTION ( 'NONE',  ( 1.000000000000000000, 1.224646799147353700E-16, 0.000000000000000000 ) ) ;
#251 = PRESENTATION_LAYER_ASSIGNMENT (  '', '', ( #65 ) ) ;
#252 = AXIS2_PLACEMENT_3D ( 'NONE', #356, #132, #107 ) ;
#253 = CARTESIAN_POINT ( 'NONE',  ( 1.836970198721030427E-16, 1.000000000000000000, 0.000000000000000000 ) ) ;
#254 = CARTESIAN_POINT ( 'NONE',  ( -0.09374999999999952816, 1.000000000000000000, 0.000000000000000000 ) ) ;
#255 = FILL_AREA_STYLE_COLOUR ( '', #370 ) ;
#256 = AXIS2_PLACEMENT_3D ( 'NONE', #148, #25, #250 ) ;
#257 = DIRECTION ( 'NONE',  ( -1.000000000000000000, -1.224646799147353700E-16, 0.000000000000000000 ) ) ;
#258 = FILL_AREA_STYLE ('',( #39 ) ) ;
#259 = EDGE_CURVE ( 'NONE', #202, #136, #130, .T. ) ;
#260 = VERTEX_POINT ( 'NONE', #267 ) ;
#261 = UNCERTAINTY_MEASURE_WITH_UNIT (LENGTH_MEASURE( 1.000000000000000082E-05 ), #56, 'distance_accuracy_value', 'NONE');
#262 = SURFACE_STYLE_FILL_AREA ( #323 ) ;
#263 = DIRECTION ( 'NONE',  ( -1.000000000000000000, 0.000000000000000000, 0.000000000000000000 ) ) ;
#264 = DIRECTION ( 'NONE',  ( 0.000000000000000000, -0.000000000000000000, 1.000000000000000000 ) ) ;
#265 = SURFACE_SIDE_STYLE ('',( #137 ) ) ;
#266 = VECTOR ( 'NONE', #167, 39.37007874015748143 ) ;
#267 = CARTESIAN_POINT ( 'NONE',  ( 1.148106374200643401E-17, 0.09375000000000004163, 0.09374999999999997224 ) ) ;
#268 = FILL_AREA_STYLE ('',( #362 ) ) ;
#269 = DIMENSIONAL_EXPONENTS ( 1.000000000000000000, 0.000000000000000000, 0.000000000000000000, 0.000000000000000000, 0.000000000000000000, 0.000000000000000000, 0.000000000000000000 ) ;
#270 = PRODUCT_DEFINITION_SHAPE ( 'NONE', 'NONE',  #302 ) ;
#271 = DIRECTION ( 'NONE',  ( 0.000000000000000000, 0.000000000000000000, -1.000000000000000000 ) ) ;
#272 = EDGE_CURVE ( 'NONE', #133, #236, #11, .T. ) ;
#273 = AXIS2_PLACEMENT_3D ( 'NONE', #221, #334, #294 ) ;
#274 = EDGE_LOOP ( 'NONE', ( #59, #8 ) ) ;
#275 = PRESENTATION_STYLE_ASSIGNMENT (( #174 ) ) ;
#276 = MECHANICAL_DESIGN_GEOMETRIC_PRESENTATION_REPRESENTATION (  '', ( #65 ), #150 ) ;
#277 = MANIFOLD_SOLID_BREP ( 'Revolve - Tool Body (Straight Shanked)', #282 ) ;
#278 = DIRECTION ( 'NONE',  ( -1.224646799147353700E-16, 1.000000000000000000, -0.000000000000000000 ) ) ;
#279 = SURFACE_SIDE_STYLE ('',( #307 ) ) ;
#280 = CARTESIAN_POINT ( 'NONE',  ( -1.148106374200644017E-17, 0.09375000000000002776, 0.000000000000000000 ) ) ;
#281 = EDGE_CURVE ( 'NONE', #202, #369, #166, .T. ) ;
#282 = CLOSED_SHELL ( 'NONE', ( #24, #60, #95, #329 ) ) ;
#283 = DIRECTION ( 'NONE',  ( 0.000000000000000000, 0.000000000000000000, -1.000000000000000000 ) ) ;
#284 = FACE_OUTER_BOUND ( 'NONE', #23, .T. ) ;
#285 = CARTESIAN_POINT ( 'NONE',  ( -1.148106374200644017E-17, 0.09375000000000002776, 0.000000000000000000 ) ) ;
#286 = LENGTH_MEASURE_WITH_UNIT ( LENGTH_MEASURE( 0.02539999999999999897 ), #40 );
#287 =( LENGTH_UNIT ( ) NAMED_UNIT ( * ) SI_UNIT ( $, .METRE. ) );
#288 = EDGE_LOOP ( 'NONE', ( #14, #18, #112, #330 ) ) ;
#289 = DIRECTION ( 'NONE',  ( -1.224646799147353700E-16, 1.000000000000000000, -0.000000000000000000 ) ) ;
#290 = UNCERTAINTY_MEASURE_WITH_UNIT (LENGTH_MEASURE( 1.000000000000000082E-05 ), #173, 'distance_accuracy_value', 'NONE');
#291 = DIMENSIONAL_EXPONENTS ( 1.000000000000000000, 0.000000000000000000, 0.000000000000000000, 0.000000000000000000, 0.000000000000000000, 0.000000000000000000, 0.000000000000000000 ) ;
#292 = CARTESIAN_POINT ( 'NONE',  ( 0.000000000000000000, 0.09375000000000004163, 0.000000000000000000 ) ) ;
#293 = ORIENTED_EDGE ( 'NONE', *, *, #259, .T. ) ;
#294 = DIRECTION ( 'NONE',  ( 1.000000000000000000, 0.000000000000000000, 0.000000000000000000 ) ) ;
#295 = APPLICATION_PROTOCOL_DEFINITION ( 'draft international standard', 'automotive_design', 1998, #201 ) ;
#296 = EDGE_CURVE ( 'NONE', #369, #260, #117, .T. ) ;
#297 = MECHANICAL_DESIGN_GEOMETRIC_PRESENTATION_REPRESENTATION (  '', ( #338 ), #16 ) ;
#298 = COLOUR_RGB ( '',1.000000000000000000, 0.000000000000000000, 0.000000000000000000 ) ;
#299 = AXIS2_PLACEMENT_3D ( 'NONE', #105, #190, #211 ) ;
#300 = PRODUCT_DEFINITION_FORMATION_WITH_SPECIFIED_SOURCE ( 'ANY', '', #58, .NOT_KNOWN. ) ;
#301 = DIRECTION ( 'NONE',  ( -0.000000000000000000, -1.000000000000000000, -0.000000000000000000 ) ) ;
#302 = PRODUCT_DEFINITION ( 'UNKNOWN', '', #300, #345 ) ;
#303 = CARTESIAN_POINT ( 'NONE',  ( -0.09374999999999988898, 3.000000000000000444, 0.000000000000000000 ) ) ;
#304 = FILL_AREA_STYLE_COLOUR ( '', #181 ) ;
#305 = FACE_OUTER_BOUND ( 'NONE', #192, .T. ) ;
#306 = ORIENTED_EDGE ( 'NONE', *, *, #296, .F. ) ;
#307 = SURFACE_STYLE_FILL_AREA ( #92 ) ;
#308 = DIRECTION ( 'NONE',  ( -0.000000000000000000, -1.000000000000000000, -0.000000000000000000 ) ) ;
#309 = CARTESIAN_POINT ( 'NONE',  ( -6.123233995736772199E-17, 3.000000000000000444, 0.000000000000000000 ) ) ;
#310 = DIRECTION ( 'NONE',  ( -0.000000000000000000, -1.000000000000000000, -0.000000000000000000 ) ) ;
#311 = AXIS2_PLACEMENT_3D ( 'NONE', #52, #301, #53 ) ;
#312 = FILL_AREA_STYLE ('',( #255 ) ) ;
#313 = PRESENTATION_STYLE_ASSIGNMENT (( #72 ) ) ;
#314 = PRESENTATION_STYLE_ASSIGNMENT (( #102 ) ) ;
#315 = ORIENTED_EDGE ( 'NONE', *, *, #146, .F. ) ;
#316 = DIRECTION ( 'NONE',  ( -1.000000000000000000, 0.000000000000000000, 0.000000000000000000 ) ) ;
#317 =( LENGTH_UNIT ( ) NAMED_UNIT ( * ) SI_UNIT ( $, .METRE. ) );
#318 = FILL_AREA_STYLE_COLOUR ( '', #9 ) ;
#319 = CARTESIAN_POINT ( 'NONE',  ( 0.000000000000000000, 1.000000000000000000, -0.09374999999999988898 ) ) ;
#320 = ORIENTED_EDGE ( 'NONE', *, *, #364, .T. ) ;
#321 =( NAMED_UNIT ( * ) SI_UNIT ( $, .STERADIAN. ) SOLID_ANGLE_UNIT ( ) );
#322 = SPHERICAL_SURFACE ( 'NONE', #227, 0.09375000000000002776 ) ;
#323 = FILL_AREA_STYLE ('',( #351 ) ) ;
#324 = LENGTH_MEASURE_WITH_UNIT ( LENGTH_MEASURE( 0.02539999999999999897 ), #287 );
#325 = ORIENTED_EDGE ( 'NONE', *, *, #37, .F. ) ;
#326 = CARTESIAN_POINT ( 'NONE',  ( -6.123233995736772199E-17, 3.000000000000000444, 0.000000000000000000 ) ) ;
#327 = MECHANICAL_DESIGN_GEOMETRIC_PRESENTATION_REPRESENTATION (  '', ( #188 ), #134 ) ;
#328 =( NAMED_UNIT ( * ) PLANE_ANGLE_UNIT ( ) SI_UNIT ( $, .RADIAN. ) );
#329 = ADVANCED_FACE ( 'NONE', ( #305 ), #63, .F. ) ;
#330 = ORIENTED_EDGE ( 'NONE', *, *, #237, .T. ) ;
#331 = FACE_OUTER_BOUND ( 'NONE', #335, .T. ) ;
#332 = ORIENTED_EDGE ( 'NONE', *, *, #337, .T. ) ;
#333 = LENGTH_MEASURE_WITH_UNIT ( LENGTH_MEASURE( 0.02539999999999999897 ), #217 );
#334 = DIRECTION ( 'NONE',  ( 0.000000000000000000, 0.000000000000000000, 1.000000000000000000 ) ) ;
#335 = EDGE_LOOP ( 'NONE', ( #306, #357, #293, #349, #315 ) ) ;
#336 = COLOUR_RGB ( '',1.000000000000000000, 0.000000000000000000, 0.000000000000000000 ) ;
#337 = EDGE_CURVE ( 'NONE', #41, #114, #234, .T. ) ;
#338 = STYLED_ITEM ( 'NONE', ( #275 ), #30 ) ;
#339 = MECHANICAL_DESIGN_GEOMETRIC_PRESENTATION_REPRESENTATION (  '', ( #115 ), #120 ) ;
#340 =( GEOMETRIC_REPRESENTATION_CONTEXT ( 3 ) GLOBAL_UNCERTAINTY_ASSIGNED_CONTEXT ( ( #290 ) ) GLOBAL_UNIT_ASSIGNED_CONTEXT ( ( #173, #87, #26 ) ) REPRESENTATION_CONTEXT ( 'NONE', 'WORKASPACE' ) );
#341 = EDGE_CURVE ( 'NONE', #369, #202, #208, .T. ) ;
#342 = CARTESIAN_POINT ( 'NONE',  ( 0.000000000000000000, 0.09375000000000004163, -0.09374999999999998612 ) ) ;
#343 = CARTESIAN_POINT ( 'NONE',  ( 0.000000000000000000, 0.09375000000000004163, 0.000000000000000000 ) ) ;
#344 = DIRECTION ( 'NONE',  ( -1.224646799147353700E-16, 1.000000000000000000, 0.000000000000000000 ) ) ;
#345 = PRODUCT_DEFINITION_CONTEXT ( 'detailed design', #138, 'design' ) ;
#346 = CIRCLE ( 'NONE', #311, 0.09374999999999998612 ) ;
#347 = VECTOR ( 'NONE', #54, 39.37007874015748143 ) ;
#348 = SURFACE_SIDE_STYLE ('',( #232 ) ) ;
#349 = ORIENTED_EDGE ( 'NONE', *, *, #89, .F. ) ;
#350 = UNCERTAINTY_MEASURE_WITH_UNIT (LENGTH_MEASURE( 1.000000000000000082E-05 ), #152, 'distance_accuracy_value', 'NONE');
#351 = FILL_AREA_STYLE_COLOUR ( '', #336 ) ;
#352 = DIMENSIONAL_EXPONENTS ( 1.000000000000000000, 0.000000000000000000, 0.000000000000000000, 0.000000000000000000, 0.000000000000000000, 0.000000000000000000, 0.000000000000000000 ) ;
#353 = ORIENTED_EDGE ( 'NONE', *, *, #160, .F. ) ;
#354 = EDGE_CURVE ( 'NONE', #114, #236, #365, .T. ) ;
#355 = AXIS2_PLACEMENT_3D ( 'NONE', #309, #278, #373 ) ;
#356 = CARTESIAN_POINT ( 'NONE',  ( 0.000000000000000000, 0.000000000000000000, 0.000000000000000000 ) ) ;
#357 = ORIENTED_EDGE ( 'NONE', *, *, #341, .T. ) ;
#358 = EDGE_LOOP ( 'NONE', ( #213, #366, #116, #353, #245 ) ) ;
#359 = LENGTH_MEASURE_WITH_UNIT ( LENGTH_MEASURE( 0.02539999999999999897 ), #21 );
#360 = ORIENTED_EDGE ( 'NONE', *, *, #160, .T. ) ;
#361 =( CONVERSION_BASED_UNIT ( 'INCH', #246 ) LENGTH_UNIT ( ) NAMED_UNIT ( #243 ) );
#362 = FILL_AREA_STYLE_COLOUR ( '', #145 ) ;
#363 = CIRCLE ( 'NONE', #240, 0.09374999999999998612 ) ;
#364 = EDGE_CURVE ( 'NONE', #41, #133, #111, .T. ) ;
#365 = LINE ( 'NONE', #303, #34 ) ;
#366 = ORIENTED_EDGE ( 'NONE', *, *, #296, .T. ) ;
#367 = DIRECTION ( 'NONE',  ( -1.224646799147353700E-16, 1.000000000000000000, -0.000000000000000000 ) ) ;
#368 = DIRECTION ( 'NONE',  ( -1.224646799147353700E-16, 1.000000000000000000, -0.000000000000000000 ) ) ;
#369 = VERTEX_POINT ( 'NONE', #170 ) ;
#370 = COLOUR_RGB ( '',1.000000000000000000, 0.000000000000000000, 0.000000000000000000 ) ;
#371 = DIRECTION ( 'NONE',  ( 0.000000000000000000, 0.000000000000000000, -1.000000000000000000 ) ) ;
#372 = CIRCLE ( 'NONE', #97, 0.09375000000000002776 ) ;
#373 = DIRECTION ( 'NONE',  ( -1.000000000000000000, 0.000000000000000000, 0.000000000000000000 ) ) ;
ENDSEC;
END-ISO-10303-21;
