ISO-10303-21;
HEADER;
FILE_DESCRIPTION (( 'STEP AP214' ),
    '1' );
FILE_NAME ('Micro_GEC-187-3-030.STEP',
    '2021-09-03T17:10:47',
    ( '' ),
    ( '' ),
    'SwSTEP 2.0',
    'SolidWorks 2020',
    '' );
FILE_SCHEMA (( 'AUTOMOTIVE_DESIGN' ));
ENDSEC;

DATA;
#1 = CARTESIAN_POINT ( 'NONE',  ( 0.07874999999999980627, 9.644093543285380530E-18, 2.000000000000000000 ) ) ;
#2 = ORIENTED_EDGE ( 'NONE', *, *, #176, .F. ) ;
#3 = VECTOR ( 'NONE', #262, 39.37007874015748143 ) ;
#4 = EDGE_CURVE ( 'NONE', #281, #155, #103, .T. ) ;
#5 = ORIENTED_EDGE ( 'NONE', *, *, #199, .F. ) ;
#6 = CIRCLE ( 'NONE', #162, 0.09375000000000001388 ) ;
#7 = LINE ( 'NONE', #1, #306 ) ;
#8 = DIRECTION ( 'NONE',  ( -1.000000000000000000, 0.0000000000000000000, 1.224646799147352961E-16 ) ) ;
#9 = ORIENTED_EDGE ( 'NONE', *, *, #186, .T. ) ;
#10 = CARTESIAN_POINT ( 'NONE',  ( 0.07874999999999980627, 1.056257864264590573E-17, 2.000000000000000000 ) ) ;
#11 = EDGE_CURVE ( 'NONE', #281, #327, #333, .T. ) ;
#12 = DIRECTION ( 'NONE',  ( -1.224646799147353207E-16, -0.0000000000000000000, -1.000000000000000000 ) ) ;
#13 = PRODUCT ( 'Micro_GEC-187-3-030', 'Micro_GEC-187-3-030', '', ( #128 ) ) ;
#14 = CONICAL_SURFACE ( 'NONE', #62, 0.09365624999999999645, 0.1745329251994338360 ) ;
#15 = VERTEX_POINT ( 'NONE', #307 ) ;
#16 = FILL_AREA_STYLE_COLOUR ( '', #284 ) ;
#17 =( CONVERSION_BASED_UNIT ( 'INCH', #104 ) LENGTH_UNIT ( ) NAMED_UNIT ( #269 ) );
#18 = VERTEX_POINT ( 'NONE', #181 ) ;
#19 = AXIS2_PLACEMENT_3D ( 'NONE', #163, #296, #346 ) ;
#20 = DIRECTION ( 'NONE',  ( -1.000000000000000000, 0.0000000000000000000, 0.0000000000000000000 ) ) ;
#21 = UNCERTAINTY_MEASURE_WITH_UNIT (LENGTH_MEASURE( 1.000000000000000082E-05 ), #252, 'distance_accuracy_value', 'NONE');
#22 = CIRCLE ( 'NONE', #123, 0.06365624999999998368 ) ;
#23 = CARTESIAN_POINT ( 'NONE',  ( -0.07874999999999980627, 0.0000000000000000000, 2.000000000000000000 ) ) ;
#24 = CARTESIAN_POINT ( 'NONE',  ( 0.0000000000000000000, 0.0000000000000000000, 0.0000000000000000000 ) ) ;
#25 = CARTESIAN_POINT ( 'NONE',  ( 7.654042494670957853E-17, 0.0000000000000000000, 0.6250000000000000000 ) ) ;
#26 = DIRECTION ( 'NONE',  ( 0.0000000000000000000, 0.0000000000000000000, 1.000000000000000000 ) ) ;
#27 = EDGE_CURVE ( 'NONE', #94, #231, #293, .T. ) ;
#28 = CYLINDRICAL_SURFACE ( 'NONE', #265, 0.09375000000000001388 ) ;
#29 = CARTESIAN_POINT ( 'NONE',  ( 0.06365624999999998368, 0.0000000000000000000, 0.02999999999999999889 ) ) ;
#30 = AXIS2_PLACEMENT_3D ( 'NONE', #349, #114, #20 ) ;
#31 = FACE_OUTER_BOUND ( 'NONE', #312, .T. ) ;
#32 = LINE ( 'NONE', #91, #55 ) ;
#33 = FACE_OUTER_BOUND ( 'NONE', #257, .T. ) ;
#34 = DIRECTION ( 'NONE',  ( 1.000000000000000000, 0.0000000000000000000, 0.0000000000000000000 ) ) ;
#35 = PRODUCT_DEFINITION ( 'UNKNOWN', '', #184, #137 ) ;
#36 = AXIS2_PLACEMENT_3D ( 'NONE', #108, #58, #53 ) ;
#37 = ORIENTED_EDGE ( 'NONE', *, *, #38, .T. ) ;
#38 = EDGE_CURVE ( 'NONE', #158, #96, #171, .T. ) ;
#39 = ORIENTED_EDGE ( 'NONE', *, *, #73, .T. ) ;
#40 = DIRECTION ( 'NONE',  ( -0.0000000000000000000, -0.0000000000000000000, -1.000000000000000000 ) ) ;
#41 = CIRCLE ( 'NONE', #344, 0.09365624999999999645 ) ;
#42 = ORIENTED_EDGE ( 'NONE', *, *, #102, .T. ) ;
#43 = ORIENTED_EDGE ( 'NONE', *, *, #304, .F. ) ;
#44 = DIRECTION ( 'NONE',  ( 1.000000000000000000, 0.0000000000000000000, 0.0000000000000000000 ) ) ;
#45 = ADVANCED_FACE ( 'NONE', ( #31 ), #145, .T. ) ;
#46 = EDGE_CURVE ( 'NONE', #155, #15, #268, .T. ) ;
#47 = ORIENTED_EDGE ( 'NONE', *, *, #204, .F. ) ;
#48 = EDGE_LOOP ( 'NONE', ( #131, #207, #173, #122 ) ) ;
#49 = CIRCLE ( 'NONE', #36, 0.09375000000000001388 ) ;
#50 = AXIS2_PLACEMENT_3D ( 'NONE', #153, #228, #299 ) ;
#51 = ORIENTED_EDGE ( 'NONE', *, *, #277, .T. ) ;
#52 = ADVANCED_FACE ( 'NONE', ( #113 ), #14, .T. ) ;
#53 = DIRECTION ( 'NONE',  ( 1.000000000000000000, 0.0000000000000000000, 0.0000000000000000000 ) ) ;
#54 = LINE ( 'NONE', #136, #3 ) ;
#55 = VECTOR ( 'NONE', #247, 39.37007874015747433 ) ;
#56 = ADVANCED_FACE ( 'NONE', ( #212 ), #311, .T. ) ;
#57 = DIRECTION ( 'NONE',  ( 1.000000000000000000, 0.0000000000000000000, 0.0000000000000000000 ) ) ;
#58 = DIRECTION ( 'NONE',  ( 0.0000000000000000000, 0.0000000000000000000, -1.000000000000000000 ) ) ;
#59 = DIRECTION ( 'NONE',  ( 1.000000000000000000, 0.0000000000000000000, 0.0000000000000000000 ) ) ;
#60 = DIRECTION ( 'NONE',  ( 0.0000000000000000000, 0.0000000000000000000, 1.000000000000000000 ) ) ;
#61 = CARTESIAN_POINT ( 'NONE',  ( -0.09365624999999999645, 0.0000000000000000000, 0.03000000000000000583 ) ) ;
#62 = AXIS2_PLACEMENT_3D ( 'NONE', #192, #348, #138 ) ;
#63 = STYLED_ITEM ( 'NONE', ( #289 ), #195 ) ;
#64 = ORIENTED_EDGE ( 'NONE', *, *, #159, .F. ) ;
#65 = DIRECTION ( 'NONE',  ( -1.224646799147353207E-16, -0.0000000000000000000, -1.000000000000000000 ) ) ;
#66 = ORIENTED_EDGE ( 'NONE', *, *, #340, .T. ) ;
#67 = AXIS2_PLACEMENT_3D ( 'NONE', #273, #141, #245 ) ;
#68 = CYLINDRICAL_SURFACE ( 'NONE', #324, 0.09365624999999999645 ) ;
#69 = AXIS2_PLACEMENT_3D ( 'NONE', #25, #144, #34 ) ;
#70 = ADVANCED_FACE ( 'NONE', ( #33 ), #28, .T. ) ;
#71 =( NAMED_UNIT ( * ) PLANE_ANGLE_UNIT ( ) SI_UNIT ( $, .RADIAN. ) );
#72 = FILL_AREA_STYLE_COLOUR ( '', #294 ) ;
#73 = EDGE_CURVE ( 'NONE', #226, #18, #49, .T. ) ;
#74 = ORIENTED_EDGE ( 'NONE', *, *, #86, .T. ) ;
#75 =( CONVERSION_BASED_UNIT ( 'INCH', #337 ) LENGTH_UNIT ( ) NAMED_UNIT ( #218 ) );
#76 = CIRCLE ( 'NONE', #271, 0.09375000000000001388 ) ;
#77 = ADVANCED_FACE ( 'NONE', ( #194 ), #216, .F. ) ;
#78 = EDGE_LOOP ( 'NONE', ( #133, #66, #233, #209 ) ) ;
#79 = SURFACE_STYLE_USAGE ( .BOTH. , #313 ) ;
#80 =( NAMED_UNIT ( * ) PLANE_ANGLE_UNIT ( ) SI_UNIT ( $, .RADIAN. ) );
#81 = CARTESIAN_POINT ( 'NONE',  ( 0.0000000000000000000, 0.0000000000000000000, 0.0000000000000000000 ) ) ;
#82 = CIRCLE ( 'NONE', #19, 0.09375000000000001388 ) ;
#83 = DIRECTION ( 'NONE',  ( 0.0000000000000000000, 0.0000000000000000000, -1.000000000000000000 ) ) ;
#84 = CARTESIAN_POINT ( 'NONE',  ( 0.06365624999999998368, 0.0000000000000000000, 0.0000000000000000000 ) ) ;
#85 = FACE_OUTER_BOUND ( 'NONE', #174, .T. ) ;
#86 = EDGE_CURVE ( 'NONE', #94, #226, #214, .T. ) ;
#87 = FACE_OUTER_BOUND ( 'NONE', #78, .T. ) ;
#88 = APPLICATION_CONTEXT ( 'automotive_design' ) ;
#89 = CARTESIAN_POINT ( 'NONE',  ( -0.09365624999999992706, 1.147532321013543253E-17, 0.6250000000000000000 ) ) ;
#90 = AXIS2_PLACEMENT_3D ( 'NONE', #198, #65, #203 ) ;
#91 = CARTESIAN_POINT ( 'NONE',  ( -0.09365624999999992706, 1.146958267826442798E-17, 0.6250000000000000000 ) ) ;
#92 = ORIENTED_EDGE ( 'NONE', *, *, #341, .T. ) ;
#93 = APPLICATION_CONTEXT ( 'automotive_design' ) ;
#94 = VERTEX_POINT ( 'NONE', #23 ) ;
#95 = STYLED_ITEM ( 'NONE', ( #188 ), #235 ) ;
#96 = VERTEX_POINT ( 'NONE', #84 ) ;
#97 = DIRECTION ( 'NONE',  ( 0.0000000000000000000, 0.0000000000000000000, 1.000000000000000000 ) ) ;
#98 = ORIENTED_EDGE ( 'NONE', *, *, #4, .T. ) ;
#99 = EDGE_LOOP ( 'NONE', ( #187, #42 ) ) ;
#100 = DIRECTION ( 'NONE',  ( -0.0000000000000000000, -0.0000000000000000000, -1.000000000000000000 ) ) ;
#101 = CARTESIAN_POINT ( 'NONE',  ( 0.0000000000000000000, 0.0000000000000000000, 2.000000000000000000 ) ) ;
#102 = EDGE_CURVE ( 'NONE', #231, #94, #242, .T. ) ;
#103 = CIRCLE ( 'NONE', #318, 0.09365624999999999645 ) ;
#104 = LENGTH_MEASURE_WITH_UNIT ( LENGTH_MEASURE( 0.02539999999999999897 ), #134 );
#105 = AXIS2_PLACEMENT_3D ( 'NONE', #323, #290, #189 ) ;
#106 = SURFACE_STYLE_FILL_AREA ( #343 ) ;
#107 = ORIENTED_EDGE ( 'NONE', *, *, #310, .F. ) ;
#108 = CARTESIAN_POINT ( 'NONE',  ( 0.0000000000000000000, 0.0000000000000000000, 1.984999999999999654 ) ) ;
#109 = CYLINDRICAL_SURFACE ( 'NONE', #30, 0.09375000000000001388 ) ;
#110 = DIRECTION ( 'NONE',  ( 1.000000000000000000, 0.0000000000000000000, -0.0000000000000000000 ) ) ;
#111 = EDGE_LOOP ( 'NONE', ( #275, #37 ) ) ;
#112 = DIRECTION ( 'NONE',  ( 0.0000000000000000000, 0.0000000000000000000, -1.000000000000000000 ) ) ;
#113 = FACE_OUTER_BOUND ( 'NONE', #331, .T. ) ;
#114 = DIRECTION ( 'NONE',  ( -0.0000000000000000000, -0.0000000000000000000, -1.000000000000000000 ) ) ;
#115 = FACE_OUTER_BOUND ( 'NONE', #48, .T. ) ;
#116 = PLANE ( 'NONE',  #329 ) ;
#117 = CARTESIAN_POINT ( 'NONE',  ( 3.673940397442059960E-18, 0.0000000000000000000, 0.03000000000000000583 ) ) ;
#118 =( GEOMETRIC_REPRESENTATION_CONTEXT ( 3 ) GLOBAL_UNCERTAINTY_ASSIGNED_CONTEXT ( ( #21 ) ) GLOBAL_UNIT_ASSIGNED_CONTEXT ( ( #252, #165, #206 ) ) REPRESENTATION_CONTEXT ( 'NONE', 'WORKASPACE' ) );
#119 = ORIENTED_EDGE ( 'NONE', *, *, #340, .F. ) ;
#120 = DIMENSIONAL_EXPONENTS ( 1.000000000000000000, 0.0000000000000000000, 0.0000000000000000000, 0.0000000000000000000, 0.0000000000000000000, 0.0000000000000000000, 0.0000000000000000000 ) ;
#121 = ADVANCED_FACE ( 'NONE', ( #85 ), #140, .T. ) ;
#122 = ORIENTED_EDGE ( 'NONE', *, *, #46, .F. ) ;
#123 = AXIS2_PLACEMENT_3D ( 'NONE', #169, #40, #44 ) ;
#124 = FACE_OUTER_BOUND ( 'NONE', #287, .T. ) ;
#125 = ADVANCED_FACE ( 'NONE', ( #239 ), #116, .T. ) ;
#126 = CARTESIAN_POINT ( 'NONE',  ( 7.654042494670957853E-17, 0.0000000000000000000, 0.6250000000000000000 ) ) ;
#127 = CARTESIAN_POINT ( 'NONE',  ( 0.09365624999999999645, 1.146958267826442798E-17, 0.03000000000000000583 ) ) ;
#128 = PRODUCT_CONTEXT ( 'NONE', #88, 'mechanical' ) ;
#129 = MECHANICAL_DESIGN_GEOMETRIC_PRESENTATION_REPRESENTATION (  '', ( #95 ), #150 ) ;
#130 =( NAMED_UNIT ( * ) SI_UNIT ( $, .STERADIAN. ) SOLID_ANGLE_UNIT ( ) );
#131 = ORIENTED_EDGE ( 'NONE', *, *, #4, .F. ) ;
#132 = CARTESIAN_POINT ( 'NONE',  ( 3.673940397442059190E-18, 0.0000000000000000000, 0.02999999999999999889 ) ) ;
#133 = ORIENTED_EDGE ( 'NONE', *, *, #38, .F. ) ;
#134 =( LENGTH_UNIT ( ) NAMED_UNIT ( * ) SI_UNIT ( $, .METRE. ) );
#135 = CIRCLE ( 'NONE', #223, 0.02999999999999999889 ) ;
#136 = CARTESIAN_POINT ( 'NONE',  ( 0.09365624999999999645, 1.146958267826442798E-17, -1.146958267826442798E-17 ) ) ;
#137 = PRODUCT_DEFINITION_CONTEXT ( 'detailed design', #93, 'design' ) ;
#138 = DIRECTION ( 'NONE',  ( 1.000000000000000000, 0.0000000000000000000, 0.0000000000000000000 ) ) ;
#139 = DIRECTION ( 'NONE',  ( 1.000000000000000000, 0.0000000000000000000, 0.0000000000000000000 ) ) ;
#140 = TOROIDAL_SURFACE ( 'NONE', #236, 0.06365624999999998368, 0.02999999999999999889 ) ;
#141 = DIRECTION ( 'NONE',  ( 0.0000000000000000000, 0.0000000000000000000, -1.000000000000000000 ) ) ;
#142 = CARTESIAN_POINT ( 'NONE',  ( -0.09375000000000001388, 0.0000000000000000000, 1.984999999999999654 ) ) ;
#143 = CARTESIAN_POINT ( 'NONE',  ( 0.0000000000000000000, 0.0000000000000000000, 2.000000000000000000 ) ) ;
#144 = DIRECTION ( 'NONE',  ( 1.224646799147353207E-16, 0.0000000000000000000, 1.000000000000000000 ) ) ;
#145 = CONICAL_SURFACE ( 'NONE', #183, 0.07874999999999980627, 0.7853981633974466137 ) ;
#146 = CARTESIAN_POINT ( 'NONE',  ( 0.0000000000000000000, 0.0000000000000000000, 2.000000000000000000 ) ) ;
#147 = ADVANCED_FACE ( 'NONE', ( #320 ), #109, .T. ) ;
#148 = CARTESIAN_POINT ( 'NONE',  ( 0.09375000000000001388, 1.148106374200643863E-17, 2.000000000000000000 ) ) ;
#149 = EDGE_LOOP ( 'NONE', ( #221, #208, #255, #338 ) ) ;
#150 =( GEOMETRIC_REPRESENTATION_CONTEXT ( 3 ) GLOBAL_UNCERTAINTY_ASSIGNED_CONTEXT ( ( #166 ) ) GLOBAL_UNIT_ASSIGNED_CONTEXT ( ( #75, #71, #130 ) ) REPRESENTATION_CONTEXT ( 'NONE', 'WORKASPACE' ) );
#151 =( LENGTH_UNIT ( ) NAMED_UNIT ( * ) SI_UNIT ( $, .METRE. ) );
#152 = EDGE_LOOP ( 'NONE', ( #175, #51, #179, #336 ) ) ;
#153 = CARTESIAN_POINT ( 'NONE',  ( -0.06365624999999998368, 7.795642280822368790E-18, 0.02999999999999999889 ) ) ;
#154 = EDGE_CURVE ( 'NONE', #96, #303, #135, .T. ) ;
#155 = VERTEX_POINT ( 'NONE', #193 ) ;
#156 =( NAMED_UNIT ( * ) SI_UNIT ( $, .STERADIAN. ) SOLID_ANGLE_UNIT ( ) );
#157 =( GEOMETRIC_REPRESENTATION_CONTEXT ( 3 ) GLOBAL_UNCERTAINTY_ASSIGNED_CONTEXT ( ( #315 ) ) GLOBAL_UNIT_ASSIGNED_CONTEXT ( ( #17, #80, #156 ) ) REPRESENTATION_CONTEXT ( 'NONE', 'WORKASPACE' ) );
#158 = VERTEX_POINT ( 'NONE', #215 ) ;
#159 = EDGE_CURVE ( 'NONE', #15, #251, #82, .T. ) ;
#160 = CARTESIAN_POINT ( 'NONE',  ( 0.0000000000000000000, 0.0000000000000000000, 2.000000000000000000 ) ) ;
#161 = SURFACE_SIDE_STYLE ('',( #238 ) ) ;
#162 = AXIS2_PLACEMENT_3D ( 'NONE', #291, #244, #59 ) ;
#163 = CARTESIAN_POINT ( 'NONE',  ( 7.660553729477949085E-17, 0.0000000000000000000, 0.6255316826705892286 ) ) ;
#164 = DIRECTION ( 'NONE',  ( -1.000000000000000000, 0.0000000000000000000, 0.0000000000000000000 ) ) ;
#165 =( NAMED_UNIT ( * ) PLANE_ANGLE_UNIT ( ) SI_UNIT ( $, .RADIAN. ) );
#166 = UNCERTAINTY_MEASURE_WITH_UNIT (LENGTH_MEASURE( 1.000000000000000082E-05 ), #75, 'distance_accuracy_value', 'NONE');
#167 = DIRECTION ( 'NONE',  ( 0.0000000000000000000, 0.0000000000000000000, -1.000000000000000000 ) ) ;
#168 = ADVANCED_FACE ( 'NONE', ( #87 ), #276, .T. ) ;
#169 = CARTESIAN_POINT ( 'NONE',  ( 3.673940397442059190E-18, 0.0000000000000000000, 0.0000000000000000000 ) ) ;
#170 = ORIENTED_EDGE ( 'NONE', *, *, #335, .F. ) ;
#171 = CIRCLE ( 'NONE', #105, 0.06365624999999998368 ) ;
#172 = DIRECTION ( 'NONE',  ( 1.000000000000000000, 0.0000000000000000000, 0.0000000000000000000 ) ) ;
#173 = ORIENTED_EDGE ( 'NONE', *, *, #182, .T. ) ;
#174 = EDGE_LOOP ( 'NONE', ( #119, #170, #202, #107 ) ) ;
#175 = ORIENTED_EDGE ( 'NONE', *, *, #186, .F. ) ;
#176 = EDGE_CURVE ( 'NONE', #18, #226, #76, .T. ) ;
#177 = CIRCLE ( 'NONE', #185, 0.09365624999999999645 ) ;
#178 = ORIENTED_EDGE ( 'NONE', *, *, #46, .T. ) ;
#179 = ORIENTED_EDGE ( 'NONE', *, *, #11, .T. ) ;
#180 = CARTESIAN_POINT ( 'NONE',  ( -0.09374999999999994449, 0.0000000000000000000, 0.6255316826705892286 ) ) ;
#181 = CARTESIAN_POINT ( 'NONE',  ( 0.09375000000000001388, 1.148106374200643863E-17, 1.984999999999999654 ) ) ;
#182 = EDGE_CURVE ( 'NONE', #251, #15, #6, .T. ) ;
#183 = AXIS2_PLACEMENT_3D ( 'NONE', #297, #167, #316 ) ;
#184 = PRODUCT_DEFINITION_FORMATION_WITH_SPECIFIED_SOURCE ( 'ANY', '', #13, .NOT_KNOWN. ) ;
#185 = AXIS2_PLACEMENT_3D ( 'NONE', #197, #97, #282 ) ;
#186 = EDGE_CURVE ( 'NONE', #155, #303, #54, .T. ) ;
#187 = ORIENTED_EDGE ( 'NONE', *, *, #27, .T. ) ;
#188 = PRESENTATION_STYLE_ASSIGNMENT (( #240 ) ) ;
#189 = DIRECTION ( 'NONE',  ( 1.000000000000000000, 0.0000000000000000000, 0.0000000000000000000 ) ) ;
#190 = FILL_AREA_STYLE ('',( #72 ) ) ;
#191 = DIRECTION ( 'NONE',  ( 0.0000000000000000000, 0.0000000000000000000, 1.000000000000000000 ) ) ;
#192 = CARTESIAN_POINT ( 'NONE',  ( 7.654042494670957853E-17, 0.0000000000000000000, 0.6250000000000000000 ) ) ;
#193 = CARTESIAN_POINT ( 'NONE',  ( 0.09365625000000006584, 0.0000000000000000000, 0.6250000000000000000 ) ) ;
#194 = FACE_OUTER_BOUND ( 'NONE', #111, .T. ) ;
#195 = MANIFOLD_SOLID_BREP ( 'Fillet1', #241 ) ;
#196 = ADVANCED_FACE ( 'NONE', ( #115 ), #243, .T. ) ;
#197 = CARTESIAN_POINT ( 'NONE',  ( 3.673940397442059960E-18, 0.0000000000000000000, 0.03000000000000000583 ) ) ;
#198 = CARTESIAN_POINT ( 'NONE',  ( 0.0000000000000000000, 0.0000000000000000000, 0.0000000000000000000 ) ) ;
#199 = EDGE_CURVE ( 'NONE', #231, #18, #7, .T. ) ;
#200 = EDGE_CURVE ( 'NONE', #303, #327, #41, .T. ) ;
#201 = DIRECTION ( 'NONE',  ( 0.0000000000000000000, 0.0000000000000000000, 1.000000000000000000 ) ) ;
#202 = ORIENTED_EDGE ( 'NONE', *, *, #154, .T. ) ;
#203 = DIRECTION ( 'NONE',  ( -1.000000000000000000, 0.0000000000000000000, 1.224646799147352961E-16 ) ) ;
#204 = EDGE_CURVE ( 'NONE', #281, #251, #32, .T. ) ;
#205 = DIRECTION ( 'NONE',  ( -1.224646799147353207E-16, -0.0000000000000000000, -1.000000000000000000 ) ) ;
#206 =( NAMED_UNIT ( * ) SI_UNIT ( $, .STERADIAN. ) SOLID_ANGLE_UNIT ( ) );
#207 = ORIENTED_EDGE ( 'NONE', *, *, #204, .T. ) ;
#208 = ORIENTED_EDGE ( 'NONE', *, *, #199, .T. ) ;
#209 = ORIENTED_EDGE ( 'NONE', *, *, #154, .F. ) ;
#210 = ORIENTED_EDGE ( 'NONE', *, *, #341, .F. ) ;
#211 = VECTOR ( 'NONE', #298, 39.37007874015748143 ) ;
#212 = FACE_OUTER_BOUND ( 'NONE', #149, .T. ) ;
#213 = SHAPE_DEFINITION_REPRESENTATION ( #309, #235 ) ;
#214 = LINE ( 'NONE', #317, #229 ) ;
#215 = CARTESIAN_POINT ( 'NONE',  ( -0.06365624999999998368, 9.632612479543399156E-18, 0.0000000000000000000 ) ) ;
#216 = PLANE ( 'NONE',  #259 ) ;
#217 = CYLINDRICAL_SURFACE ( 'NONE', #90, 0.09365624999999999645 ) ;
#218 = DIMENSIONAL_EXPONENTS ( 1.000000000000000000, 0.0000000000000000000, 0.0000000000000000000, 0.0000000000000000000, 0.0000000000000000000, 0.0000000000000000000, 0.0000000000000000000 ) ;
#219 = AXIS2_PLACEMENT_3D ( 'NONE', #132, #191, #139 ) ;
#220 = DIRECTION ( 'NONE',  ( -1.224646799147353207E-16, -0.0000000000000000000, -1.000000000000000000 ) ) ;
#221 = ORIENTED_EDGE ( 'NONE', *, *, #102, .F. ) ;
#222 = ORIENTED_EDGE ( 'NONE', *, *, #11, .F. ) ;
#223 = AXIS2_PLACEMENT_3D ( 'NONE', #29, #267, #83 ) ;
#224 = MECHANICAL_DESIGN_GEOMETRIC_PRESENTATION_REPRESENTATION (  '', ( #63 ), #118 ) ;
#225 = ORIENTED_EDGE ( 'NONE', *, *, #304, .T. ) ;
#226 = VERTEX_POINT ( 'NONE', #142 ) ;
#227 = DIRECTION ( 'NONE',  ( -1.000000000000000000, 0.0000000000000000000, 0.0000000000000000000 ) ) ;
#228 = DIRECTION ( 'NONE',  ( 1.224646799147353207E-16, 1.000000000000000000, -0.0000000000000000000 ) ) ;
#229 = VECTOR ( 'NONE', #246, 39.37007874015748143 ) ;
#230 = CARTESIAN_POINT ( 'NONE',  ( -0.09365624999999999645, 0.0000000000000000000, 1.146958267826442798E-17 ) ) ;
#231 = VERTEX_POINT ( 'NONE', #10 ) ;
#232 = APPLICATION_PROTOCOL_DEFINITION ( 'draft international standard', 'automotive_design', 1998, #93 ) ;
#233 = ORIENTED_EDGE ( 'NONE', *, *, #200, .F. ) ;
#234 = DIRECTION ( 'NONE',  ( 0.0000000000000000000, 0.0000000000000000000, 1.000000000000000000 ) ) ;
#235 = ADVANCED_BREP_SHAPE_REPRESENTATION ( 'Micro_GEC-187-3-030', ( #195, #319 ), #157 ) ;
#236 = AXIS2_PLACEMENT_3D ( 'NONE', #347, #302, #172 ) ;
#237 = AXIS2_PLACEMENT_3D ( 'NONE', #279, #220, #305 ) ;
#238 = SURFACE_STYLE_FILL_AREA ( #190 ) ;
#239 = FACE_OUTER_BOUND ( 'NONE', #99, .T. ) ;
#240 = SURFACE_STYLE_USAGE ( .BOTH. , #161 ) ;
#241 = CLOSED_SHELL ( 'NONE', ( #168, #301, #196, #56, #147, #70, #125, #45, #52, #258, #77, #121 ) ) ;
#242 = CIRCLE ( 'NONE', #283, 0.07874999999999980627 ) ;
#243 = CONICAL_SURFACE ( 'NONE', #69, 0.09365624999999999645, 0.1745329251994338360 ) ;
#244 = DIRECTION ( 'NONE',  ( -1.224646799147353207E-16, -0.0000000000000000000, -1.000000000000000000 ) ) ;
#245 = DIRECTION ( 'NONE',  ( -1.000000000000000000, 0.0000000000000000000, 0.0000000000000000000 ) ) ;
#246 = DIRECTION ( 'NONE',  ( -0.7071067811865463515, 0.0000000000000000000, -0.7071067811865486830 ) ) ;
#247 = DIRECTION ( 'NONE',  ( -0.1736481776669311639, 2.126576849575782392E-17, 0.9848077530122080203 ) ) ;
#248 = ORIENTED_EDGE ( 'NONE', *, *, #200, .T. ) ;
#249 = VECTOR ( 'NONE', #205, 39.37007874015748143 ) ;
#250 = CIRCLE ( 'NONE', #50, 0.03000000000000000583 ) ;
#251 = VERTEX_POINT ( 'NONE', #180 ) ;
#252 =( CONVERSION_BASED_UNIT ( 'INCH', #254 ) LENGTH_UNIT ( ) NAMED_UNIT ( #120 ) );
#253 = VECTOR ( 'NONE', #274, 39.37007874015748143 ) ;
#254 = LENGTH_MEASURE_WITH_UNIT ( LENGTH_MEASURE( 0.02539999999999999897 ), #151 );
#255 = ORIENTED_EDGE ( 'NONE', *, *, #73, .F. ) ;
#256 = DIRECTION ( 'NONE',  ( 1.000000000000000000, 0.0000000000000000000, 0.0000000000000000000 ) ) ;
#257 = EDGE_LOOP ( 'NONE', ( #210, #285, #225, #64 ) ) ;
#258 = ADVANCED_FACE ( 'NONE', ( #332 ), #217, .T. ) ;
#259 = AXIS2_PLACEMENT_3D ( 'NONE', #81, #26, #110 ) ;
#260 = PRESENTATION_LAYER_ASSIGNMENT (  '', '', ( #63 ) ) ;
#261 = ORIENTED_EDGE ( 'NONE', *, *, #277, .F. ) ;
#262 = DIRECTION ( 'NONE',  ( -1.224646799147353207E-16, -0.0000000000000000000, -1.000000000000000000 ) ) ;
#263 = PRODUCT_RELATED_PRODUCT_CATEGORY ( 'part', '', ( #13 ) ) ;
#264 = CARTESIAN_POINT ( 'NONE',  ( 0.09365625000000006584, 0.0000000000000000000, 0.6250000000000000000 ) ) ;
#265 = AXIS2_PLACEMENT_3D ( 'NONE', #143, #292, #164 ) ;
#266 = VECTOR ( 'NONE', #100, 39.37007874015748143 ) ;
#267 = DIRECTION ( 'NONE',  ( 0.0000000000000000000, -1.000000000000000000, 0.0000000000000000000 ) ) ;
#268 = LINE ( 'NONE', #264, #211 ) ;
#269 = DIMENSIONAL_EXPONENTS ( 1.000000000000000000, 0.0000000000000000000, 0.0000000000000000000, 0.0000000000000000000, 0.0000000000000000000, 0.0000000000000000000, 0.0000000000000000000 ) ;
#270 = DIRECTION ( 'NONE',  ( 1.000000000000000000, 0.0000000000000000000, 0.0000000000000000000 ) ) ;
#271 = AXIS2_PLACEMENT_3D ( 'NONE', #314, #112, #270 ) ;
#272 = CIRCLE ( 'NONE', #237, 0.09365624999999999645 ) ;
#273 = CARTESIAN_POINT ( 'NONE',  ( 0.0000000000000000000, 0.0000000000000000000, 2.000000000000000000 ) ) ;
#274 = DIRECTION ( 'NONE',  ( -0.0000000000000000000, -0.0000000000000000000, -1.000000000000000000 ) ) ;
#275 = ORIENTED_EDGE ( 'NONE', *, *, #335, .T. ) ;
#276 = TOROIDAL_SURFACE ( 'NONE', #219, 0.06365624999999998368, 0.02999999999999999889 ) ;
#277 = EDGE_CURVE ( 'NONE', #155, #281, #272, .T. ) ;
#278 = EDGE_LOOP ( 'NONE', ( #39, #92, #345, #43 ) ) ;
#279 = CARTESIAN_POINT ( 'NONE',  ( 7.654042494670957853E-17, 0.0000000000000000000, 0.6250000000000000000 ) ) ;
#280 = PRESENTATION_LAYER_ASSIGNMENT (  '', '', ( #95 ) ) ;
#281 = VERTEX_POINT ( 'NONE', #89 ) ;
#282 = DIRECTION ( 'NONE',  ( 1.000000000000000000, 0.0000000000000000000, 0.0000000000000000000 ) ) ;
#283 = AXIS2_PLACEMENT_3D ( 'NONE', #160, #321, #57 ) ;
#284 = COLOUR_RGB ( '',0.7921568627450980005, 0.8196078431372548767, 0.9333333333333333481 ) ;
#285 = ORIENTED_EDGE ( 'NONE', *, *, #176, .T. ) ;
#286 = APPLICATION_PROTOCOL_DEFINITION ( 'draft international standard', 'automotive_design', 1998, #88 ) ;
#287 = EDGE_LOOP ( 'NONE', ( #98, #9, #248, #222 ) ) ;
#288 =( LENGTH_UNIT ( ) NAMED_UNIT ( * ) SI_UNIT ( $, .METRE. ) );
#289 = PRESENTATION_STYLE_ASSIGNMENT (( #79 ) ) ;
#290 = DIRECTION ( 'NONE',  ( -0.0000000000000000000, -0.0000000000000000000, -1.000000000000000000 ) ) ;
#291 = CARTESIAN_POINT ( 'NONE',  ( 7.660553729477949085E-17, 0.0000000000000000000, 0.6255316826705892286 ) ) ;
#292 = DIRECTION ( 'NONE',  ( -0.0000000000000000000, -0.0000000000000000000, -1.000000000000000000 ) ) ;
#293 = CIRCLE ( 'NONE', #342, 0.07874999999999980627 ) ;
#294 = COLOUR_RGB ( '',0.7921568627450980005, 0.8196078431372548767, 0.9333333333333333481 ) ;
#295 = DIRECTION ( 'NONE',  ( 1.000000000000000000, 0.0000000000000000000, -0.0000000000000000000 ) ) ;
#296 = DIRECTION ( 'NONE',  ( -1.224646799147353207E-16, -0.0000000000000000000, -1.000000000000000000 ) ) ;
#297 = CARTESIAN_POINT ( 'NONE',  ( 0.0000000000000000000, 0.0000000000000000000, 2.000000000000000000 ) ) ;
#298 = DIRECTION ( 'NONE',  ( 0.1736481776669313304, 0.0000000000000000000, 0.9848077530122077983 ) ) ;
#299 = DIRECTION ( 'NONE',  ( -1.000000000000000000, 1.224646799147352961E-16, 0.0000000000000000000 ) ) ;
#300 = DIRECTION ( 'NONE',  ( -1.224646799147353207E-16, -0.0000000000000000000, -1.000000000000000000 ) ) ;
#301 = ADVANCED_FACE ( 'NONE', ( #124 ), #68, .T. ) ;
#302 = DIRECTION ( 'NONE',  ( 0.0000000000000000000, 0.0000000000000000000, 1.000000000000000000 ) ) ;
#303 = VERTEX_POINT ( 'NONE', #127 ) ;
#304 = EDGE_CURVE ( 'NONE', #226, #251, #325, .T. ) ;
#305 = DIRECTION ( 'NONE',  ( -1.000000000000000000, 0.0000000000000000000, 0.0000000000000000000 ) ) ;
#306 = VECTOR ( 'NONE', #351, 39.37007874015748143 ) ;
#307 = CARTESIAN_POINT ( 'NONE',  ( 0.09375000000000006939, 1.148106374200644633E-17, 0.6255316826705892286 ) ) ;
#308 = CARTESIAN_POINT ( 'NONE',  ( 0.0000000000000000000, 0.0000000000000000000, 0.0000000000000000000 ) ) ;
#309 = PRODUCT_DEFINITION_SHAPE ( 'NONE', 'NONE',  #35 ) ;
#310 = EDGE_CURVE ( 'NONE', #327, #303, #177, .T. ) ;
#311 = CONICAL_SURFACE ( 'NONE', #67, 0.07874999999999980627, 0.7853981633974466137 ) ;
#312 = EDGE_LOOP ( 'NONE', ( #5, #328, #74, #2 ) ) ;
#313 = SURFACE_SIDE_STYLE ('',( #106 ) ) ;
#314 = CARTESIAN_POINT ( 'NONE',  ( 0.0000000000000000000, 0.0000000000000000000, 1.984999999999999654 ) ) ;
#315 = UNCERTAINTY_MEASURE_WITH_UNIT (LENGTH_MEASURE( 1.000000000000000082E-05 ), #17, 'distance_accuracy_value', 'NONE');
#316 = DIRECTION ( 'NONE',  ( -1.000000000000000000, 0.0000000000000000000, 0.0000000000000000000 ) ) ;
#317 = CARTESIAN_POINT ( 'NONE',  ( -0.07874999999999980627, 0.0000000000000000000, 2.000000000000000000 ) ) ;
#318 = AXIS2_PLACEMENT_3D ( 'NONE', #126, #12, #227 ) ;
#319 = AXIS2_PLACEMENT_3D ( 'NONE', #24, #234, #339 ) ;
#320 = FACE_OUTER_BOUND ( 'NONE', #278, .T. ) ;
#321 = DIRECTION ( 'NONE',  ( 0.0000000000000000000, 0.0000000000000000000, 1.000000000000000000 ) ) ;
#322 = DIRECTION ( 'NONE',  ( 0.0000000000000000000, 0.0000000000000000000, 1.000000000000000000 ) ) ;
#323 = CARTESIAN_POINT ( 'NONE',  ( 3.673940397442059190E-18, 0.0000000000000000000, 0.0000000000000000000 ) ) ;
#324 = AXIS2_PLACEMENT_3D ( 'NONE', #308, #300, #8 ) ;
#325 = LINE ( 'NONE', #330, #253 ) ;
#326 = ORIENTED_EDGE ( 'NONE', *, *, #159, .T. ) ;
#327 = VERTEX_POINT ( 'NONE', #61 ) ;
#328 = ORIENTED_EDGE ( 'NONE', *, *, #27, .F. ) ;
#329 = AXIS2_PLACEMENT_3D ( 'NONE', #146, #322, #295 ) ;
#330 = CARTESIAN_POINT ( 'NONE',  ( -0.09375000000000001388, 0.0000000000000000000, 2.000000000000000000 ) ) ;
#331 = EDGE_LOOP ( 'NONE', ( #47, #261, #178, #326 ) ) ;
#332 = FACE_OUTER_BOUND ( 'NONE', #152, .T. ) ;
#333 = LINE ( 'NONE', #230, #249 ) ;
#334 = LINE ( 'NONE', #148, #266 ) ;
#335 = EDGE_CURVE ( 'NONE', #96, #158, #22, .T. ) ;
#336 = ORIENTED_EDGE ( 'NONE', *, *, #310, .T. ) ;
#337 = LENGTH_MEASURE_WITH_UNIT ( LENGTH_MEASURE( 0.02539999999999999897 ), #288 );
#338 = ORIENTED_EDGE ( 'NONE', *, *, #86, .F. ) ;
#339 = DIRECTION ( 'NONE',  ( 1.000000000000000000, 0.0000000000000000000, 0.0000000000000000000 ) ) ;
#340 = EDGE_CURVE ( 'NONE', #158, #327, #250, .T. ) ;
#341 = EDGE_CURVE ( 'NONE', #18, #15, #334, .T. ) ;
#342 = AXIS2_PLACEMENT_3D ( 'NONE', #101, #60, #350 ) ;
#343 = FILL_AREA_STYLE ('',( #16 ) ) ;
#344 = AXIS2_PLACEMENT_3D ( 'NONE', #117, #201, #256 ) ;
#345 = ORIENTED_EDGE ( 'NONE', *, *, #182, .F. ) ;
#346 = DIRECTION ( 'NONE',  ( 1.000000000000000000, 0.0000000000000000000, 0.0000000000000000000 ) ) ;
#347 = CARTESIAN_POINT ( 'NONE',  ( 3.673940397442059190E-18, 0.0000000000000000000, 0.02999999999999999889 ) ) ;
#348 = DIRECTION ( 'NONE',  ( 1.224646799147353207E-16, 0.0000000000000000000, 1.000000000000000000 ) ) ;
#349 = CARTESIAN_POINT ( 'NONE',  ( 0.0000000000000000000, 0.0000000000000000000, 2.000000000000000000 ) ) ;
#350 = DIRECTION ( 'NONE',  ( 1.000000000000000000, 0.0000000000000000000, 0.0000000000000000000 ) ) ;
#351 = DIRECTION ( 'NONE',  ( 0.7071067811865463515, 8.659560562354916834E-17, -0.7071067811865486830 ) ) ;
ENDSEC;
END-ISO-10303-21;
