ISO-10303-21;
HEADER;
FILE_DESCRIPTION (( 'STEP AP214' ),
    '1' );
FILE_NAME ('82850.STEP',
    '2023-06-23T06:48:36',
    ( '' ),
    ( '' ),
    'SwSTEP 2.0',
    'SolidWorks 2023',
    '' );
FILE_SCHEMA (( 'AUTOMOTIVE_DESIGN' ));
ENDSEC;

DATA;
#1 = EDGE_CURVE ( 'NONE', #235, #31, #224, .T. ) ;
#2 = CIRCLE ( 'NONE', #34, 0.06249999999999959061 ) ;
#3 = PLANE ( 'NONE',  #147 ) ;
#4 = VERTEX_POINT ( 'NONE', #276 ) ;
#5 = ORIENTED_EDGE ( 'NONE', *, *, #173, .T. ) ;
#6 = STYLED_ITEM ( 'NONE', ( #43 ), #76 ) ;
#7 = VERTEX_POINT ( 'NONE', #105 ) ;
#8 = CARTESIAN_POINT ( 'NONE',  ( 7.654042494670959086E-18, 0.000000000000000000, 0.06250000000000001388 ) ) ;
#9 = FILL_AREA_STYLE_COLOUR ( '', #48 ) ;
#10 = UNCERTAINTY_MEASURE_WITH_UNIT (LENGTH_MEASURE( 1.000000000000000082E-05 ), #198, 'distance_accuracy_value', 'NONE');
#11 = AXIS2_PLACEMENT_3D ( 'NONE', #208, #284, #91 ) ;
#12 = EDGE_CURVE ( 'NONE', #4, #7, #196, .T. ) ;
#13 =( NAMED_UNIT ( * ) PLANE_ANGLE_UNIT ( ) SI_UNIT ( $, .RADIAN. ) );
#14 = MANIFOLD_SOLID_BREP ( 'Revolve - Tool Body (Straight Shanked)', #79 ) ;
#15 = DIRECTION ( 'NONE',  ( 2.637700798163530629E-16, 1.000000000000000000, -0.000000000000000000 ) ) ;
#16 =( NAMED_UNIT ( * ) SI_UNIT ( $, .STERADIAN. ) SOLID_ANGLE_UNIT ( ) );
#17 = APPLICATION_PROTOCOL_DEFINITION ( 'draft international standard', 'automotive_design', 1998, #162 ) ;
#18 = VECTOR ( 'NONE', #167, 39.37007874015748143 ) ;
#19 = STYLED_ITEM ( 'NONE', ( #46 ), #101 ) ;
#20 = DIRECTION ( 'NONE',  ( 2.637700798163530629E-16, 1.000000000000000000, -0.000000000000000000 ) ) ;
#21 = APPLICATION_PROTOCOL_DEFINITION ( 'draft international standard', 'automotive_design', 1998, #243 ) ;
#22 = DIRECTION ( 'NONE',  ( 2.637700798163530629E-16, 1.000000000000000000, -0.000000000000000000 ) ) ;
#23 = CARTESIAN_POINT ( 'NONE',  ( 0.000000000000000000, 0.000000000000000000, 0.000000000000000000 ) ) ;
#24 =( CONVERSION_BASED_UNIT ( 'INCH', #190 ) LENGTH_UNIT ( ) NAMED_UNIT ( #230 ) );
#25 = CIRCLE ( 'NONE', #89, 0.06250000000000001388 ) ;
#26 = DIRECTION ( 'NONE',  ( -1.000000000000000000, 0.000000000000000000, 0.000000000000000000 ) ) ;
#27 = ORIENTED_EDGE ( 'NONE', *, *, #225, .F. ) ;
#28 = AXIS2_PLACEMENT_3D ( 'NONE', #249, #15, #184 ) ;
#29 = EDGE_CURVE ( 'NONE', #4, #268, #38, .T. ) ;
#30 = ORIENTED_EDGE ( 'NONE', *, *, #225, .T. ) ;
#31 = VERTEX_POINT ( 'NONE', #35 ) ;
#32 = VERTEX_POINT ( 'NONE', #204 ) ;
#33 = PRESENTATION_LAYER_ASSIGNMENT (  '', '', ( #188 ) ) ;
#34 = AXIS2_PLACEMENT_3D ( 'NONE', #287, #155, #26 ) ;
#35 = CARTESIAN_POINT ( 'NONE',  ( 7.654042494670959086E-18, 0.000000000000000000, 0.06250000000000001388 ) ) ;
#36 = COLOUR_RGB ( '',1.000000000000000000, 0.000000000000000000, 0.000000000000000000 ) ;
#37 = LENGTH_MEASURE_WITH_UNIT ( LENGTH_MEASURE( 0.02539999999999999897 ), #292 );
#38 = LINE ( 'NONE', #78, #18 ) ;
#39 = DIRECTION ( 'NONE',  ( -2.637700798163530629E-16, -1.000000000000000000, 0.000000000000000000 ) ) ;
#40 = CLOSED_SHELL ( 'NONE', ( #101, #50, #76, #266 ) ) ;
#41 = STYLED_ITEM ( 'NONE', ( #71 ), #266 ) ;
#42 = UNCERTAINTY_MEASURE_WITH_UNIT (LENGTH_MEASURE( 1.000000000000000082E-05 ), #280, 'distance_accuracy_value', 'NONE');
#43 = PRESENTATION_STYLE_ASSIGNMENT (( #290 ) ) ;
#44 = EDGE_LOOP ( 'NONE', ( #30, #239, #269, #193 ) ) ;
#45 = DIRECTION ( 'NONE',  ( 0.000000000000000000, 0.000000000000000000, -1.000000000000000000 ) ) ;
#46 = PRESENTATION_STYLE_ASSIGNMENT (( #156 ) ) ;
#47 = DIRECTION ( 'NONE',  ( -1.000000000000000000, 0.000000000000000000, 0.000000000000000000 ) ) ;
#48 = COLOUR_RGB ( '',0.7921568627450980005, 0.8196078431372548767, 0.9333333333333333481 ) ;
#49 = LENGTH_MEASURE_WITH_UNIT ( LENGTH_MEASURE( 0.02539999999999999897 ), #308 );
#50 = ADVANCED_FACE ( 'NONE', ( #302 ), #297, .T. ) ;
#51 = ORIENTED_EDGE ( 'NONE', *, *, #168, .T. ) ;
#52 = DIRECTION ( 'NONE',  ( -0.000000000000000000, -1.000000000000000000, -0.000000000000000000 ) ) ;
#53 = PRODUCT_DEFINITION_FORMATION_WITH_SPECIFIED_SOURCE ( 'ANY', '', #291, .NOT_KNOWN. ) ;
#54 = ORIENTED_EDGE ( 'NONE', *, *, #149, .T. ) ;
#55 = DIRECTION ( 'NONE',  ( -0.000000000000000000, -1.000000000000000000, -0.000000000000000000 ) ) ;
#56 = ORIENTED_EDGE ( 'NONE', *, *, #173, .F. ) ;
#57 =( GEOMETRIC_REPRESENTATION_CONTEXT ( 3 ) GLOBAL_UNCERTAINTY_ASSIGNED_CONTEXT ( ( #10 ) ) GLOBAL_UNIT_ASSIGNED_CONTEXT ( ( #198, #82, #60 ) ) REPRESENTATION_CONTEXT ( 'NONE', 'WORKASPACE' ) );
#58 = CIRCLE ( 'NONE', #279, 0.06250000000000001388 ) ;
#59 = LINE ( 'NONE', #205, #200 ) ;
#60 =( NAMED_UNIT ( * ) SI_UNIT ( $, .STERADIAN. ) SOLID_ANGLE_UNIT ( ) );
#61 = CARTESIAN_POINT ( 'NONE',  ( 2.174207968947665119E-33, 0.8749999999999997780, 0.000000000000000000 ) ) ;
#62 = SURFACE_STYLE_FILL_AREA ( #177 ) ;
#63 = CARTESIAN_POINT ( 'NONE',  ( -0.06249999999999916039, 2.500000000000000000, 0.000000000000000000 ) ) ;
#64 = DIRECTION ( 'NONE',  ( 2.637700798163530629E-16, 1.000000000000000000, -0.000000000000000000 ) ) ;
#65 = SURFACE_STYLE_FILL_AREA ( #72 ) ;
#66 = PRESENTATION_STYLE_ASSIGNMENT (( #107 ) ) ;
#67 = SHAPE_DEFINITION_REPRESENTATION ( #203, #253 ) ;
#68 = CYLINDRICAL_SURFACE ( 'NONE', #271, 0.06249999999999980571 ) ;
#69 =( NAMED_UNIT ( * ) SI_UNIT ( $, .STERADIAN. ) SOLID_ANGLE_UNIT ( ) );
#70 = PRODUCT_DEFINITION ( 'UNKNOWN', '', #53, #176 ) ;
#71 = PRESENTATION_STYLE_ASSIGNMENT (( #191 ) ) ;
#72 = FILL_AREA_STYLE ('',( #211 ) ) ;
#73 = EDGE_LOOP ( 'NONE', ( #164, #51 ) ) ;
#74 = EDGE_LOOP ( 'NONE', ( #295, #54, #152, #115 ) ) ;
#75 = COLOUR_RGB ( '',1.000000000000000000, 0.000000000000000000, 0.000000000000000000 ) ;
#76 = ADVANCED_FACE ( 'NONE', ( #138 ), #216, .T. ) ;
#77 = ORIENTED_EDGE ( 'NONE', *, *, #210, .F. ) ;
#78 = CARTESIAN_POINT ( 'NONE',  ( -0.06249999999999937550, 2.500000000000000000, 0.000000000000000000 ) ) ;
#79 = CLOSED_SHELL ( 'NONE', ( #175, #117, #119, #273 ) ) ;
#80 = FILL_AREA_STYLE_COLOUR ( '', #75 ) ;
#81 =( GEOMETRIC_REPRESENTATION_CONTEXT ( 3 ) GLOBAL_UNCERTAINTY_ASSIGNED_CONTEXT ( ( #112 ) ) GLOBAL_UNIT_ASSIGNED_CONTEXT ( ( #260, #262, #221 ) ) REPRESENTATION_CONTEXT ( 'NONE', 'WORKASPACE' ) );
#82 =( NAMED_UNIT ( * ) PLANE_ANGLE_UNIT ( ) SI_UNIT ( $, .RADIAN. ) );
#83 = EDGE_CURVE ( 'NONE', #181, #31, #129, .T. ) ;
#84 = CARTESIAN_POINT ( 'NONE',  ( 0.06250000000000001388, 2.500000000000000000, 0.000000000000000000 ) ) ;
#85 = CARTESIAN_POINT ( 'NONE',  ( 0.000000000000000000, 0.8749999999999997780, 0.000000000000000000 ) ) ;
#86 = FACE_OUTER_BOUND ( 'NONE', #139, .T. ) ;
#87 = DIMENSIONAL_EXPONENTS ( 1.000000000000000000, 0.000000000000000000, 0.000000000000000000, 0.000000000000000000, 0.000000000000000000, 0.000000000000000000, 0.000000000000000000 ) ;
#88 = AXIS2_PLACEMENT_3D ( 'NONE', #94, #218, #109 ) ;
#89 = AXIS2_PLACEMENT_3D ( 'NONE', #285, #174, #201 ) ;
#90 = FACE_OUTER_BOUND ( 'NONE', #163, .T. ) ;
#91 = DIRECTION ( 'NONE',  ( 1.000000000000000000, 0.000000000000000000, 0.000000000000000000 ) ) ;
#92 = UNCERTAINTY_MEASURE_WITH_UNIT (LENGTH_MEASURE( 1.000000000000000082E-05 ), #251, 'distance_accuracy_value', 'NONE');
#93 = LENGTH_MEASURE_WITH_UNIT ( LENGTH_MEASURE( 0.02539999999999999897 ), #309 );
#94 = CARTESIAN_POINT ( 'NONE',  ( 0.000000000000000000, 0.000000000000000000, 0.000000000000000000 ) ) ;
#95 =( LENGTH_UNIT ( ) NAMED_UNIT ( * ) SI_UNIT ( $, .METRE. ) );
#96 = MECHANICAL_DESIGN_GEOMETRIC_PRESENTATION_REPRESENTATION (  '', ( #256 ), #98 ) ;
#97 =( GEOMETRIC_REPRESENTATION_CONTEXT ( 3 ) GLOBAL_UNCERTAINTY_ASSIGNED_CONTEXT ( ( #42 ) ) GLOBAL_UNIT_ASSIGNED_CONTEXT ( ( #280, #255, #16 ) ) REPRESENTATION_CONTEXT ( 'NONE', 'WORKASPACE' ) );
#98 =( GEOMETRIC_REPRESENTATION_CONTEXT ( 3 ) GLOBAL_UNCERTAINTY_ASSIGNED_CONTEXT ( ( #252 ) ) GLOBAL_UNIT_ASSIGNED_CONTEXT ( ( #160, #206, #283 ) ) REPRESENTATION_CONTEXT ( 'NONE', 'WORKASPACE' ) );
#99 = EDGE_LOOP ( 'NONE', ( #27, #169 ) ) ;
#100 = ORIENTED_EDGE ( 'NONE', *, *, #29, .T. ) ;
#101 = ADVANCED_FACE ( 'NONE', ( #182 ), #186, .T. ) ;
#102 = PRESENTATION_LAYER_ASSIGNMENT (  '', '', ( #6 ) ) ;
#103 = SURFACE_SIDE_STYLE ('',( #62 ) ) ;
#104 = PRESENTATION_STYLE_ASSIGNMENT (( #226 ) ) ;
#105 = CARTESIAN_POINT ( 'NONE',  ( 0.06250000000000001388, 0.8749999999999997780, 7.654042494670946760E-18 ) ) ;
#106 = DIRECTION ( 'NONE',  ( 0.000000000000000000, -0.000000000000000000, 1.000000000000000000 ) ) ;
#107 = SURFACE_STYLE_USAGE ( .BOTH. , #197 ) ;
#108 = CYLINDRICAL_SURFACE ( 'NONE', #28, 0.06249999999999980571 ) ;
#109 = DIRECTION ( 'NONE',  ( 0.000000000000000000, 0.000000000000000000, -1.000000000000000000 ) ) ;
#110 = SURFACE_SIDE_STYLE ('',( #157 ) ) ;
#111 = MECHANICAL_DESIGN_GEOMETRIC_PRESENTATION_REPRESENTATION (  '', ( #41 ), #245 ) ;
#112 = UNCERTAINTY_MEASURE_WITH_UNIT (LENGTH_MEASURE( 1.000000000000000082E-05 ), #260, 'distance_accuracy_value', 'NONE');
#113 = CARTESIAN_POINT ( 'NONE',  ( 0.000000000000000000, 0.000000000000000000, 0.000000000000000000 ) ) ;
#114 = MANIFOLD_SOLID_BREP ( 'Revolve - Cutting Edge', #40 ) ;
#115 = ORIENTED_EDGE ( 'NONE', *, *, #168, .F. ) ;
#116 = PRESENTATION_LAYER_ASSIGNMENT (  '', '', ( #256 ) ) ;
#117 = ADVANCED_FACE ( 'NONE', ( #86 ), #3, .F. ) ;
#118 = ORIENTED_EDGE ( 'NONE', *, *, #210, .T. ) ;
#119 = ADVANCED_FACE ( 'NONE', ( #90 ), #108, .T. ) ;
#120 = COLOUR_RGB ( '',1.000000000000000000, 0.000000000000000000, 0.000000000000000000 ) ;
#121 = ORIENTED_EDGE ( 'NONE', *, *, #12, .T. ) ;
#122 = SURFACE_SIDE_STYLE ('',( #250 ) ) ;
#123 = CARTESIAN_POINT ( 'NONE',  ( 0.06250000000000001388, 2.500000000000000000, 7.654042494670946760E-18 ) ) ;
#124 = VECTOR ( 'NONE', #265, 39.37007874015748143 ) ;
#125 = DIRECTION ( 'NONE',  ( 0.000000000000000000, -1.000000000000000000, -0.000000000000000000 ) ) ;
#126 = DIRECTION ( 'NONE',  ( -0.000000000000000000, -1.000000000000000000, -0.000000000000000000 ) ) ;
#127 = UNCERTAINTY_MEASURE_WITH_UNIT (LENGTH_MEASURE( 1.000000000000000082E-05 ), #24, 'distance_accuracy_value', 'NONE');
#128 = CARTESIAN_POINT ( 'NONE',  ( 0.06250000000000023592, 2.500000000000000000, 7.654042494670934434E-18 ) ) ;
#129 = CIRCLE ( 'NONE', #88, 0.06250000000000001388 ) ;
#130 = STYLED_ITEM ( 'NONE', ( #66 ), #114 ) ;
#131 = FACE_OUTER_BOUND ( 'NONE', #133, .T. ) ;
#132 = FILL_AREA_STYLE ('',( #151 ) ) ;
#133 = EDGE_LOOP ( 'NONE', ( #121, #5, #77, #238 ) ) ;
#134 = PLANE ( 'NONE',  #153 ) ;
#135 = FILL_AREA_STYLE ('',( #9 ) ) ;
#136 = SURFACE_STYLE_FILL_AREA ( #154 ) ;
#137 = DIRECTION ( 'NONE',  ( 2.637700798163530629E-16, 1.000000000000000000, -0.000000000000000000 ) ) ;
#138 = FACE_OUTER_BOUND ( 'NONE', #74, .T. ) ;
#139 = EDGE_LOOP ( 'NONE', ( #194, #242 ) ) ;
#140 = ORIENTED_EDGE ( 'NONE', *, *, #222, .F. ) ;
#141 = CIRCLE ( 'NONE', #303, 0.06250000000000001388 ) ;
#142 = LENGTH_MEASURE_WITH_UNIT ( LENGTH_MEASURE( 0.02539999999999999897 ), #199 );
#143 = DIRECTION ( 'NONE',  ( -1.000000000000000000, 2.637700798163530629E-16, 0.000000000000000000 ) ) ;
#144 = LENGTH_MEASURE_WITH_UNIT ( LENGTH_MEASURE( 0.02539999999999999897 ), #248 );
#145 = DIMENSIONAL_EXPONENTS ( 1.000000000000000000, 0.000000000000000000, 0.000000000000000000, 0.000000000000000000, 0.000000000000000000, 0.000000000000000000, 0.000000000000000000 ) ;
#146 = COLOUR_RGB ( '',0.7921568627450980005, 0.8196078431372548767, 0.9333333333333333481 ) ;
#147 = AXIS2_PLACEMENT_3D ( 'NONE', #61, #64, #143 ) ;
#148 = SURFACE_SIDE_STYLE ('',( #65 ) ) ;
#149 = EDGE_CURVE ( 'NONE', #235, #32, #25, .T. ) ;
#150 = DIRECTION ( 'NONE',  ( 2.637700798163530629E-16, 1.000000000000000000, -0.000000000000000000 ) ) ;
#151 = FILL_AREA_STYLE_COLOUR ( '', #120 ) ;
#152 = ORIENTED_EDGE ( 'NONE', *, *, #289, .T. ) ;
#153 = AXIS2_PLACEMENT_3D ( 'NONE', #84, #39, #277 ) ;
#154 = FILL_AREA_STYLE ('',( #189 ) ) ;
#155 = DIRECTION ( 'NONE',  ( 2.637700798163530629E-16, 1.000000000000000000, -0.000000000000000000 ) ) ;
#156 = SURFACE_STYLE_USAGE ( .BOTH. , #110 ) ;
#157 = SURFACE_STYLE_FILL_AREA ( #132 ) ;
#158 = SURFACE_STYLE_FILL_AREA ( #135 ) ;
#159 = CARTESIAN_POINT ( 'NONE',  ( 0.000000000000000000, 0.8749999999999997780, 0.000000000000000000 ) ) ;
#160 =( CONVERSION_BASED_UNIT ( 'INCH', #144 ) LENGTH_UNIT ( ) NAMED_UNIT ( #87 ) );
#161 = EDGE_LOOP ( 'NONE', ( #118, #185 ) ) ;
#162 = APPLICATION_CONTEXT ( 'automotive_design' ) ;
#163 = EDGE_LOOP ( 'NONE', ( #56, #294, #100, #140 ) ) ;
#164 = ORIENTED_EDGE ( 'NONE', *, *, #83, .T. ) ;
#165 = VERTEX_POINT ( 'NONE', #123 ) ;
#166 = DIMENSIONAL_EXPONENTS ( 1.000000000000000000, 0.000000000000000000, 0.000000000000000000, 0.000000000000000000, 0.000000000000000000, 0.000000000000000000, 0.000000000000000000 ) ;
#167 = DIRECTION ( 'NONE',  ( 2.637700798163530629E-16, 1.000000000000000000, -0.000000000000000000 ) ) ;
#168 = EDGE_CURVE ( 'NONE', #31, #181, #58, .T. ) ;
#169 = ORIENTED_EDGE ( 'NONE', *, *, #149, .F. ) ;
#170 = DIMENSIONAL_EXPONENTS ( 1.000000000000000000, 0.000000000000000000, 0.000000000000000000, 0.000000000000000000, 0.000000000000000000, 0.000000000000000000, 0.000000000000000000 ) ;
#171 = AXIS2_PLACEMENT_3D ( 'NONE', #195, #55, #261 ) ;
#172 = FILL_AREA_STYLE ('',( #80 ) ) ;
#173 = EDGE_CURVE ( 'NONE', #7, #165, #282, .T. ) ;
#174 = DIRECTION ( 'NONE',  ( -0.000000000000000000, -1.000000000000000000, -0.000000000000000000 ) ) ;
#175 = ADVANCED_FACE ( 'NONE', ( #131 ), #68, .T. ) ;
#176 = PRODUCT_DEFINITION_CONTEXT ( 'detailed design', #243, 'design' ) ;
#177 = FILL_AREA_STYLE ('',( #300 ) ) ;
#178 = MECHANICAL_DESIGN_GEOMETRIC_PRESENTATION_REPRESENTATION (  '', ( #6 ), #298 ) ;
#179 = DIMENSIONAL_EXPONENTS ( 1.000000000000000000, 0.000000000000000000, 0.000000000000000000, 0.000000000000000000, 0.000000000000000000, 0.000000000000000000, 0.000000000000000000 ) ;
#180 = DIRECTION ( 'NONE',  ( 0.000000000000000000, 0.000000000000000000, -1.000000000000000000 ) ) ;
#181 = VERTEX_POINT ( 'NONE', #234 ) ;
#182 = FACE_OUTER_BOUND ( 'NONE', #44, .T. ) ;
#183 = LENGTH_MEASURE_WITH_UNIT ( LENGTH_MEASURE( 0.02539999999999999897 ), #95 );
#184 = DIRECTION ( 'NONE',  ( -1.000000000000000000, 0.000000000000000000, 0.000000000000000000 ) ) ;
#185 = ORIENTED_EDGE ( 'NONE', *, *, #222, .T. ) ;
#186 = CYLINDRICAL_SURFACE ( 'NONE', #192, 0.06250000000000001388 ) ;
#187 = CARTESIAN_POINT ( 'NONE',  ( 7.654042494670959086E-18, 0.8749999999999997780, 0.06250000000000001388 ) ) ;
#188 = STYLED_ITEM ( 'NONE', ( #104 ), #14 ) ;
#189 = FILL_AREA_STYLE_COLOUR ( '', #267 ) ;
#190 = LENGTH_MEASURE_WITH_UNIT ( LENGTH_MEASURE( 0.02539999999999999897 ), #286 );
#191 = SURFACE_STYLE_USAGE ( .BOTH. , #219 ) ;
#192 = AXIS2_PLACEMENT_3D ( 'NONE', #293, #52, #241 ) ;
#193 = ORIENTED_EDGE ( 'NONE', *, *, #289, .F. ) ;
#194 = ORIENTED_EDGE ( 'NONE', *, *, #12, .F. ) ;
#195 = CARTESIAN_POINT ( 'NONE',  ( 0.000000000000000000, 0.8749999999999997780, 0.000000000000000000 ) ) ;
#196 = CIRCLE ( 'NONE', #278, 0.06250000000000001388 ) ;
#197 = SURFACE_SIDE_STYLE ('',( #158 ) ) ;
#198 =( CONVERSION_BASED_UNIT ( 'INCH', #142 ) LENGTH_UNIT ( ) NAMED_UNIT ( #166 ) );
#199 =( LENGTH_UNIT ( ) NAMED_UNIT ( * ) SI_UNIT ( $, .METRE. ) );
#200 = VECTOR ( 'NONE', #126, 39.37007874015748143 ) ;
#201 = DIRECTION ( 'NONE',  ( 0.000000000000000000, 0.000000000000000000, -1.000000000000000000 ) ) ;
#202 = DIRECTION ( 'NONE',  ( 2.637700798163530629E-16, 1.000000000000000000, -0.000000000000000000 ) ) ;
#203 = PRODUCT_DEFINITION_SHAPE ( 'NONE', 'NONE',  #70 ) ;
#204 = CARTESIAN_POINT ( 'NONE',  ( 0.000000000000000000, 0.8749999999999997780, -0.06250000000000001388 ) ) ;
#205 = CARTESIAN_POINT ( 'NONE',  ( 0.000000000000000000, 0.000000000000000000, -0.06250000000000001388 ) ) ;
#206 =( NAMED_UNIT ( * ) PLANE_ANGLE_UNIT ( ) SI_UNIT ( $, .RADIAN. ) );
#207 = PRESENTATION_LAYER_ASSIGNMENT (  '', '', ( #19 ) ) ;
#208 = CARTESIAN_POINT ( 'NONE',  ( 0.000000000000000000, 0.000000000000000000, 0.000000000000000000 ) ) ;
#209 = CARTESIAN_POINT ( 'NONE',  ( 4.286263797015738074E-16, 2.500000000000000000, 0.000000000000000000 ) ) ;
#210 = EDGE_CURVE ( 'NONE', #268, #165, #227, .T. ) ;
#211 = FILL_AREA_STYLE_COLOUR ( '', #36 ) ;
#212 = FACE_OUTER_BOUND ( 'NONE', #161, .T. ) ;
#213 = FACE_OUTER_BOUND ( 'NONE', #73, .T. ) ;
#214 = DIRECTION ( 'NONE',  ( -1.000000000000000000, 0.000000000000000000, 0.000000000000000000 ) ) ;
#215 = CARTESIAN_POINT ( 'NONE',  ( 0.000000000000000000, 0.8749999999999997780, 0.000000000000000000 ) ) ;
#216 = CYLINDRICAL_SURFACE ( 'NONE', #263, 0.06250000000000001388 ) ;
#217 = MECHANICAL_DESIGN_GEOMETRIC_PRESENTATION_REPRESENTATION (  '', ( #188 ), #57 ) ;
#218 = DIRECTION ( 'NONE',  ( -0.000000000000000000, -1.000000000000000000, -0.000000000000000000 ) ) ;
#219 = SURFACE_SIDE_STYLE ('',( #136 ) ) ;
#220 = PRESENTATION_LAYER_ASSIGNMENT (  '', '', ( #41 ) ) ;
#221 =( NAMED_UNIT ( * ) SI_UNIT ( $, .STERADIAN. ) SOLID_ANGLE_UNIT ( ) );
#222 = EDGE_CURVE ( 'NONE', #165, #268, #2, .T. ) ;
#223 = MECHANICAL_DESIGN_GEOMETRIC_PRESENTATION_REPRESENTATION (  '', ( #130 ), #97 ) ;
#224 = LINE ( 'NONE', #8, #124 ) ;
#225 = EDGE_CURVE ( 'NONE', #32, #235, #307, .T. ) ;
#226 = SURFACE_STYLE_USAGE ( .BOTH. , #103 ) ;
#227 = CIRCLE ( 'NONE', #264, 0.06249999999999959061 ) ;
#228 = SURFACE_STYLE_USAGE ( .BOTH. , #122 ) ;
#229 = EDGE_CURVE ( 'NONE', #7, #4, #141, .T. ) ;
#230 = DIMENSIONAL_EXPONENTS ( 1.000000000000000000, 0.000000000000000000, 0.000000000000000000, 0.000000000000000000, 0.000000000000000000, 0.000000000000000000, 0.000000000000000000 ) ;
#231 = DIRECTION ( 'NONE',  ( 0.000000000000000000, 0.000000000000000000, -1.000000000000000000 ) ) ;
#232 =( CONVERSION_BASED_UNIT ( 'INCH', #37 ) LENGTH_UNIT ( ) NAMED_UNIT ( #179 ) );
#233 = UNCERTAINTY_MEASURE_WITH_UNIT (LENGTH_MEASURE( 1.000000000000000082E-05 ), #232, 'distance_accuracy_value', 'NONE');
#234 = CARTESIAN_POINT ( 'NONE',  ( 0.000000000000000000, 0.000000000000000000, -0.06250000000000001388 ) ) ;
#235 = VERTEX_POINT ( 'NONE', #187 ) ;
#236 = AXIS2_PLACEMENT_3D ( 'NONE', #215, #258, #106 ) ;
#237 = PLANE ( 'NONE',  #299 ) ;
#238 = ORIENTED_EDGE ( 'NONE', *, *, #29, .F. ) ;
#239 = ORIENTED_EDGE ( 'NONE', *, *, #1, .T. ) ;
#240 =( GEOMETRIC_REPRESENTATION_CONTEXT ( 3 ) GLOBAL_UNCERTAINTY_ASSIGNED_CONTEXT ( ( #92 ) ) GLOBAL_UNIT_ASSIGNED_CONTEXT ( ( #251, #13, #306 ) ) REPRESENTATION_CONTEXT ( 'NONE', 'WORKASPACE' ) );
#241 = DIRECTION ( 'NONE',  ( 0.000000000000000000, 0.000000000000000000, -1.000000000000000000 ) ) ;
#242 = ORIENTED_EDGE ( 'NONE', *, *, #229, .F. ) ;
#243 = APPLICATION_CONTEXT ( 'automotive_design' ) ;
#244 = PRODUCT_RELATED_PRODUCT_CATEGORY ( 'part', '', ( #291 ) ) ;
#245 =( GEOMETRIC_REPRESENTATION_CONTEXT ( 3 ) GLOBAL_UNCERTAINTY_ASSIGNED_CONTEXT ( ( #233 ) ) GLOBAL_UNIT_ASSIGNED_CONTEXT ( ( #232, #275, #254 ) ) REPRESENTATION_CONTEXT ( 'NONE', 'WORKASPACE' ) );
#246 = DIRECTION ( 'NONE',  ( -1.000000000000000000, 0.000000000000000000, 0.000000000000000000 ) ) ;
#247 = DIMENSIONAL_EXPONENTS ( 1.000000000000000000, 0.000000000000000000, 0.000000000000000000, 0.000000000000000000, 0.000000000000000000, 0.000000000000000000, 0.000000000000000000 ) ;
#248 =( LENGTH_UNIT ( ) NAMED_UNIT ( * ) SI_UNIT ( $, .METRE. ) );
#249 = CARTESIAN_POINT ( 'NONE',  ( 4.286263797015738074E-16, 2.500000000000000000, 0.000000000000000000 ) ) ;
#250 = SURFACE_STYLE_FILL_AREA ( #172 ) ;
#251 =( CONVERSION_BASED_UNIT ( 'INCH', #183 ) LENGTH_UNIT ( ) NAMED_UNIT ( #145 ) );
#252 = UNCERTAINTY_MEASURE_WITH_UNIT (LENGTH_MEASURE( 1.000000000000000082E-05 ), #160, 'distance_accuracy_value', 'NONE');
#253 = ADVANCED_BREP_SHAPE_REPRESENTATION ( '82850', ( #114, #14, #11 ), #240 ) ;
#254 =( NAMED_UNIT ( * ) SI_UNIT ( $, .STERADIAN. ) SOLID_ANGLE_UNIT ( ) );
#255 =( NAMED_UNIT ( * ) PLANE_ANGLE_UNIT ( ) SI_UNIT ( $, .RADIAN. ) );
#256 = STYLED_ITEM ( 'NONE', ( #272 ), #50 ) ;
#257 = DIRECTION ( 'NONE',  ( -1.000000000000000000, 0.000000000000000000, 0.000000000000000000 ) ) ;
#258 = DIRECTION ( 'NONE',  ( 0.000000000000000000, 1.000000000000000000, 0.000000000000000000 ) ) ;
#259 = DIRECTION ( 'NONE',  ( -0.000000000000000000, -1.000000000000000000, -0.000000000000000000 ) ) ;
#260 =( CONVERSION_BASED_UNIT ( 'INCH', #49 ) LENGTH_UNIT ( ) NAMED_UNIT ( #247 ) );
#261 = DIRECTION ( 'NONE',  ( 0.000000000000000000, 0.000000000000000000, -1.000000000000000000 ) ) ;
#262 =( NAMED_UNIT ( * ) PLANE_ANGLE_UNIT ( ) SI_UNIT ( $, .RADIAN. ) );
#263 = AXIS2_PLACEMENT_3D ( 'NONE', #113, #259, #231 ) ;
#264 = AXIS2_PLACEMENT_3D ( 'NONE', #274, #22, #214 ) ;
#265 = DIRECTION ( 'NONE',  ( -0.000000000000000000, -1.000000000000000000, -0.000000000000000000 ) ) ;
#266 = ADVANCED_FACE ( 'NONE', ( #213 ), #237, .T. ) ;
#267 = COLOUR_RGB ( '',1.000000000000000000, 0.000000000000000000, 0.000000000000000000 ) ;
#268 = VERTEX_POINT ( 'NONE', #63 ) ;
#269 = ORIENTED_EDGE ( 'NONE', *, *, #83, .F. ) ;
#270 = PRESENTATION_LAYER_ASSIGNMENT (  '', '', ( #130 ) ) ;
#271 = AXIS2_PLACEMENT_3D ( 'NONE', #209, #150, #257 ) ;
#272 = PRESENTATION_STYLE_ASSIGNMENT (( #228 ) ) ;
#273 = ADVANCED_FACE ( 'NONE', ( #212 ), #134, .F. ) ;
#274 = CARTESIAN_POINT ( 'NONE',  ( 4.286263797015738074E-16, 2.500000000000000000, 0.000000000000000000 ) ) ;
#275 =( NAMED_UNIT ( * ) PLANE_ANGLE_UNIT ( ) SI_UNIT ( $, .RADIAN. ) );
#276 = CARTESIAN_POINT ( 'NONE',  ( -0.06250000000000001388, 0.8749999999999997780, 0.000000000000000000 ) ) ;
#277 = DIRECTION ( 'NONE',  ( 1.000000000000000000, -2.637700798163530629E-16, 0.000000000000000000 ) ) ;
#278 = AXIS2_PLACEMENT_3D ( 'NONE', #85, #202, #246 ) ;
#279 = AXIS2_PLACEMENT_3D ( 'NONE', #301, #304, #180 ) ;
#280 =( CONVERSION_BASED_UNIT ( 'INCH', #93 ) LENGTH_UNIT ( ) NAMED_UNIT ( #170 ) );
#281 = PRODUCT_CONTEXT ( 'NONE', #162, 'mechanical' ) ;
#282 = LINE ( 'NONE', #128, #288 ) ;
#283 =( NAMED_UNIT ( * ) SI_UNIT ( $, .STERADIAN. ) SOLID_ANGLE_UNIT ( ) );
#284 = DIRECTION ( 'NONE',  ( 0.000000000000000000, 0.000000000000000000, 1.000000000000000000 ) ) ;
#285 = CARTESIAN_POINT ( 'NONE',  ( 0.000000000000000000, 0.8749999999999997780, 0.000000000000000000 ) ) ;
#286 =( LENGTH_UNIT ( ) NAMED_UNIT ( * ) SI_UNIT ( $, .METRE. ) );
#287 = CARTESIAN_POINT ( 'NONE',  ( 4.286263797015738074E-16, 2.500000000000000000, 0.000000000000000000 ) ) ;
#288 = VECTOR ( 'NONE', #20, 39.37007874015748143 ) ;
#289 = EDGE_CURVE ( 'NONE', #32, #181, #59, .T. ) ;
#290 = SURFACE_STYLE_USAGE ( .BOTH. , #148 ) ;
#291 = PRODUCT ( '82850', '82850', '', ( #281 ) ) ;
#292 =( LENGTH_UNIT ( ) NAMED_UNIT ( * ) SI_UNIT ( $, .METRE. ) );
#293 = CARTESIAN_POINT ( 'NONE',  ( 0.000000000000000000, 0.000000000000000000, 0.000000000000000000 ) ) ;
#294 = ORIENTED_EDGE ( 'NONE', *, *, #229, .T. ) ;
#295 = ORIENTED_EDGE ( 'NONE', *, *, #1, .F. ) ;
#296 = MECHANICAL_DESIGN_GEOMETRIC_PRESENTATION_REPRESENTATION (  '', ( #19 ), #81 ) ;
#297 = PLANE ( 'NONE',  #236 ) ;
#298 =( GEOMETRIC_REPRESENTATION_CONTEXT ( 3 ) GLOBAL_UNCERTAINTY_ASSIGNED_CONTEXT ( ( #127 ) ) GLOBAL_UNIT_ASSIGNED_CONTEXT ( ( #24, #305, #69 ) ) REPRESENTATION_CONTEXT ( 'NONE', 'WORKASPACE' ) );
#299 = AXIS2_PLACEMENT_3D ( 'NONE', #23, #125, #45 ) ;
#300 = FILL_AREA_STYLE_COLOUR ( '', #146 ) ;
#301 = CARTESIAN_POINT ( 'NONE',  ( 0.000000000000000000, 0.000000000000000000, 0.000000000000000000 ) ) ;
#302 = FACE_OUTER_BOUND ( 'NONE', #99, .T. ) ;
#303 = AXIS2_PLACEMENT_3D ( 'NONE', #159, #137, #47 ) ;
#304 = DIRECTION ( 'NONE',  ( -0.000000000000000000, -1.000000000000000000, -0.000000000000000000 ) ) ;
#305 =( NAMED_UNIT ( * ) PLANE_ANGLE_UNIT ( ) SI_UNIT ( $, .RADIAN. ) );
#306 =( NAMED_UNIT ( * ) SI_UNIT ( $, .STERADIAN. ) SOLID_ANGLE_UNIT ( ) );
#307 = CIRCLE ( 'NONE', #171, 0.06250000000000001388 ) ;
#308 =( LENGTH_UNIT ( ) NAMED_UNIT ( * ) SI_UNIT ( $, .METRE. ) );
#309 =( LENGTH_UNIT ( ) NAMED_UNIT ( * ) SI_UNIT ( $, .METRE. ) );
ENDSEC;
END-ISO-10303-21;
