ISO-10303-21;
HEADER;
FILE_DESCRIPTION (( 'STEP AP214' ),
    '1' );
FILE_NAME ('Micro_RSC-125-1.STEP',
    '2021-09-03T17:43:40',
    ( '' ),
    ( '' ),
    'SwSTEP 2.0',
    'SolidWorks 2020',
    '' );
FILE_SCHEMA (( 'AUTOMOTIVE_DESIGN' ));
ENDSEC;

DATA;
#1 = MECHANICAL_DESIGN_GEOMETRIC_PRESENTATION_REPRESENTATION (  '', ( #240 ), #175 ) ;
#2 = UNCERTAINTY_MEASURE_WITH_UNIT (LENGTH_MEASURE( 1.000000000000000082E-05 ), #136, 'distance_accuracy_value', 'NONE');
#3 = PRESENTATION_STYLE_ASSIGNMENT (( #140 ) ) ;
#4 = ORIENTED_EDGE ( 'NONE', *, *, #184, .T. ) ;
#5 = PRODUCT_DEFINITION_SHAPE ( 'NONE', 'NONE',  #217 ) ;
#6 = LENGTH_MEASURE_WITH_UNIT ( LENGTH_MEASURE( 0.02539999999999999897 ), #47 );
#7 = VERTEX_POINT ( 'NONE', #198 ) ;
#8 = PLANE ( 'NONE',  #107 ) ;
#9 = VECTOR ( 'NONE', #57, 39.37007874015748143 ) ;
#10 = STYLED_ITEM ( 'NONE', ( #3 ), #22 ) ;
#11 = CYLINDRICAL_SURFACE ( 'NONE', #64, 0.06249999999999997918 ) ;
#12 = CARTESIAN_POINT ( 'NONE',  ( 0.0000000000000000000, 0.0000000000000000000, 0.0000000000000000000 ) ) ;
#13 = ORIENTED_EDGE ( 'NONE', *, *, #118, .F. ) ;
#14 = CARTESIAN_POINT ( 'NONE',  ( 0.0000000000000000000, 0.0000000000000000000, 1.500000000000000222 ) ) ;
#15 = ORIENTED_EDGE ( 'NONE', *, *, #74, .T. ) ;
#16 = PRESENTATION_LAYER_ASSIGNMENT (  '', '', ( #240 ) ) ;
#17 = FACE_OUTER_BOUND ( 'NONE', #168, .T. ) ;
#18 = ADVANCED_FACE ( 'NONE', ( #27 ), #102, .T. ) ;
#19 = ORIENTED_EDGE ( 'NONE', *, *, #74, .F. ) ;
#20 = COLOUR_RGB ( '',0.7921568627450980005, 0.8196078431372548767, 0.9333333333333333481 ) ;
#21 = CIRCLE ( 'NONE', #89, 0.04750000000000063893 ) ;
#22 = ADVANCED_BREP_SHAPE_REPRESENTATION ( 'Micro_RSC-125-1', ( #116, #42 ), #84 ) ;
#23 = DIMENSIONAL_EXPONENTS ( 1.000000000000000000, 0.0000000000000000000, 0.0000000000000000000, 0.0000000000000000000, 0.0000000000000000000, 0.0000000000000000000, 0.0000000000000000000 ) ;
#24 = AXIS2_PLACEMENT_3D ( 'NONE', #200, #83, #212 ) ;
#25 = ORIENTED_EDGE ( 'NONE', *, *, #144, .T. ) ;
#26 = CARTESIAN_POINT ( 'NONE',  ( 0.0000000000000000000, 0.0000000000000000000, 1.500000000000000222 ) ) ;
#27 = FACE_OUTER_BOUND ( 'NONE', #110, .T. ) ;
#28 = CIRCLE ( 'NONE', #187, 0.003999999999999999216 ) ;
#29 =( NAMED_UNIT ( * ) SI_UNIT ( $, .STERADIAN. ) SOLID_ANGLE_UNIT ( ) );
#30 = CONICAL_SURFACE ( 'NONE', #219, 0.003999999999999999216, 0.5235987755983000369 ) ;
#31 = EDGE_LOOP ( 'NONE', ( #13, #172, #233, #113 ) ) ;
#32 = FACE_OUTER_BOUND ( 'NONE', #138, .T. ) ;
#33 = DIRECTION ( 'NONE',  ( -0.0000000000000000000, -0.0000000000000000000, -1.000000000000000000 ) ) ;
#34 = CONICAL_SURFACE ( 'NONE', #195, 0.04750000000000063893, 0.7853981633974453924 ) ;
#35 =( NAMED_UNIT ( * ) SI_UNIT ( $, .STERADIAN. ) SOLID_ANGLE_UNIT ( ) );
#36 = FACE_OUTER_BOUND ( 'NONE', #71, .T. ) ;
#37 = EDGE_LOOP ( 'NONE', ( #87, #181, #72, #234 ) ) ;
#38 = DIRECTION ( 'NONE',  ( 0.0000000000000000000, 0.0000000000000000000, -1.000000000000000000 ) ) ;
#39 = LENGTH_MEASURE_WITH_UNIT ( LENGTH_MEASURE( 0.02539999999999999897 ), #165 );
#40 = DIMENSIONAL_EXPONENTS ( 1.000000000000000000, 0.0000000000000000000, 0.0000000000000000000, 0.0000000000000000000, 0.0000000000000000000, 0.0000000000000000000, 0.0000000000000000000 ) ;
#41 = CARTESIAN_POINT ( 'NONE',  ( -0.003999999999999999216, 4.898587196589411612E-19, 0.0000000000000000000 ) ) ;
#42 = AXIS2_PLACEMENT_3D ( 'NONE', #239, #145, #209 ) ;
#43 = VECTOR ( 'NONE', #249, 39.37007874015748143 ) ;
#44 = CONICAL_SURFACE ( 'NONE', #78, 0.04750000000000063893, 0.7853981633974453924 ) ;
#45 = ORIENTED_EDGE ( 'NONE', *, *, #184, .F. ) ;
#46 =( NAMED_UNIT ( * ) PLANE_ANGLE_UNIT ( ) SI_UNIT ( $, .RADIAN. ) );
#47 =( LENGTH_UNIT ( ) NAMED_UNIT ( * ) SI_UNIT ( $, .METRE. ) );
#48 = AXIS2_PLACEMENT_3D ( 'NONE', #174, #245, #109 ) ;
#49 = LINE ( 'NONE', #201, #143 ) ;
#50 = CARTESIAN_POINT ( 'NONE',  ( 0.04750000000000063893, 5.817072295950005757E-18, 1.500000000000000222 ) ) ;
#51 = CIRCLE ( 'NONE', #178, 0.06249999999999997918 ) ;
#52 = CARTESIAN_POINT ( 'NONE',  ( -0.003999999999999999216, 4.071950607164948101E-18, 0.0000000000000000000 ) ) ;
#53 =( NAMED_UNIT ( * ) PLANE_ANGLE_UNIT ( ) SI_UNIT ( $, .RADIAN. ) );
#54 = VECTOR ( 'NONE', #33, 39.37007874015748143 ) ;
#55 = EDGE_CURVE ( 'NONE', #119, #125, #49, .T. ) ;
#56 = LINE ( 'NONE', #115, #164 ) ;
#57 = DIRECTION ( 'NONE',  ( -0.0000000000000000000, -0.0000000000000000000, -1.000000000000000000 ) ) ;
#58 = ADVANCED_FACE ( 'NONE', ( #36 ), #11, .T. ) ;
#59 = DIRECTION ( 'NONE',  ( -1.000000000000000000, 0.0000000000000000000, 0.0000000000000000000 ) ) ;
#60 = CLOSED_SHELL ( 'NONE', ( #216, #189, #58, #141, #18, #210, #149, #99 ) ) ;
#61 = MECHANICAL_DESIGN_GEOMETRIC_PRESENTATION_REPRESENTATION (  '', ( #10 ), #246 ) ;
#62 = EDGE_LOOP ( 'NONE', ( #134, #191, #4, #215 ) ) ;
#63 = PRODUCT_DEFINITION_CONTEXT ( 'detailed design', #153, 'design' ) ;
#64 = AXIS2_PLACEMENT_3D ( 'NONE', #171, #228, #227 ) ;
#65 = LENGTH_MEASURE_WITH_UNIT ( LENGTH_MEASURE( 0.02539999999999999897 ), #185 );
#66 = FACE_OUTER_BOUND ( 'NONE', #37, .T. ) ;
#67 = CARTESIAN_POINT ( 'NONE',  ( 0.0000000000000000000, 0.0000000000000000000, 0.0000000000000000000 ) ) ;
#68 = VERTEX_POINT ( 'NONE', #80 ) ;
#69 = AXIS2_PLACEMENT_3D ( 'NONE', #214, #242, #226 ) ;
#70 = ORIENTED_EDGE ( 'NONE', *, *, #159, .T. ) ;
#71 = EDGE_LOOP ( 'NONE', ( #196, #161, #45, #19 ) ) ;
#72 = ORIENTED_EDGE ( 'NONE', *, *, #128, .T. ) ;
#73 = CARTESIAN_POINT ( 'NONE',  ( 0.0000000000000000000, 0.0000000000000000000, 1.485000000000000764 ) ) ;
#74 = EDGE_CURVE ( 'NONE', #125, #76, #131, .T. ) ;
#75 = DIRECTION ( 'NONE',  ( 0.0000000000000000000, 0.0000000000000000000, -1.000000000000000000 ) ) ;
#76 = VERTEX_POINT ( 'NONE', #207 ) ;
#77 = CARTESIAN_POINT ( 'NONE',  ( 0.0000000000000000000, 0.0000000000000000000, 1.485000000000000764 ) ) ;
#78 = AXIS2_PLACEMENT_3D ( 'NONE', #166, #75, #59 ) ;
#79 = DIRECTION ( 'NONE',  ( 0.0000000000000000000, 0.0000000000000000000, -1.000000000000000000 ) ) ;
#80 = CARTESIAN_POINT ( 'NONE',  ( 0.04750000000000063893, 6.735557395310480881E-18, 1.500000000000000222 ) ) ;
#81 = EDGE_CURVE ( 'NONE', #7, #98, #248, .T. ) ;
#82 = DIRECTION ( 'NONE',  ( 1.000000000000000000, 0.0000000000000000000, 0.0000000000000000000 ) ) ;
#83 = DIRECTION ( 'NONE',  ( -0.0000000000000000000, -0.0000000000000000000, -1.000000000000000000 ) ) ;
#84 =( GEOMETRIC_REPRESENTATION_CONTEXT ( 3 ) GLOBAL_UNCERTAINTY_ASSIGNED_CONTEXT ( ( #135 ) ) GLOBAL_UNIT_ASSIGNED_CONTEXT ( ( #238, #194, #157 ) ) REPRESENTATION_CONTEXT ( 'NONE', 'WORKASPACE' ) );
#85 = CYLINDRICAL_SURFACE ( 'NONE', #88, 0.06249999999999997918 ) ;
#86 = FILL_AREA_STYLE_COLOUR ( '', #147 ) ;
#87 = ORIENTED_EDGE ( 'NONE', *, *, #193, .F. ) ;
#88 = AXIS2_PLACEMENT_3D ( 'NONE', #177, #126, #224 ) ;
#89 = AXIS2_PLACEMENT_3D ( 'NONE', #229, #211, #206 ) ;
#90 = FILL_AREA_STYLE ('',( #112 ) ) ;
#91 = DIRECTION ( 'NONE',  ( -0.0000000000000000000, -0.0000000000000000000, -1.000000000000000000 ) ) ;
#92 = CARTESIAN_POINT ( 'NONE',  ( 0.06249999999999997918, 7.654042494670954463E-18, 0.1013249722427790322 ) ) ;
#93 = DIRECTION ( 'NONE',  ( -1.000000000000000000, 0.0000000000000000000, 0.0000000000000000000 ) ) ;
#94 = DIRECTION ( 'NONE',  ( 0.5000000000000009992, 0.0000000000000000000, 0.8660254037844380415 ) ) ;
#95 = DIRECTION ( 'NONE',  ( 1.000000000000000000, 0.0000000000000000000, 0.0000000000000000000 ) ) ;
#96 = CARTESIAN_POINT ( 'NONE',  ( -0.06249999999999997918, 0.0000000000000000000, 1.500000000000000222 ) ) ;
#97 = DIMENSIONAL_EXPONENTS ( 1.000000000000000000, 0.0000000000000000000, 0.0000000000000000000, 0.0000000000000000000, 0.0000000000000000000, 0.0000000000000000000, 0.0000000000000000000 ) ;
#98 = VERTEX_POINT ( 'NONE', #92 ) ;
#99 = ADVANCED_FACE ( 'NONE', ( #32 ), #8, .F. ) ;
#100 = APPLICATION_CONTEXT ( 'automotive_design' ) ;
#101 = CIRCLE ( 'NONE', #139, 0.04750000000000063893 ) ;
#102 = PLANE ( 'NONE',  #48 ) ;
#103 = CARTESIAN_POINT ( 'NONE',  ( 0.0000000000000000000, 0.0000000000000000000, 0.0000000000000000000 ) ) ;
#104 = ORIENTED_EDGE ( 'NONE', *, *, #55, .F. ) ;
#105 = DIRECTION ( 'NONE',  ( 0.0000000000000000000, 0.0000000000000000000, 1.000000000000000000 ) ) ;
#106 = APPLICATION_PROTOCOL_DEFINITION ( 'draft international standard', 'automotive_design', 1998, #100 ) ;
#107 = AXIS2_PLACEMENT_3D ( 'NONE', #12, #105, #205 ) ;
#108 = CIRCLE ( 'NONE', #160, 0.06249999999999997918 ) ;
#109 = DIRECTION ( 'NONE',  ( 1.000000000000000000, 0.0000000000000000000, -0.0000000000000000000 ) ) ;
#110 = EDGE_LOOP ( 'NONE', ( #70, #142 ) ) ;
#111 = DIRECTION ( 'NONE',  ( -1.000000000000000000, 0.0000000000000000000, 0.0000000000000000000 ) ) ;
#112 = FILL_AREA_STYLE_COLOUR ( '', #20 ) ;
#113 = ORIENTED_EDGE ( 'NONE', *, *, #127, .F. ) ;
#114 = FACE_OUTER_BOUND ( 'NONE', #62, .T. ) ;
#115 = CARTESIAN_POINT ( 'NONE',  ( 0.003999999999999999216, 0.0000000000000000000, 0.0000000000000000000 ) ) ;
#116 = MANIFOLD_SOLID_BREP ( 'Cut-Revolve1', #60 ) ;
#117 = DIRECTION ( 'NONE',  ( -0.5000000000000009992, 6.123233995736778362E-17, 0.8660254037844380415 ) ) ;
#118 = EDGE_CURVE ( 'NONE', #68, #7, #188, .T. ) ;
#119 = VERTEX_POINT ( 'NONE', #223 ) ;
#120 = AXIS2_PLACEMENT_3D ( 'NONE', #73, #225, #169 ) ;
#121 = EDGE_CURVE ( 'NONE', #222, #221, #133, .T. ) ;
#122 = ORIENTED_EDGE ( 'NONE', *, *, #163, .F. ) ;
#123 = DIRECTION ( 'NONE',  ( 1.000000000000000000, 0.0000000000000000000, 0.0000000000000000000 ) ) ;
#124 = ORIENTED_EDGE ( 'NONE', *, *, #179, .F. ) ;
#125 = VERTEX_POINT ( 'NONE', #243 ) ;
#126 = DIRECTION ( 'NONE',  ( -0.0000000000000000000, -0.0000000000000000000, -1.000000000000000000 ) ) ;
#127 = EDGE_CURVE ( 'NONE', #7, #125, #218, .T. ) ;
#128 = EDGE_CURVE ( 'NONE', #222, #98, #56, .T. ) ;
#129 = DIRECTION ( 'NONE',  ( -0.7071067811865454633, 0.0000000000000000000, -0.7071067811865495711 ) ) ;
#130 = CARTESIAN_POINT ( 'NONE',  ( 0.0000000000000000000, 0.0000000000000000000, 0.1013249722427790322 ) ) ;
#131 = LINE ( 'NONE', #96, #9 ) ;
#132 =( CONVERSION_BASED_UNIT ( 'INCH', #39 ) LENGTH_UNIT ( ) NAMED_UNIT ( #40 ) );
#133 = CIRCLE ( 'NONE', #24, 0.003999999999999999216 ) ;
#134 = ORIENTED_EDGE ( 'NONE', *, *, #144, .F. ) ;
#135 = UNCERTAINTY_MEASURE_WITH_UNIT (LENGTH_MEASURE( 1.000000000000000082E-05 ), #238, 'distance_accuracy_value', 'NONE');
#136 =( CONVERSION_BASED_UNIT ( 'INCH', #6 ) LENGTH_UNIT ( ) NAMED_UNIT ( #23 ) );
#137 = SURFACE_SIDE_STYLE ('',( #197 ) ) ;
#138 = EDGE_LOOP ( 'NONE', ( #146, #25 ) ) ;
#139 = AXIS2_PLACEMENT_3D ( 'NONE', #26, #235, #95 ) ;
#140 = SURFACE_STYLE_USAGE ( .BOTH. , #137 ) ;
#141 = ADVANCED_FACE ( 'NONE', ( #17 ), #85, .T. ) ;
#142 = ORIENTED_EDGE ( 'NONE', *, *, #179, .T. ) ;
#143 = VECTOR ( 'NONE', #129, 39.37007874015748143 ) ;
#144 = EDGE_CURVE ( 'NONE', #221, #222, #28, .T. ) ;
#145 = DIRECTION ( 'NONE',  ( 0.0000000000000000000, 0.0000000000000000000, 1.000000000000000000 ) ) ;
#146 = ORIENTED_EDGE ( 'NONE', *, *, #121, .T. ) ;
#147 = COLOUR_RGB ( '',0.7921568627450980005, 0.8196078431372548767, 0.9333333333333333481 ) ;
#148 = CARTESIAN_POINT ( 'NONE',  ( 0.06249999999999997918, 7.654042494670954463E-18, 1.500000000000000222 ) ) ;
#149 = ADVANCED_FACE ( 'NONE', ( #66 ), #30, .T. ) ;
#150 = PRODUCT_RELATED_PRODUCT_CATEGORY ( 'part', '', ( #199 ) ) ;
#151 = DIRECTION ( 'NONE',  ( -1.000000000000000000, 0.0000000000000000000, 0.0000000000000000000 ) ) ;
#152 = SURFACE_SIDE_STYLE ('',( #182 ) ) ;
#153 = APPLICATION_CONTEXT ( 'automotive_design' ) ;
#154 = DIRECTION ( 'NONE',  ( -0.0000000000000000000, -0.0000000000000000000, -1.000000000000000000 ) ) ;
#155 = PRODUCT_CONTEXT ( 'NONE', #100, 'mechanical' ) ;
#156 = DIRECTION ( 'NONE',  ( -1.000000000000000000, 0.0000000000000000000, 0.0000000000000000000 ) ) ;
#157 =( NAMED_UNIT ( * ) SI_UNIT ( $, .STERADIAN. ) SOLID_ANGLE_UNIT ( ) );
#158 = ORIENTED_EDGE ( 'NONE', *, *, #81, .F. ) ;
#159 = EDGE_CURVE ( 'NONE', #119, #68, #101, .T. ) ;
#160 = AXIS2_PLACEMENT_3D ( 'NONE', #186, #173, #151 ) ;
#161 = ORIENTED_EDGE ( 'NONE', *, *, #81, .T. ) ;
#162 = EDGE_LOOP ( 'NONE', ( #124, #208, #167, #104 ) ) ;
#163 = EDGE_CURVE ( 'NONE', #98, #76, #108, .T. ) ;
#164 = VECTOR ( 'NONE', #94, 39.37007874015748143 ) ;
#165 =( LENGTH_UNIT ( ) NAMED_UNIT ( * ) SI_UNIT ( $, .METRE. ) );
#166 = CARTESIAN_POINT ( 'NONE',  ( 0.0000000000000000000, 0.0000000000000000000, 1.500000000000000222 ) ) ;
#167 = ORIENTED_EDGE ( 'NONE', *, *, #203, .F. ) ;
#168 = EDGE_LOOP ( 'NONE', ( #158, #180, #15, #122 ) ) ;
#169 = DIRECTION ( 'NONE',  ( 1.000000000000000000, 0.0000000000000000000, 0.0000000000000000000 ) ) ;
#170 = FACE_OUTER_BOUND ( 'NONE', #31, .T. ) ;
#171 = CARTESIAN_POINT ( 'NONE',  ( 0.0000000000000000000, 0.0000000000000000000, 1.500000000000000222 ) ) ;
#172 = ORIENTED_EDGE ( 'NONE', *, *, #159, .F. ) ;
#173 = DIRECTION ( 'NONE',  ( -0.0000000000000000000, -0.0000000000000000000, -1.000000000000000000 ) ) ;
#174 = CARTESIAN_POINT ( 'NONE',  ( 0.0000000000000000000, 0.0000000000000000000, 1.500000000000000222 ) ) ;
#175 =( GEOMETRIC_REPRESENTATION_CONTEXT ( 3 ) GLOBAL_UNCERTAINTY_ASSIGNED_CONTEXT ( ( #232 ) ) GLOBAL_UNIT_ASSIGNED_CONTEXT ( ( #132, #53, #35 ) ) REPRESENTATION_CONTEXT ( 'NONE', 'WORKASPACE' ) );
#176 = VECTOR ( 'NONE', #117, 39.37007874015748143 ) ;
#177 = CARTESIAN_POINT ( 'NONE',  ( 0.0000000000000000000, 0.0000000000000000000, 1.500000000000000222 ) ) ;
#178 = AXIS2_PLACEMENT_3D ( 'NONE', #130, #154, #111 ) ;
#179 = EDGE_CURVE ( 'NONE', #68, #119, #21, .T. ) ;
#180 = ORIENTED_EDGE ( 'NONE', *, *, #127, .T. ) ;
#181 = ORIENTED_EDGE ( 'NONE', *, *, #121, .F. ) ;
#182 = SURFACE_STYLE_FILL_AREA ( #90 ) ;
#183 = SURFACE_STYLE_USAGE ( .BOTH. , #152 ) ;
#184 = EDGE_CURVE ( 'NONE', #76, #98, #51, .T. ) ;
#185 =( LENGTH_UNIT ( ) NAMED_UNIT ( * ) SI_UNIT ( $, .METRE. ) );
#186 = CARTESIAN_POINT ( 'NONE',  ( 0.0000000000000000000, 0.0000000000000000000, 0.1013249722427790322 ) ) ;
#187 = AXIS2_PLACEMENT_3D ( 'NONE', #103, #91, #156 ) ;
#188 = LINE ( 'NONE', #50, #43 ) ;
#189 = ADVANCED_FACE ( 'NONE', ( #244 ), #34, .T. ) ;
#190 = SHAPE_DEFINITION_REPRESENTATION ( #5, #22 ) ;
#191 = ORIENTED_EDGE ( 'NONE', *, *, #193, .T. ) ;
#192 = CIRCLE ( 'NONE', #241, 0.06249999999999997918 ) ;
#193 = EDGE_CURVE ( 'NONE', #221, #76, #247, .T. ) ;
#194 =( NAMED_UNIT ( * ) PLANE_ANGLE_UNIT ( ) SI_UNIT ( $, .RADIAN. ) );
#195 = AXIS2_PLACEMENT_3D ( 'NONE', #14, #38, #93 ) ;
#196 = ORIENTED_EDGE ( 'NONE', *, *, #203, .T. ) ;
#197 = SURFACE_STYLE_FILL_AREA ( #237 ) ;
#198 = CARTESIAN_POINT ( 'NONE',  ( 0.06249999999999997918, 7.654042494670954463E-18, 1.485000000000000764 ) ) ;
#199 = PRODUCT ( 'Micro_RSC-125-1', 'Micro_RSC-125-1', '', ( #155 ) ) ;
#200 = CARTESIAN_POINT ( 'NONE',  ( 0.0000000000000000000, 0.0000000000000000000, 0.0000000000000000000 ) ) ;
#201 = CARTESIAN_POINT ( 'NONE',  ( -0.04750000000000063893, 0.0000000000000000000, 1.500000000000000222 ) ) ;
#202 = PRODUCT_DEFINITION_FORMATION_WITH_SPECIFIED_SOURCE ( 'ANY', '', #199, .NOT_KNOWN. ) ;
#203 = EDGE_CURVE ( 'NONE', #125, #7, #192, .T. ) ;
#204 = CARTESIAN_POINT ( 'NONE',  ( 0.003999999999999999216, 0.0000000000000000000, 0.0000000000000000000 ) ) ;
#205 = DIRECTION ( 'NONE',  ( 1.000000000000000000, 0.0000000000000000000, -0.0000000000000000000 ) ) ;
#206 = DIRECTION ( 'NONE',  ( 1.000000000000000000, 0.0000000000000000000, 0.0000000000000000000 ) ) ;
#207 = CARTESIAN_POINT ( 'NONE',  ( -0.06249999999999997918, 0.0000000000000000000, 0.1013249722427790322 ) ) ;
#208 = ORIENTED_EDGE ( 'NONE', *, *, #118, .T. ) ;
#209 = DIRECTION ( 'NONE',  ( 1.000000000000000000, 0.0000000000000000000, 0.0000000000000000000 ) ) ;
#210 = ADVANCED_FACE ( 'NONE', ( #170 ), #44, .T. ) ;
#211 = DIRECTION ( 'NONE',  ( 0.0000000000000000000, 0.0000000000000000000, 1.000000000000000000 ) ) ;
#212 = DIRECTION ( 'NONE',  ( -1.000000000000000000, 0.0000000000000000000, 0.0000000000000000000 ) ) ;
#213 = APPLICATION_PROTOCOL_DEFINITION ( 'draft international standard', 'automotive_design', 1998, #153 ) ;
#214 = CARTESIAN_POINT ( 'NONE',  ( 0.0000000000000000000, 0.0000000000000000000, 0.0000000000000000000 ) ) ;
#215 = ORIENTED_EDGE ( 'NONE', *, *, #128, .F. ) ;
#216 = ADVANCED_FACE ( 'NONE', ( #114 ), #231, .T. ) ;
#217 = PRODUCT_DEFINITION ( 'UNKNOWN', '', #202, #63 ) ;
#218 = CIRCLE ( 'NONE', #120, 0.06249999999999997918 ) ;
#219 = AXIS2_PLACEMENT_3D ( 'NONE', #67, #220, #123 ) ;
#220 = DIRECTION ( 'NONE',  ( 0.0000000000000000000, 0.0000000000000000000, 1.000000000000000000 ) ) ;
#221 = VERTEX_POINT ( 'NONE', #52 ) ;
#222 = VERTEX_POINT ( 'NONE', #204 ) ;
#223 = CARTESIAN_POINT ( 'NONE',  ( -0.04750000000000063893, 0.0000000000000000000, 1.500000000000000222 ) ) ;
#224 = DIRECTION ( 'NONE',  ( -1.000000000000000000, 0.0000000000000000000, 0.0000000000000000000 ) ) ;
#225 = DIRECTION ( 'NONE',  ( 0.0000000000000000000, 0.0000000000000000000, -1.000000000000000000 ) ) ;
#226 = DIRECTION ( 'NONE',  ( 1.000000000000000000, 0.0000000000000000000, 0.0000000000000000000 ) ) ;
#227 = DIRECTION ( 'NONE',  ( -1.000000000000000000, 0.0000000000000000000, 0.0000000000000000000 ) ) ;
#228 = DIRECTION ( 'NONE',  ( -0.0000000000000000000, -0.0000000000000000000, -1.000000000000000000 ) ) ;
#229 = CARTESIAN_POINT ( 'NONE',  ( 0.0000000000000000000, 0.0000000000000000000, 1.500000000000000222 ) ) ;
#230 = PRESENTATION_STYLE_ASSIGNMENT (( #183 ) ) ;
#231 = CONICAL_SURFACE ( 'NONE', #69, 0.003999999999999999216, 0.5235987755983000369 ) ;
#232 = UNCERTAINTY_MEASURE_WITH_UNIT (LENGTH_MEASURE( 1.000000000000000082E-05 ), #132, 'distance_accuracy_value', 'NONE');
#233 = ORIENTED_EDGE ( 'NONE', *, *, #55, .T. ) ;
#234 = ORIENTED_EDGE ( 'NONE', *, *, #163, .T. ) ;
#235 = DIRECTION ( 'NONE',  ( 0.0000000000000000000, 0.0000000000000000000, 1.000000000000000000 ) ) ;
#236 = PRESENTATION_LAYER_ASSIGNMENT (  '', '', ( #10 ) ) ;
#237 = FILL_AREA_STYLE ('',( #86 ) ) ;
#238 =( CONVERSION_BASED_UNIT ( 'INCH', #65 ) LENGTH_UNIT ( ) NAMED_UNIT ( #97 ) );
#239 = CARTESIAN_POINT ( 'NONE',  ( 0.0000000000000000000, 0.0000000000000000000, 0.0000000000000000000 ) ) ;
#240 = STYLED_ITEM ( 'NONE', ( #230 ), #116 ) ;
#241 = AXIS2_PLACEMENT_3D ( 'NONE', #77, #79, #82 ) ;
#242 = DIRECTION ( 'NONE',  ( 0.0000000000000000000, 0.0000000000000000000, 1.000000000000000000 ) ) ;
#243 = CARTESIAN_POINT ( 'NONE',  ( -0.06249999999999997918, 0.0000000000000000000, 1.485000000000000764 ) ) ;
#244 = FACE_OUTER_BOUND ( 'NONE', #162, .T. ) ;
#245 = DIRECTION ( 'NONE',  ( 0.0000000000000000000, 0.0000000000000000000, 1.000000000000000000 ) ) ;
#246 =( GEOMETRIC_REPRESENTATION_CONTEXT ( 3 ) GLOBAL_UNCERTAINTY_ASSIGNED_CONTEXT ( ( #2 ) ) GLOBAL_UNIT_ASSIGNED_CONTEXT ( ( #136, #46, #29 ) ) REPRESENTATION_CONTEXT ( 'NONE', 'WORKASPACE' ) );
#247 = LINE ( 'NONE', #41, #176 ) ;
#248 = LINE ( 'NONE', #148, #54 ) ;
#249 = DIRECTION ( 'NONE',  ( 0.7071067811865454633, 8.659560562354908206E-17, -0.7071067811865495711 ) ) ;
ENDSEC;
END-ISO-10303-21;
