ISO-10303-21;
HEADER;
FILE_DESCRIPTION (( 'STEP AP214' ),
    '1' );
FILE_NAME ('Micro_BEMM-030-3.STEP',
    '2021-09-03T13:21:34',
    ( '' ),
    ( '' ),
    'SwSTEP 2.0',
    'SolidWorks 2020',
    '' );
FILE_SCHEMA (( 'AUTOMOTIVE_DESIGN' ));
ENDSEC;

DATA;
#1 = EDGE_CURVE ( 'NONE', #56, #254, #3, .T. ) ;
#2 =( CONVERSION_BASED_UNIT ( 'INCH', #261 ) LENGTH_UNIT ( ) NAMED_UNIT ( #321 ) );
#3 = LINE ( 'NONE', #111, #108 ) ;
#4 = PRESENTATION_STYLE_ASSIGNMENT (( #87 ) ) ;
#5 = ORIENTED_EDGE ( 'NONE', *, *, #112, .F. ) ;
#6 = EDGE_CURVE ( 'NONE', #320, #201, #102, .T. ) ;
#7 =( CONVERSION_BASED_UNIT ( 'INCH', #238 ) LENGTH_UNIT ( ) NAMED_UNIT ( #104 ) );
#8 = CARTESIAN_POINT ( 'NONE',  ( 0.05899594499999997327, 7.224919520692326607E-18, -7.224919520692323526E-18 ) ) ;
#9 = AXIS2_PLACEMENT_3D ( 'NONE', #258, #181, #231 ) ;
#10 = PRODUCT_DEFINITION_SHAPE ( 'NONE', 'NONE',  #97 ) ;
#11 = ORIENTED_EDGE ( 'NONE', *, *, #6, .F. ) ;
#12 = DIRECTION ( 'NONE',  ( 1.000000000000000000, 0.0000000000000000000, 0.0000000000000000000 ) ) ;
#13 = UNCERTAINTY_MEASURE_WITH_UNIT (LENGTH_MEASURE( 1.000000000000000082E-05 ), #180, 'distance_accuracy_value', 'NONE');
#14 = FACE_OUTER_BOUND ( 'NONE', #49, .T. ) ;
#15 = ADVANCED_FACE ( 'NONE', ( #35 ), #259, .T. ) ;
#16 = CARTESIAN_POINT ( 'NONE',  ( 0.0000000000000000000, 0.0000000000000000000, 1.496062999999999921 ) ) ;
#17 = CARTESIAN_POINT ( 'NONE',  ( 0.05905499999999998251, 7.232151672364692341E-18, 1.496062999999999921 ) ) ;
#18 = EDGE_CURVE ( 'NONE', #57, #230, #241, .T. ) ;
#19 = DIRECTION ( 'NONE',  ( 0.0000000000000000000, 0.0000000000000000000, -1.000000000000000000 ) ) ;
#20 = CIRCLE ( 'NONE', #317, 0.05899594499999997327 ) ;
#21 = CIRCLE ( 'NONE', #79, 0.05899594499999999409 ) ;
#22 = EDGE_LOOP ( 'NONE', ( #107, #82 ) ) ;
#23 = DIRECTION ( 'NONE',  ( -1.000000000000000000, 0.0000000000000000000, 0.0000000000000000000 ) ) ;
#24 = ORIENTED_EDGE ( 'NONE', *, *, #232, .F. ) ;
#25 = DIRECTION ( 'NONE',  ( 0.0000000000000000000, -1.000000000000000000, 0.0000000000000000000 ) ) ;
#26 = DIMENSIONAL_EXPONENTS ( 1.000000000000000000, 0.0000000000000000000, 0.0000000000000000000, 0.0000000000000000000, 0.0000000000000000000, 0.0000000000000000000, 0.0000000000000000000 ) ;
#27 = EDGE_LOOP ( 'NONE', ( #215, #88, #51, #290 ) ) ;
#28 = DIRECTION ( 'NONE',  ( 1.224646799147353207E-16, 1.000000000000000000, -0.0000000000000000000 ) ) ;
#29 = ORIENTED_EDGE ( 'NONE', *, *, #209, .T. ) ;
#30 = DIRECTION ( 'NONE',  ( -0.0000000000000000000, -0.0000000000000000000, -1.000000000000000000 ) ) ;
#31 = CARTESIAN_POINT ( 'NONE',  ( 0.0000000000000000000, 0.0000000000000000000, 1.496062999999999921 ) ) ;
#32 =( LENGTH_UNIT ( ) NAMED_UNIT ( * ) SI_UNIT ( $, .METRE. ) );
#33 = ORIENTED_EDGE ( 'NONE', *, *, #59, .T. ) ;
#34 = ORIENTED_EDGE ( 'NONE', *, *, #142, .F. ) ;
#35 = FACE_OUTER_BOUND ( 'NONE', #22, .T. ) ;
#36 = AXIS2_PLACEMENT_3D ( 'NONE', #271, #257, #151 ) ;
#37 = AXIS2_PLACEMENT_3D ( 'NONE', #31, #160, #239 ) ;
#38 = LINE ( 'NONE', #220, #161 ) ;
#39 = CARTESIAN_POINT ( 'NONE',  ( -0.04405500000000001082, 0.0000000000000000000, 1.496062999999999921 ) ) ;
#40 = UNCERTAINTY_MEASURE_WITH_UNIT (LENGTH_MEASURE( 1.000000000000000082E-05 ), #7, 'distance_accuracy_value', 'NONE');
#41 = CARTESIAN_POINT ( 'NONE',  ( 0.0000000000000000000, 0.0000000000000000000, 1.496062999999999921 ) ) ;
#42 = DIRECTION ( 'NONE',  ( 0.7071067811865536790, 8.659560562355008046E-17, -0.7071067811865412445 ) ) ;
#43 = PRODUCT_RELATED_PRODUCT_CATEGORY ( 'part', '', ( #263 ) ) ;
#44 = CARTESIAN_POINT ( 'NONE',  ( 1.083737928103849376E-17, 0.0000000000000000000, 0.0000000000000000000 ) ) ;
#45 = MANIFOLD_SOLID_BREP ( 'Fillet1', #250 ) ;
#46 = CARTESIAN_POINT ( 'NONE',  ( 7.224919520692328148E-18, 0.0000000000000000000, 0.05899594499999999409 ) ) ;
#47 = FACE_OUTER_BOUND ( 'NONE', #301, .T. ) ;
#48 = VECTOR ( 'NONE', #246, 39.37007874015748143 ) ;
#49 = EDGE_LOOP ( 'NONE', ( #275, #188, #29, #205 ) ) ;
#50 = DIRECTION ( 'NONE',  ( -1.000000000000000000, 0.0000000000000000000, 1.447052840699615392E-16 ) ) ;
#51 = ORIENTED_EDGE ( 'NONE', *, *, #112, .T. ) ;
#52 = EDGE_LOOP ( 'NONE', ( #323, #191, #304, #207 ) ) ;
#53 = CYLINDRICAL_SURFACE ( 'NONE', #299, 0.05905499999999998251 ) ;
#54 = VECTOR ( 'NONE', #249, 39.37007874015748854 ) ;
#55 =( NAMED_UNIT ( * ) SI_UNIT ( $, .STERADIAN. ) SOLID_ANGLE_UNIT ( ) );
#56 = VERTEX_POINT ( 'NONE', #296 ) ;
#57 = VERTEX_POINT ( 'NONE', #314 ) ;
#58 = SHAPE_DEFINITION_REPRESENTATION ( #10, #177 ) ;
#59 = EDGE_CURVE ( 'NONE', #134, #262, #120, .T. ) ;
#60 = EDGE_LOOP ( 'NONE', ( #189, #33, #264, #34 ) ) ;
#61 = DIRECTION ( 'NONE',  ( -1.224646799147352961E-16, -0.0000000000000000000, -1.000000000000000000 ) ) ;
#62 = DIRECTION ( 'NONE',  ( -1.000000000000000000, 0.0000000000000000000, 0.0000000000000000000 ) ) ;
#63 = AXIS2_PLACEMENT_3D ( 'NONE', #217, #150, #171 ) ;
#64 = PRESENTATION_LAYER_ASSIGNMENT (  '', '', ( #100 ) ) ;
#65 = EDGE_CURVE ( 'NONE', #320, #134, #291, .T. ) ;
#66 = AXIS2_PLACEMENT_3D ( 'NONE', #325, #25, #106 ) ;
#67 = DIRECTION ( 'NONE',  ( 0.0000000000000000000, 0.0000000000000000000, -1.000000000000000000 ) ) ;
#68 = CARTESIAN_POINT ( 'NONE',  ( 7.232163918832683761E-17, 0.0000000000000000000, 0.5905510000000000481 ) ) ;
#69 = ADVANCED_FACE ( 'NONE', ( #14 ), #273, .T. ) ;
#70 = FACE_OUTER_BOUND ( 'NONE', #228, .T. ) ;
#71 = CARTESIAN_POINT ( 'NONE',  ( 0.05899594500000004266, 0.0000000000000000000, 0.5905510000000000481 ) ) ;
#72 = LENGTH_MEASURE_WITH_UNIT ( LENGTH_MEASURE( 0.02539999999999999897 ), #95 );
#73 = COLOUR_RGB ( '',0.7921568627450980005, 0.8196078431372548767, 0.9333333333333333481 ) ;
#74 = DIRECTION ( 'NONE',  ( -1.224646799147352961E-16, -0.0000000000000000000, -1.000000000000000000 ) ) ;
#75 = CARTESIAN_POINT ( 'NONE',  ( 0.0000000000000000000, 0.0000000000000000000, 1.496062999999999921 ) ) ;
#76 = ORIENTED_EDGE ( 'NONE', *, *, #209, .F. ) ;
#77 = DIRECTION ( 'NONE',  ( 1.000000000000000000, 0.0000000000000000000, 0.0000000000000000000 ) ) ;
#78 = VERTEX_POINT ( 'NONE', #44 ) ;
#79 = AXIS2_PLACEMENT_3D ( 'NONE', #251, #28, #130 ) ;
#80 = DIRECTION ( 'NONE',  ( 0.0000000000000000000, 0.0000000000000000000, 1.000000000000000000 ) ) ;
#81 = AXIS2_PLACEMENT_3D ( 'NONE', #158, #74, #154 ) ;
#82 = ORIENTED_EDGE ( 'NONE', *, *, #6, .T. ) ;
#83 = VERTEX_POINT ( 'NONE', #267 ) ;
#84 = DIRECTION ( 'NONE',  ( 0.0000000000000000000, 0.0000000000000000000, 1.000000000000000000 ) ) ;
#85 = ADVANCED_FACE ( 'NONE', ( #70 ), #119, .T. ) ;
#86 = VERTEX_POINT ( 'NONE', #93 ) ;
#87 = SURFACE_STYLE_USAGE ( .BOTH. , #140 ) ;
#88 = ORIENTED_EDGE ( 'NONE', *, *, #137, .T. ) ;
#89 = DIRECTION ( 'NONE',  ( -0.7071067811865536790, 0.0000000000000000000, -0.7071067811865412445 ) ) ;
#90 = CARTESIAN_POINT ( 'NONE',  ( 7.232163918832683761E-17, 0.0000000000000000000, 0.5905510000000000481 ) ) ;
#91 = AXIS2_PLACEMENT_3D ( 'NONE', #115, #199, #12 ) ;
#92 = CIRCLE ( 'NONE', #109, 0.05899594499999997327 ) ;
#93 = CARTESIAN_POINT ( 'NONE',  ( -0.05905499999999991312, 0.0000000000000000000, 0.5908859175478575754 ) ) ;
#94 = DIRECTION ( 'NONE',  ( -1.224646799147352961E-16, -0.0000000000000000000, -1.000000000000000000 ) ) ;
#95 =( LENGTH_UNIT ( ) NAMED_UNIT ( * ) SI_UNIT ( $, .METRE. ) );
#96 = CARTESIAN_POINT ( 'NONE',  ( 7.224919520692328148E-18, 0.0000000000000000000, 0.05899594499999999409 ) ) ;
#97 = PRODUCT_DEFINITION ( 'UNKNOWN', '', #176, #248 ) ;
#98 = ORIENTED_EDGE ( 'NONE', *, *, #137, .F. ) ;
#99 = DIRECTION ( 'NONE',  ( 1.000000000000000000, 0.0000000000000000000, 0.0000000000000000000 ) ) ;
#100 = STYLED_ITEM ( 'NONE', ( #4 ), #177 ) ;
#101 =( GEOMETRIC_REPRESENTATION_CONTEXT ( 3 ) GLOBAL_UNCERTAINTY_ASSIGNED_CONTEXT ( ( #40 ) ) GLOBAL_UNIT_ASSIGNED_CONTEXT ( ( #7, #114, #55 ) ) REPRESENTATION_CONTEXT ( 'NONE', 'WORKASPACE' ) );
#102 = CIRCLE ( 'NONE', #37, 0.04405500000000001082 ) ;
#103 = DIRECTION ( 'NONE',  ( -1.000000000000000000, 0.0000000000000000000, 0.0000000000000000000 ) ) ;
#104 = DIMENSIONAL_EXPONENTS ( 1.000000000000000000, 0.0000000000000000000, 0.0000000000000000000, 0.0000000000000000000, 0.0000000000000000000, 0.0000000000000000000, 0.0000000000000000000 ) ;
#105 = ORIENTED_EDGE ( 'NONE', *, *, #142, .T. ) ;
#106 = DIRECTION ( 'NONE',  ( 0.0000000000000000000, 0.0000000000000000000, -1.000000000000000000 ) ) ;
#107 = ORIENTED_EDGE ( 'NONE', *, *, #195, .T. ) ;
#108 = VECTOR ( 'NONE', #61, 39.37007874015748143 ) ;
#109 = AXIS2_PLACEMENT_3D ( 'NONE', #46, #255, #50 ) ;
#110 = CIRCLE ( 'NONE', #240, 0.05905499999999998251 ) ;
#111 = CARTESIAN_POINT ( 'NONE',  ( -0.05899594499999997327, 0.0000000000000000000, 7.224919520692323526E-18 ) ) ;
#112 = EDGE_CURVE ( 'NONE', #86, #83, #135, .T. ) ;
#113 = ORIENTED_EDGE ( 'NONE', *, *, #65, .T. ) ;
#114 =( NAMED_UNIT ( * ) PLANE_ANGLE_UNIT ( ) SI_UNIT ( $, .RADIAN. ) );
#115 = CARTESIAN_POINT ( 'NONE',  ( 0.0000000000000000000, 0.0000000000000000000, 1.481063000000000240 ) ) ;
#116 = EDGE_CURVE ( 'NONE', #262, #86, #38, .T. ) ;
#117 = ORIENTED_EDGE ( 'NONE', *, *, #278, .T. ) ;
#118 = CARTESIAN_POINT ( 'NONE',  ( -0.05899594499999990388, 7.224919520692326607E-18, 0.5905510000000000481 ) ) ;
#119 = SPHERICAL_SURFACE ( 'NONE', #194, 0.05899594499999999409 ) ;
#120 = CIRCLE ( 'NONE', #91, 0.05905499999999998251 ) ;
#121 = DIRECTION ( 'NONE',  ( 0.0000000000000000000, 1.000000000000000000, 0.0000000000000000000 ) ) ;
#122 = CARTESIAN_POINT ( 'NONE',  ( 7.232163918832683761E-17, 0.0000000000000000000, 0.5905510000000000481 ) ) ;
#123 = DIRECTION ( 'NONE',  ( -1.000000000000000000, 0.0000000000000000000, 0.0000000000000000000 ) ) ;
#124 = CIRCLE ( 'NONE', #36, 0.05899594499999997327 ) ;
#125 = AXIS2_PLACEMENT_3D ( 'NONE', #302, #253, #77 ) ;
#126 = EDGE_CURVE ( 'NONE', #57, #83, #222, .T. ) ;
#127 = CARTESIAN_POINT ( 'NONE',  ( -0.05899594499999995939, 0.0000000000000000000, 0.05899594500000000796 ) ) ;
#128 = CYLINDRICAL_SURFACE ( 'NONE', #81, 0.05899594499999997327 ) ;
#129 = ORIENTED_EDGE ( 'NONE', *, *, #284, .T. ) ;
#130 = DIRECTION ( 'NONE',  ( -1.000000000000000000, 1.224646799147353454E-16, 0.0000000000000000000 ) ) ;
#131 = ORIENTED_EDGE ( 'NONE', *, *, #179, .T. ) ;
#132 = FACE_OUTER_BOUND ( 'NONE', #60, .T. ) ;
#133 = SPHERICAL_SURFACE ( 'NONE', #303, 0.05899594499999999409 ) ;
#134 = VERTEX_POINT ( 'NONE', #145 ) ;
#135 = CIRCLE ( 'NONE', #63, 0.05905499999999998251 ) ;
#136 = DIRECTION ( 'NONE',  ( 1.000000000000000000, 0.0000000000000000000, 0.0000000000000000000 ) ) ;
#137 = EDGE_CURVE ( 'NONE', #56, #86, #247, .T. ) ;
#138 = CIRCLE ( 'NONE', #66, 0.05899594499999999409 ) ;
#139 = ORIENTED_EDGE ( 'NONE', *, *, #269, .T. ) ;
#140 = SURFACE_SIDE_STYLE ('',( #288 ) ) ;
#141 = ORIENTED_EDGE ( 'NONE', *, *, #198, .F. ) ;
#142 = EDGE_CURVE ( 'NONE', #83, #86, #110, .T. ) ;
#143 = DIRECTION ( 'NONE',  ( 1.000000000000000000, 0.0000000000000000000, -0.0000000000000000000 ) ) ;
#144 = VECTOR ( 'NONE', #148, 39.37007874015748143 ) ;
#145 = CARTESIAN_POINT ( 'NONE',  ( 0.05905499999999998251, 7.232151672364692341E-18, 1.481063000000000240 ) ) ;
#146 = UNCERTAINTY_MEASURE_WITH_UNIT (LENGTH_MEASURE( 1.000000000000000082E-05 ), #2, 'distance_accuracy_value', 'NONE');
#147 = LINE ( 'NONE', #295, #184 ) ;
#148 = DIRECTION ( 'NONE',  ( -0.0000000000000000000, -0.0000000000000000000, -1.000000000000000000 ) ) ;
#149 = DIRECTION ( 'NONE',  ( -0.0000000000000000000, -0.0000000000000000000, -1.000000000000000000 ) ) ;
#150 = DIRECTION ( 'NONE',  ( -1.224646799147352961E-16, -0.0000000000000000000, -1.000000000000000000 ) ) ;
#151 = DIRECTION ( 'NONE',  ( -1.000000000000000000, 0.0000000000000000000, 1.447052840699615392E-16 ) ) ;
#152 = AXIS2_PLACEMENT_3D ( 'NONE', #68, #170, #270 ) ;
#153 = MECHANICAL_DESIGN_GEOMETRIC_PRESENTATION_REPRESENTATION (  '', ( #245 ), #315 ) ;
#154 = DIRECTION ( 'NONE',  ( -1.000000000000000000, 0.0000000000000000000, 1.224646799147352714E-16 ) ) ;
#155 = ORIENTED_EDGE ( 'NONE', *, *, #186, .T. ) ;
#156 = ORIENTED_EDGE ( 'NONE', *, *, #278, .F. ) ;
#157 = ORIENTED_EDGE ( 'NONE', *, *, #1, .F. ) ;
#158 = CARTESIAN_POINT ( 'NONE',  ( 0.0000000000000000000, 0.0000000000000000000, 0.0000000000000000000 ) ) ;
#159 = PRESENTATION_STYLE_ASSIGNMENT (( #307 ) ) ;
#160 = DIRECTION ( 'NONE',  ( 0.0000000000000000000, 0.0000000000000000000, 1.000000000000000000 ) ) ;
#161 = VECTOR ( 'NONE', #149, 39.37007874015748143 ) ;
#162 =( LENGTH_UNIT ( ) NAMED_UNIT ( * ) SI_UNIT ( $, .METRE. ) );
#163 = EDGE_LOOP ( 'NONE', ( #155, #305, #139, #157 ) ) ;
#164 = ADVANCED_FACE ( 'NONE', ( #196 ), #276, .T. ) ;
#165 = ORIENTED_EDGE ( 'NONE', *, *, #116, .F. ) ;
#166 = CONICAL_SURFACE ( 'NONE', #9, 0.05899594499999997327, 0.1745329251994346687 ) ;
#167 = FACE_OUTER_BOUND ( 'NONE', #163, .T. ) ;
#168 = AXIS2_PLACEMENT_3D ( 'NONE', #300, #178, #319 ) ;
#169 = DIRECTION ( 'NONE',  ( 1.000000000000000000, 0.0000000000000000000, 0.0000000000000000000 ) ) ;
#170 = DIRECTION ( 'NONE',  ( 1.224646799147352961E-16, 0.0000000000000000000, 1.000000000000000000 ) ) ;
#171 = DIRECTION ( 'NONE',  ( 1.000000000000000000, 0.0000000000000000000, 0.0000000000000000000 ) ) ;
#172 = DIRECTION ( 'NONE',  ( 1.000000000000000000, 0.0000000000000000000, 0.0000000000000000000 ) ) ;
#173 = ADVANCED_FACE ( 'NONE', ( #309 ), #292, .T. ) ;
#174 = CARTESIAN_POINT ( 'NONE',  ( 0.0000000000000000000, 0.0000000000000000000, 1.496062999999999921 ) ) ;
#175 = EDGE_LOOP ( 'NONE', ( #98, #141, #279, #105 ) ) ;
#176 = PRODUCT_DEFINITION_FORMATION_WITH_SPECIFIED_SOURCE ( 'ANY', '', #263, .NOT_KNOWN. ) ;
#177 = ADVANCED_BREP_SHAPE_REPRESENTATION ( 'Micro_BEMM-030-3', ( #45, #203 ), #183 ) ;
#178 = DIRECTION ( 'NONE',  ( -1.224646799147352961E-16, -0.0000000000000000000, -1.000000000000000000 ) ) ;
#179 = EDGE_CURVE ( 'NONE', #134, #83, #313, .T. ) ;
#180 =( CONVERSION_BASED_UNIT ( 'INCH', #72 ) LENGTH_UNIT ( ) NAMED_UNIT ( #26 ) );
#181 = DIRECTION ( 'NONE',  ( 1.224646799147352961E-16, 0.0000000000000000000, 1.000000000000000000 ) ) ;
#182 = CIRCLE ( 'NONE', #211, 0.05899594499999997327 ) ;
#183 =( GEOMETRIC_REPRESENTATION_CONTEXT ( 3 ) GLOBAL_UNCERTAINTY_ASSIGNED_CONTEXT ( ( #13 ) ) GLOBAL_UNIT_ASSIGNED_CONTEXT ( ( #180, #318, #229 ) ) REPRESENTATION_CONTEXT ( 'NONE', 'WORKASPACE' ) );
#184 = VECTOR ( 'NONE', #89, 39.37007874015748854 ) ;
#185 = SURFACE_STYLE_FILL_AREA ( #285 ) ;
#186 = EDGE_CURVE ( 'NONE', #56, #57, #20, .T. ) ;
#187 =( NAMED_UNIT ( * ) PLANE_ANGLE_UNIT ( ) SI_UNIT ( $, .RADIAN. ) );
#188 = ORIENTED_EDGE ( 'NONE', *, *, #195, .F. ) ;
#189 = ORIENTED_EDGE ( 'NONE', *, *, #179, .F. ) ;
#190 = APPLICATION_PROTOCOL_DEFINITION ( 'draft international standard', 'automotive_design', 1998, #243 ) ;
#191 = ORIENTED_EDGE ( 'NONE', *, *, #198, .T. ) ;
#192 = DIRECTION ( 'NONE',  ( -1.224646799147352961E-16, -0.0000000000000000000, -1.000000000000000000 ) ) ;
#193 = CARTESIAN_POINT ( 'NONE',  ( 0.0000000000000000000, 0.0000000000000000000, 1.496062999999999921 ) ) ;
#194 = AXIS2_PLACEMENT_3D ( 'NONE', #311, #121, #219 ) ;
#195 = EDGE_CURVE ( 'NONE', #201, #320, #210, .T. ) ;
#196 = FACE_OUTER_BOUND ( 'NONE', #27, .T. ) ;
#197 = DIRECTION ( 'NONE',  ( 0.0000000000000000000, 0.0000000000000000000, 1.000000000000000000 ) ) ;
#198 = EDGE_CURVE ( 'NONE', #57, #56, #182, .T. ) ;
#199 = DIRECTION ( 'NONE',  ( 0.0000000000000000000, 0.0000000000000000000, -1.000000000000000000 ) ) ;
#200 = DIRECTION ( 'NONE',  ( -0.0000000000000000000, -0.0000000000000000000, -1.000000000000000000 ) ) ;
#201 = VERTEX_POINT ( 'NONE', #39 ) ;
#202 = AXIS2_PLACEMENT_3D ( 'NONE', #213, #84, #143 ) ;
#203 = AXIS2_PLACEMENT_3D ( 'NONE', #235, #80, #136 ) ;
#204 = FACE_OUTER_BOUND ( 'NONE', #175, .T. ) ;
#205 = ORIENTED_EDGE ( 'NONE', *, *, #59, .F. ) ;
#206 = FACE_OUTER_BOUND ( 'NONE', #52, .T. ) ;
#207 = ORIENTED_EDGE ( 'NONE', *, *, #221, .T. ) ;
#208 = PRODUCT_CONTEXT ( 'NONE', #289, 'mechanical' ) ;
#209 = EDGE_CURVE ( 'NONE', #201, #262, #147, .T. ) ;
#210 = CIRCLE ( 'NONE', #234, 0.04405500000000001082 ) ;
#211 = AXIS2_PLACEMENT_3D ( 'NONE', #122, #293, #224 ) ;
#212 = APPLICATION_PROTOCOL_DEFINITION ( 'draft international standard', 'automotive_design', 1998, #289 ) ;
#213 = CARTESIAN_POINT ( 'NONE',  ( 0.0000000000000000000, 0.0000000000000000000, 1.496062999999999921 ) ) ;
#214 = ORIENTED_EDGE ( 'NONE', *, *, #221, .F. ) ;
#215 = ORIENTED_EDGE ( 'NONE', *, *, #186, .F. ) ;
#216 = DIRECTION ( 'NONE',  ( -1.224646799147352961E-16, -0.0000000000000000000, -1.000000000000000000 ) ) ;
#217 = CARTESIAN_POINT ( 'NONE',  ( 7.236265475862304269E-17, 0.0000000000000000000, 0.5908859175478575754 ) ) ;
#218 = ADVANCED_FACE ( 'NONE', ( #167 ), #128, .T. ) ;
#219 = DIRECTION ( 'NONE',  ( 1.000000000000000000, 0.0000000000000000000, 0.0000000000000000000 ) ) ;
#220 = CARTESIAN_POINT ( 'NONE',  ( -0.05905499999999998251, 0.0000000000000000000, 1.496062999999999921 ) ) ;
#221 = EDGE_CURVE ( 'NONE', #254, #230, #92, .T. ) ;
#222 = LINE ( 'NONE', #71, #54 ) ;
#223 = AXIS2_PLACEMENT_3D ( 'NONE', #174, #200, #103 ) ;
#224 = DIRECTION ( 'NONE',  ( -1.000000000000000000, 0.0000000000000000000, 0.0000000000000000000 ) ) ;
#225 = PRESENTATION_LAYER_ASSIGNMENT (  '', '', ( #245 ) ) ;
#226 = CYLINDRICAL_SURFACE ( 'NONE', #168, 0.05899594499999997327 ) ;
#227 = CARTESIAN_POINT ( 'NONE',  ( -0.05905499999999998251, 0.0000000000000000000, 1.481063000000000240 ) ) ;
#228 = EDGE_LOOP ( 'NONE', ( #236, #256, #214 ) ) ;
#229 =( NAMED_UNIT ( * ) SI_UNIT ( $, .STERADIAN. ) SOLID_ANGLE_UNIT ( ) );
#230 = VERTEX_POINT ( 'NONE', #322 ) ;
#231 = DIRECTION ( 'NONE',  ( 1.000000000000000000, 0.0000000000000000000, 0.0000000000000000000 ) ) ;
#232 = EDGE_CURVE ( 'NONE', #78, #230, #138, .T. ) ;
#233 = COLOUR_RGB ( '',0.7921568627450980005, 0.8196078431372548767, 0.9333333333333333481 ) ;
#234 = AXIS2_PLACEMENT_3D ( 'NONE', #16, #197, #169 ) ;
#235 = CARTESIAN_POINT ( 'NONE',  ( 0.0000000000000000000, 0.0000000000000000000, 0.0000000000000000000 ) ) ;
#236 = ORIENTED_EDGE ( 'NONE', *, *, #284, .F. ) ;
#237 =( NAMED_UNIT ( * ) SI_UNIT ( $, .STERADIAN. ) SOLID_ANGLE_UNIT ( ) );
#238 = LENGTH_MEASURE_WITH_UNIT ( LENGTH_MEASURE( 0.02539999999999999897 ), #32 );
#239 = DIRECTION ( 'NONE',  ( 1.000000000000000000, 0.0000000000000000000, 0.0000000000000000000 ) ) ;
#240 = AXIS2_PLACEMENT_3D ( 'NONE', #266, #94, #172 ) ;
#241 = LINE ( 'NONE', #8, #310 ) ;
#242 = ADVANCED_FACE ( 'NONE', ( #132 ), #316, .T. ) ;
#243 = APPLICATION_CONTEXT ( 'automotive_design' ) ;
#244 = CARTESIAN_POINT ( 'NONE',  ( 0.04405500000000001082, 5.395181473643666598E-18, 1.496062999999999921 ) ) ;
#245 = STYLED_ITEM ( 'NONE', ( #159 ), #45 ) ;
#246 = DIRECTION ( 'NONE',  ( -0.1736481776669319688, 2.126576849575792869E-17, 0.9848077530122077983 ) ) ;
#247 = LINE ( 'NONE', #118, #48 ) ;
#248 = PRODUCT_DEFINITION_CONTEXT ( 'detailed design', #243, 'design' ) ;
#249 = DIRECTION ( 'NONE',  ( 0.1736481776669321631, 0.0000000000000000000, 0.9848077530122076872 ) ) ;
#250 = CLOSED_SHELL ( 'NONE', ( #294, #218, #164, #173, #324, #242, #15, #69, #312, #272, #85 ) ) ;
#251 = CARTESIAN_POINT ( 'NONE',  ( 7.224919520692328148E-18, 0.0000000000000000000, 0.05899594499999999409 ) ) ;
#252 = CIRCLE ( 'NONE', #125, 0.05905499999999998251 ) ;
#253 = DIRECTION ( 'NONE',  ( 0.0000000000000000000, 0.0000000000000000000, -1.000000000000000000 ) ) ;
#254 = VERTEX_POINT ( 'NONE', #127 ) ;
#255 = DIRECTION ( 'NONE',  ( 1.224646799147352961E-16, 0.0000000000000000000, 1.000000000000000000 ) ) ;
#256 = ORIENTED_EDGE ( 'NONE', *, *, #232, .T. ) ;
#257 = DIRECTION ( 'NONE',  ( 1.224646799147352961E-16, 0.0000000000000000000, 1.000000000000000000 ) ) ;
#258 = CARTESIAN_POINT ( 'NONE',  ( 7.232163918832683761E-17, 0.0000000000000000000, 0.5905510000000000481 ) ) ;
#259 = PLANE ( 'NONE',  #202 ) ;
#260 = FILL_AREA_STYLE ('',( #306 ) ) ;
#261 = LENGTH_MEASURE_WITH_UNIT ( LENGTH_MEASURE( 0.02539999999999999897 ), #162 );
#262 = VERTEX_POINT ( 'NONE', #227 ) ;
#263 = PRODUCT ( 'Micro_BEMM-030-3', 'Micro_BEMM-030-3', '', ( #208 ) ) ;
#264 = ORIENTED_EDGE ( 'NONE', *, *, #116, .T. ) ;
#265 = AXIS2_PLACEMENT_3D ( 'NONE', #193, #67, #268 ) ;
#266 = CARTESIAN_POINT ( 'NONE',  ( 7.236265475862304269E-17, 0.0000000000000000000, 0.5908859175478575754 ) ) ;
#267 = CARTESIAN_POINT ( 'NONE',  ( 0.05905500000000004496, 7.232151672364700045E-18, 0.5908859175478575754 ) ) ;
#268 = DIRECTION ( 'NONE',  ( -1.000000000000000000, 0.0000000000000000000, 0.0000000000000000000 ) ) ;
#269 = EDGE_CURVE ( 'NONE', #230, #254, #124, .T. ) ;
#270 = DIRECTION ( 'NONE',  ( 1.000000000000000000, 0.0000000000000000000, 0.0000000000000000000 ) ) ;
#271 = CARTESIAN_POINT ( 'NONE',  ( 7.224919520692328148E-18, 0.0000000000000000000, 0.05899594499999999409 ) ) ;
#272 = ADVANCED_FACE ( 'NONE', ( #206 ), #226, .T. ) ;
#273 = CONICAL_SURFACE ( 'NONE', #265, 0.04405500000000001082, 0.7853981633974570498 ) ;
#274 = DIRECTION ( 'NONE',  ( 0.0000000000000000000, 1.000000000000000000, 0.0000000000000000000 ) ) ;
#275 = ORIENTED_EDGE ( 'NONE', *, *, #65, .F. ) ;
#276 = CONICAL_SURFACE ( 'NONE', #152, 0.05899594499999997327, 0.1745329251994346687 ) ;
#277 = FACE_OUTER_BOUND ( 'NONE', #297, .T. ) ;
#278 = EDGE_CURVE ( 'NONE', #262, #134, #252, .T. ) ;
#279 = ORIENTED_EDGE ( 'NONE', *, *, #126, .T. ) ;
#280 = CARTESIAN_POINT ( 'NONE',  ( 0.04405500000000001082, 6.313666573004179469E-18, 1.496062999999999921 ) ) ;
#281 = AXIS2_PLACEMENT_3D ( 'NONE', #41, #19, #62 ) ;
#282 = SURFACE_SIDE_STYLE ('',( #185 ) ) ;
#283 = EDGE_LOOP ( 'NONE', ( #11, #113, #156, #76 ) ) ;
#284 = EDGE_CURVE ( 'NONE', #78, #254, #21, .T. ) ;
#285 = FILL_AREA_STYLE ('',( #308 ) ) ;
#286 = MECHANICAL_DESIGN_GEOMETRIC_PRESENTATION_REPRESENTATION (  '', ( #100 ), #101 ) ;
#287 = ORIENTED_EDGE ( 'NONE', *, *, #269, .F. ) ;
#288 = SURFACE_STYLE_FILL_AREA ( #260 ) ;
#289 = APPLICATION_CONTEXT ( 'automotive_design' ) ;
#290 = ORIENTED_EDGE ( 'NONE', *, *, #126, .F. ) ;
#291 = LINE ( 'NONE', #244, #298 ) ;
#292 = CONICAL_SURFACE ( 'NONE', #281, 0.04405500000000001082, 0.7853981633974570498 ) ;
#293 = DIRECTION ( 'NONE',  ( -1.224646799147352961E-16, -0.0000000000000000000, -1.000000000000000000 ) ) ;
#294 = ADVANCED_FACE ( 'NONE', ( #277 ), #133, .T. ) ;
#295 = CARTESIAN_POINT ( 'NONE',  ( -0.04405500000000001082, 0.0000000000000000000, 1.496062999999999921 ) ) ;
#296 = CARTESIAN_POINT ( 'NONE',  ( -0.05899594499999990388, 7.228535596528510244E-18, 0.5905510000000000481 ) ) ;
#297 = EDGE_LOOP ( 'NONE', ( #24, #129, #287 ) ) ;
#298 = VECTOR ( 'NONE', #42, 39.37007874015748854 ) ;
#299 = AXIS2_PLACEMENT_3D ( 'NONE', #75, #30, #23 ) ;
#300 = CARTESIAN_POINT ( 'NONE',  ( 0.0000000000000000000, 0.0000000000000000000, 0.0000000000000000000 ) ) ;
#301 = EDGE_LOOP ( 'NONE', ( #117, #131, #5, #165 ) ) ;
#302 = CARTESIAN_POINT ( 'NONE',  ( 0.0000000000000000000, 0.0000000000000000000, 1.481063000000000240 ) ) ;
#303 = AXIS2_PLACEMENT_3D ( 'NONE', #96, #274, #99 ) ;
#304 = ORIENTED_EDGE ( 'NONE', *, *, #1, .T. ) ;
#305 = ORIENTED_EDGE ( 'NONE', *, *, #18, .T. ) ;
#306 = FILL_AREA_STYLE_COLOUR ( '', #233 ) ;
#307 = SURFACE_STYLE_USAGE ( .BOTH. , #282 ) ;
#308 = FILL_AREA_STYLE_COLOUR ( '', #73 ) ;
#309 = FACE_OUTER_BOUND ( 'NONE', #283, .T. ) ;
#310 = VECTOR ( 'NONE', #216, 39.37007874015748143 ) ;
#311 = CARTESIAN_POINT ( 'NONE',  ( 7.224919520692328148E-18, 0.0000000000000000000, 0.05899594499999999409 ) ) ;
#312 = ADVANCED_FACE ( 'NONE', ( #204 ), #166, .T. ) ;
#313 = LINE ( 'NONE', #17, #144 ) ;
#314 = CARTESIAN_POINT ( 'NONE',  ( 0.05899594500000004266, 0.0000000000000000000, 0.5905510000000000481 ) ) ;
#315 =( GEOMETRIC_REPRESENTATION_CONTEXT ( 3 ) GLOBAL_UNCERTAINTY_ASSIGNED_CONTEXT ( ( #146 ) ) GLOBAL_UNIT_ASSIGNED_CONTEXT ( ( #2, #187, #237 ) ) REPRESENTATION_CONTEXT ( 'NONE', 'WORKASPACE' ) );
#316 = CYLINDRICAL_SURFACE ( 'NONE', #223, 0.05905499999999998251 ) ;
#317 = AXIS2_PLACEMENT_3D ( 'NONE', #90, #192, #123 ) ;
#318 =( NAMED_UNIT ( * ) PLANE_ANGLE_UNIT ( ) SI_UNIT ( $, .RADIAN. ) );
#319 = DIRECTION ( 'NONE',  ( -1.000000000000000000, 0.0000000000000000000, 1.224646799147352714E-16 ) ) ;
#320 = VERTEX_POINT ( 'NONE', #280 ) ;
#321 = DIMENSIONAL_EXPONENTS ( 1.000000000000000000, 0.0000000000000000000, 0.0000000000000000000, 0.0000000000000000000, 0.0000000000000000000, 0.0000000000000000000, 0.0000000000000000000 ) ;
#322 = CARTESIAN_POINT ( 'NONE',  ( 0.05899594499999998021, 7.224919520692326607E-18, 0.05899594499999998715 ) ) ;
#323 = ORIENTED_EDGE ( 'NONE', *, *, #18, .F. ) ;
#324 = ADVANCED_FACE ( 'NONE', ( #47 ), #53, .T. ) ;
#325 = CARTESIAN_POINT ( 'NONE',  ( 7.224919520692328148E-18, 0.0000000000000000000, 0.05899594499999999409 ) ) ;
ENDSEC;
END-ISO-10303-21;
