ISO-10303-21;
HEADER;
FILE_DESCRIPTION (( 'STEP AP214' ),
    '1' );
FILE_NAME ('84383.STEP',
    '2023-06-23T12:36:34',
    ( '' ),
    ( '' ),
    'SwSTEP 2.0',
    'SolidWorks 2023',
    '' );
FILE_SCHEMA (( 'AUTOMOTIVE_DESIGN' ));
ENDSEC;

DATA;
#1 = AXIS2_PLACEMENT_3D ( 'NONE', #255, #275, #227 ) ;
#2 = ORIENTED_EDGE ( 'NONE', *, *, #200, .F. ) ;
#3 = DIRECTION ( 'NONE',  ( -0.000000000000000000, -1.000000000000000000, -0.000000000000000000 ) ) ;
#4 = ORIENTED_EDGE ( 'NONE', *, *, #72, .F. ) ;
#5 = STYLED_ITEM ( 'NONE', ( #215 ), #188 ) ;
#6 = EDGE_LOOP ( 'NONE', ( #241, #165, #29, #20 ) ) ;
#7 = PRESENTATION_LAYER_ASSIGNMENT (  '', '', ( #304 ) ) ;
#8 = CARTESIAN_POINT ( 'NONE',  ( 0.000000000000000000, 0.000000000000000000, -0.06250000000000001388 ) ) ;
#9 = FILL_AREA_STYLE ('',( #121 ) ) ;
#10 = LINE ( 'NONE', #35, #88 ) ;
#11 =( CONVERSION_BASED_UNIT ( 'INCH', #217 ) LENGTH_UNIT ( ) NAMED_UNIT ( #128 ) );
#12 = FILL_AREA_STYLE ('',( #124 ) ) ;
#13 = LENGTH_MEASURE_WITH_UNIT ( LENGTH_MEASURE( 0.02539999999999999897 ), #251 );
#14 =( CONVERSION_BASED_UNIT ( 'INCH', #13 ) LENGTH_UNIT ( ) NAMED_UNIT ( #110 ) );
#15 = LINE ( 'NONE', #100, #221 ) ;
#16 = APPLICATION_CONTEXT ( 'automotive_design' ) ;
#17 =( NAMED_UNIT ( * ) PLANE_ANGLE_UNIT ( ) SI_UNIT ( $, .RADIAN. ) );
#18 = APPLICATION_PROTOCOL_DEFINITION ( 'draft international standard', 'automotive_design', 1998, #16 ) ;
#19 = SURFACE_STYLE_USAGE ( .BOTH. , #281 ) ;
#20 = ORIENTED_EDGE ( 'NONE', *, *, #89, .F. ) ;
#21 = DIRECTION ( 'NONE',  ( -1.000000000000000000, 0.000000000000000000, 0.000000000000000000 ) ) ;
#22 = LINE ( 'NONE', #26, #263 ) ;
#23 = PLANE ( 'NONE',  #43 ) ;
#24 = MECHANICAL_DESIGN_GEOMETRIC_PRESENTATION_REPRESENTATION (  '', ( #256 ), #191 ) ;
#25 = AXIS2_PLACEMENT_3D ( 'NONE', #63, #38, #303 ) ;
#26 = CARTESIAN_POINT ( 'NONE',  ( -0.06250000000000009714, 2.000000000000000000, 0.000000000000000000 ) ) ;
#27 = FILL_AREA_STYLE ('',( #137 ) ) ;
#28 = DIRECTION ( 'NONE',  ( -0.000000000000000000, -1.000000000000000000, -0.000000000000000000 ) ) ;
#29 = ORIENTED_EDGE ( 'NONE', *, *, #213, .F. ) ;
#30 = ADVANCED_BREP_SHAPE_REPRESENTATION ( '84383', ( #233, #238, #298 ), #300 ) ;
#31 = DIRECTION ( 'NONE',  ( 0.000000000000000000, 0.000000000000000000, -1.000000000000000000 ) ) ;
#32 = FACE_OUTER_BOUND ( 'NONE', #80, .T. ) ;
#33 = SURFACE_STYLE_USAGE ( .BOTH. , #242 ) ;
#34 = STYLED_ITEM ( 'NONE', ( #294 ), #238 ) ;
#35 = CARTESIAN_POINT ( 'NONE',  ( 7.654042494670959086E-18, 0.000000000000000000, 0.06250000000000001388 ) ) ;
#36 = DIRECTION ( 'NONE',  ( -1.000000000000000000, 0.000000000000000000, 0.000000000000000000 ) ) ;
#37 = COLOUR_RGB ( '',1.000000000000000000, 0.000000000000000000, 0.000000000000000000 ) ;
#38 = DIRECTION ( 'NONE',  ( 3.768143997376475057E-17, -1.000000000000000000, 0.000000000000000000 ) ) ;
#39 =( NAMED_UNIT ( * ) PLANE_ANGLE_UNIT ( ) SI_UNIT ( $, .RADIAN. ) );
#40 = SURFACE_SIDE_STYLE ('',( #228 ) ) ;
#41 = UNCERTAINTY_MEASURE_WITH_UNIT (LENGTH_MEASURE( 1.000000000000000082E-05 ), #11, 'distance_accuracy_value', 'NONE');
#42 = ADVANCED_FACE ( 'NONE', ( #32 ), #301, .T. ) ;
#43 = AXIS2_PLACEMENT_3D ( 'NONE', #211, #92, #187 ) ;
#44 = COLOUR_RGB ( '',1.000000000000000000, 0.000000000000000000, 0.000000000000000000 ) ;
#45 = DIRECTION ( 'NONE',  ( 0.000000000000000000, 0.000000000000000000, 1.000000000000000000 ) ) ;
#46 = EDGE_LOOP ( 'NONE', ( #140, #285 ) ) ;
#47 = DIRECTION ( 'NONE',  ( 0.000000000000000000, 0.000000000000000000, -1.000000000000000000 ) ) ;
#48 =( GEOMETRIC_REPRESENTATION_CONTEXT ( 3 ) GLOBAL_UNCERTAINTY_ASSIGNED_CONTEXT ( ( #111 ) ) GLOBAL_UNIT_ASSIGNED_CONTEXT ( ( #171, #180, #84 ) ) REPRESENTATION_CONTEXT ( 'NONE', 'WORKASPACE' ) );
#49 = DIRECTION ( 'NONE',  ( -3.768143997376475057E-17, 1.000000000000000000, -0.000000000000000000 ) ) ;
#50 = CARTESIAN_POINT ( 'NONE',  ( 0.000000000000000000, 0.3750000000000000555, 0.000000000000000000 ) ) ;
#51 = AXIS2_PLACEMENT_3D ( 'NONE', #175, #280, #67 ) ;
#52 = CARTESIAN_POINT ( 'NONE',  ( -6.123233995736772199E-17, 2.000000000000000000, 0.000000000000000000 ) ) ;
#53 = SURFACE_SIDE_STYLE ('',( #240 ) ) ;
#54 = DIRECTION ( 'NONE',  ( -0.000000000000000000, -1.000000000000000000, -0.000000000000000000 ) ) ;
#55 = SURFACE_SIDE_STYLE ('',( #145 ) ) ;
#56 = CARTESIAN_POINT ( 'NONE',  ( 0.000000000000000000, 0.3750000000000000555, 0.000000000000000000 ) ) ;
#57 = ORIENTED_EDGE ( 'NONE', *, *, #72, .T. ) ;
#58 = UNCERTAINTY_MEASURE_WITH_UNIT (LENGTH_MEASURE( 1.000000000000000082E-05 ), #293, 'distance_accuracy_value', 'NONE');
#59 =( NAMED_UNIT ( * ) SI_UNIT ( $, .STERADIAN. ) SOLID_ANGLE_UNIT ( ) );
#60 = PRODUCT_DEFINITION_CONTEXT ( 'detailed design', #16, 'design' ) ;
#61 = DIRECTION ( 'NONE',  ( -0.000000000000000000, -1.000000000000000000, -0.000000000000000000 ) ) ;
#62 = SURFACE_STYLE_USAGE ( .BOTH. , #166 ) ;
#63 = CARTESIAN_POINT ( 'NONE',  ( 0.06250000000000000000, 2.000000000000000000, 0.000000000000000000 ) ) ;
#64 = PRODUCT_CONTEXT ( 'NONE', #296, 'mechanical' ) ;
#65 = PRESENTATION_LAYER_ASSIGNMENT (  '', '', ( #85 ) ) ;
#66 = DIMENSIONAL_EXPONENTS ( 1.000000000000000000, 0.000000000000000000, 0.000000000000000000, 0.000000000000000000, 0.000000000000000000, 0.000000000000000000, 0.000000000000000000 ) ;
#67 = DIRECTION ( 'NONE',  ( 0.000000000000000000, 0.000000000000000000, -1.000000000000000000 ) ) ;
#68 = MECHANICAL_DESIGN_GEOMETRIC_PRESENTATION_REPRESENTATION (  '', ( #34 ), #141 ) ;
#69 = FILL_AREA_STYLE_COLOUR ( '', #290 ) ;
#70 = ORIENTED_EDGE ( 'NONE', *, *, #210, .F. ) ;
#71 = PRODUCT ( '84383', '84383', '', ( #64 ) ) ;
#72 = EDGE_CURVE ( 'NONE', #147, #271, #283, .T. ) ;
#73 = DIRECTION ( 'NONE',  ( -3.768143997376475057E-17, 1.000000000000000000, -0.000000000000000000 ) ) ;
#74 = ORIENTED_EDGE ( 'NONE', *, *, #200, .T. ) ;
#75 = FILL_AREA_STYLE_COLOUR ( '', #44 ) ;
#76 = ADVANCED_FACE ( 'NONE', ( #220 ), #96, .T. ) ;
#77 = SURFACE_STYLE_USAGE ( .BOTH. , #53 ) ;
#78 = LENGTH_MEASURE_WITH_UNIT ( LENGTH_MEASURE( 0.02539999999999999897 ), #163 );
#79 = VERTEX_POINT ( 'NONE', #157 ) ;
#80 = EDGE_LOOP ( 'NONE', ( #125, #57, #197, #2 ) ) ;
#81 = CIRCLE ( 'NONE', #257, 0.06250000000000001388 ) ;
#82 =( NAMED_UNIT ( * ) SI_UNIT ( $, .STERADIAN. ) SOLID_ANGLE_UNIT ( ) );
#83 = FACE_OUTER_BOUND ( 'NONE', #189, .T. ) ;
#84 =( NAMED_UNIT ( * ) SI_UNIT ( $, .STERADIAN. ) SOLID_ANGLE_UNIT ( ) );
#85 = STYLED_ITEM ( 'NONE', ( #306 ), #193 ) ;
#86 =( NAMED_UNIT ( * ) SI_UNIT ( $, .STERADIAN. ) SOLID_ANGLE_UNIT ( ) );
#87 =( LENGTH_UNIT ( ) NAMED_UNIT ( * ) SI_UNIT ( $, .METRE. ) );
#88 = VECTOR ( 'NONE', #198, 39.37007874015748143 ) ;
#89 = EDGE_CURVE ( 'NONE', #186, #194, #234, .T. ) ;
#90 = EDGE_CURVE ( 'NONE', #271, #147, #309, .T. ) ;
#91 = CIRCLE ( 'NONE', #131, 0.06250000000000000000 ) ;
#92 = DIRECTION ( 'NONE',  ( -3.768143997376475057E-17, 1.000000000000000000, 0.000000000000000000 ) ) ;
#93 = VERTEX_POINT ( 'NONE', #262 ) ;
#94 = ORIENTED_EDGE ( 'NONE', *, *, #213, .T. ) ;
#95 =( NAMED_UNIT ( * ) PLANE_ANGLE_UNIT ( ) SI_UNIT ( $, .RADIAN. ) );
#96 = CYLINDRICAL_SURFACE ( 'NONE', #225, 0.06250000000000001388 ) ;
#97 = CLOSED_SHELL ( 'NONE', ( #188, #193, #76, #142 ) ) ;
#98 = STYLED_ITEM ( 'NONE', ( #148 ), #233 ) ;
#99 = DIRECTION ( 'NONE',  ( 0.000000000000000000, 1.000000000000000000, 0.000000000000000000 ) ) ;
#100 = CARTESIAN_POINT ( 'NONE',  ( 0.06249999999999997224, 2.000000000000000000, 7.654042494670960626E-18 ) ) ;
#101 = EDGE_LOOP ( 'NONE', ( #94, #164 ) ) ;
#102 = DIMENSIONAL_EXPONENTS ( 1.000000000000000000, 0.000000000000000000, 0.000000000000000000, 0.000000000000000000, 0.000000000000000000, 0.000000000000000000, 0.000000000000000000 ) ;
#103 = ORIENTED_EDGE ( 'NONE', *, *, #90, .F. ) ;
#104 = DIRECTION ( 'NONE',  ( -3.768143997376475057E-17, 1.000000000000000000, -0.000000000000000000 ) ) ;
#105 =( LENGTH_UNIT ( ) NAMED_UNIT ( * ) SI_UNIT ( $, .METRE. ) );
#106 = CARTESIAN_POINT ( 'NONE',  ( 0.000000000000000000, 0.000000000000000000, 0.000000000000000000 ) ) ;
#107 = CARTESIAN_POINT ( 'NONE',  ( 7.654042494670959086E-18, 0.3750000000000000555, 0.06250000000000000000 ) ) ;
#108 =( NAMED_UNIT ( * ) SI_UNIT ( $, .STERADIAN. ) SOLID_ANGLE_UNIT ( ) );
#109 =( NAMED_UNIT ( * ) PLANE_ANGLE_UNIT ( ) SI_UNIT ( $, .RADIAN. ) );
#110 = DIMENSIONAL_EXPONENTS ( 1.000000000000000000, 0.000000000000000000, 0.000000000000000000, 0.000000000000000000, 0.000000000000000000, 0.000000000000000000, 0.000000000000000000 ) ;
#111 = UNCERTAINTY_MEASURE_WITH_UNIT (LENGTH_MEASURE( 1.000000000000000082E-05 ), #171, 'distance_accuracy_value', 'NONE');
#112 =( CONVERSION_BASED_UNIT ( 'INCH', #204 ) LENGTH_UNIT ( ) NAMED_UNIT ( #66 ) );
#113 = EDGE_CURVE ( 'NONE', #186, #292, #130, .T. ) ;
#114 = CLOSED_SHELL ( 'NONE', ( #172, #138, #42, #219 ) ) ;
#115 = AXIS2_PLACEMENT_3D ( 'NONE', #284, #99, #267 ) ;
#116 = PLANE ( 'NONE',  #51 ) ;
#117 = EDGE_LOOP ( 'NONE', ( #126, #258, #268, #205 ) ) ;
#118 = FILL_AREA_STYLE_COLOUR ( '', #209 ) ;
#119 = FACE_OUTER_BOUND ( 'NONE', #252, .T. ) ;
#120 = SURFACE_STYLE_FILL_AREA ( #27 ) ;
#121 = FILL_AREA_STYLE_COLOUR ( '', #168 ) ;
#122 = CARTESIAN_POINT ( 'NONE',  ( 0.000000000000000000, 0.3749999999999999445, 0.000000000000000000 ) ) ;
#123 = DIMENSIONAL_EXPONENTS ( 1.000000000000000000, 0.000000000000000000, 0.000000000000000000, 0.000000000000000000, 0.000000000000000000, 0.000000000000000000, 0.000000000000000000 ) ;
#124 = FILL_AREA_STYLE_COLOUR ( '', #37 ) ;
#125 = ORIENTED_EDGE ( 'NONE', *, *, #249, .F. ) ;
#126 = ORIENTED_EDGE ( 'NONE', *, *, #254, .F. ) ;
#127 = VECTOR ( 'NONE', #261, 39.37007874015748143 ) ;
#128 = DIMENSIONAL_EXPONENTS ( 1.000000000000000000, 0.000000000000000000, 0.000000000000000000, 0.000000000000000000, 0.000000000000000000, 0.000000000000000000, 0.000000000000000000 ) ;
#129 = PLANE ( 'NONE',  #25 ) ;
#130 = CIRCLE ( 'NONE', #167, 0.06250000000000000000 ) ;
#131 = AXIS2_PLACEMENT_3D ( 'NONE', #56, #54, #31 ) ;
#132 = DIRECTION ( 'NONE',  ( 0.000000000000000000, 0.000000000000000000, -1.000000000000000000 ) ) ;
#133 =( GEOMETRIC_REPRESENTATION_CONTEXT ( 3 ) GLOBAL_UNCERTAINTY_ASSIGNED_CONTEXT ( ( #58 ) ) GLOBAL_UNIT_ASSIGNED_CONTEXT ( ( #293, #95, #82 ) ) REPRESENTATION_CONTEXT ( 'NONE', 'WORKASPACE' ) );
#134 = PRODUCT_RELATED_PRODUCT_CATEGORY ( 'part', '', ( #71 ) ) ;
#135 = DIRECTION ( 'NONE',  ( -0.000000000000000000, -1.000000000000000000, -0.000000000000000000 ) ) ;
#136 = ORIENTED_EDGE ( 'NONE', *, *, #295, .F. ) ;
#137 = FILL_AREA_STYLE_COLOUR ( '', #208 ) ;
#138 = ADVANCED_FACE ( 'NONE', ( #119 ), #23, .F. ) ;
#139 = DIRECTION ( 'NONE',  ( -3.768143997376475057E-17, 1.000000000000000000, -0.000000000000000000 ) ) ;
#140 = ORIENTED_EDGE ( 'NONE', *, *, #113, .F. ) ;
#141 =( GEOMETRIC_REPRESENTATION_CONTEXT ( 3 ) GLOBAL_UNCERTAINTY_ASSIGNED_CONTEXT ( ( #218 ) ) GLOBAL_UNIT_ASSIGNED_CONTEXT ( ( #246, #224, #173 ) ) REPRESENTATION_CONTEXT ( 'NONE', 'WORKASPACE' ) );
#142 = ADVANCED_FACE ( 'NONE', ( #159 ), #116, .T. ) ;
#143 = LENGTH_MEASURE_WITH_UNIT ( LENGTH_MEASURE( 0.02539999999999999897 ), #269 );
#144 =( LENGTH_UNIT ( ) NAMED_UNIT ( * ) SI_UNIT ( $, .METRE. ) );
#145 = SURFACE_STYLE_FILL_AREA ( #9 ) ;
#146 = UNCERTAINTY_MEASURE_WITH_UNIT (LENGTH_MEASURE( 1.000000000000000082E-05 ), #14, 'distance_accuracy_value', 'NONE');
#147 = VERTEX_POINT ( 'NONE', #153 ) ;
#148 = PRESENTATION_STYLE_ASSIGNMENT (( #248 ) ) ;
#149 = LENGTH_MEASURE_WITH_UNIT ( LENGTH_MEASURE( 0.02539999999999999897 ), #87 );
#150 = AXIS2_PLACEMENT_3D ( 'NONE', #244, #139, #36 ) ;
#151 = AXIS2_PLACEMENT_3D ( 'NONE', #160, #28, #223 ) ;
#152 = SURFACE_STYLE_FILL_AREA ( #206 ) ;
#153 = CARTESIAN_POINT ( 'NONE',  ( 0.06250000000000000000, 0.3749999999999999445, 7.654042494670963708E-18 ) ) ;
#154 = PRESENTATION_LAYER_ASSIGNMENT (  '', '', ( #256 ) ) ;
#155 = DIRECTION ( 'NONE',  ( 1.000000000000000000, 0.000000000000000000, 0.000000000000000000 ) ) ;
#156 =( GEOMETRIC_REPRESENTATION_CONTEXT ( 3 ) GLOBAL_UNCERTAINTY_ASSIGNED_CONTEXT ( ( #245 ) ) GLOBAL_UNIT_ASSIGNED_CONTEXT ( ( #112, #39, #274 ) ) REPRESENTATION_CONTEXT ( 'NONE', 'WORKASPACE' ) );
#157 = CARTESIAN_POINT ( 'NONE',  ( 7.654042494670960626E-18, 0.000000000000000000, 0.06250000000000002776 ) ) ;
#158 = CARTESIAN_POINT ( 'NONE',  ( 0.000000000000000000, 0.000000000000000000, -0.06250000000000001388 ) ) ;
#159 = FACE_OUTER_BOUND ( 'NONE', #101, .T. ) ;
#160 = CARTESIAN_POINT ( 'NONE',  ( 0.000000000000000000, 0.000000000000000000, 0.000000000000000000 ) ) ;
#161 = AXIS2_PLACEMENT_3D ( 'NONE', #52, #49, #229 ) ;
#162 = DIRECTION ( 'NONE',  ( -1.000000000000000000, 0.000000000000000000, 0.000000000000000000 ) ) ;
#163 =( LENGTH_UNIT ( ) NAMED_UNIT ( * ) SI_UNIT ( $, .METRE. ) );
#164 = ORIENTED_EDGE ( 'NONE', *, *, #278, .T. ) ;
#165 = ORIENTED_EDGE ( 'NONE', *, *, #254, .T. ) ;
#166 = SURFACE_SIDE_STYLE ('',( #152 ) ) ;
#167 = AXIS2_PLACEMENT_3D ( 'NONE', #50, #135, #47 ) ;
#168 = COLOUR_RGB ( '',0.7921568627450980005, 0.8196078431372548767, 0.9333333333333333481 ) ;
#169 = UNCERTAINTY_MEASURE_WITH_UNIT (LENGTH_MEASURE( 1.000000000000000082E-05 ), #266, 'distance_accuracy_value', 'NONE');
#170 = CYLINDRICAL_SURFACE ( 'NONE', #1, 0.06250000000000002776 ) ;
#171 =( CONVERSION_BASED_UNIT ( 'INCH', #149 ) LENGTH_UNIT ( ) NAMED_UNIT ( #302 ) );
#172 = ADVANCED_FACE ( 'NONE', ( #307 ), #170, .T. ) ;
#173 =( NAMED_UNIT ( * ) SI_UNIT ( $, .STERADIAN. ) SOLID_ANGLE_UNIT ( ) );
#174 = PRODUCT_DEFINITION_SHAPE ( 'NONE', 'NONE',  #230 ) ;
#175 = CARTESIAN_POINT ( 'NONE',  ( 0.000000000000000000, 0.000000000000000000, 0.000000000000000000 ) ) ;
#176 = MECHANICAL_DESIGN_GEOMETRIC_PRESENTATION_REPRESENTATION (  '', ( #304 ), #182 ) ;
#177 = CIRCLE ( 'NONE', #243, 0.06250000000000005551 ) ;
#178 = CYLINDRICAL_SURFACE ( 'NONE', #253, 0.06250000000000001388 ) ;
#179 = DIRECTION ( 'NONE',  ( -3.768143997376475057E-17, 1.000000000000000000, -0.000000000000000000 ) ) ;
#180 =( NAMED_UNIT ( * ) PLANE_ANGLE_UNIT ( ) SI_UNIT ( $, .RADIAN. ) );
#181 = DIRECTION ( 'NONE',  ( 0.000000000000000000, 0.000000000000000000, -1.000000000000000000 ) ) ;
#182 =( GEOMETRIC_REPRESENTATION_CONTEXT ( 3 ) GLOBAL_UNCERTAINTY_ASSIGNED_CONTEXT ( ( #41 ) ) GLOBAL_UNIT_ASSIGNED_CONTEXT ( ( #11, #109, #108 ) ) REPRESENTATION_CONTEXT ( 'NONE', 'WORKASPACE' ) );
#183 = PRESENTATION_LAYER_ASSIGNMENT (  '', '', ( #5 ) ) ;
#184 = PLANE ( 'NONE',  #115 ) ;
#185 = CARTESIAN_POINT ( 'NONE',  ( 0.000000000000000000, 0.000000000000000000, 0.000000000000000000 ) ) ;
#186 = VERTEX_POINT ( 'NONE', #203 ) ;
#187 = DIRECTION ( 'NONE',  ( -1.000000000000000000, -3.768143997376475057E-17, 0.000000000000000000 ) ) ;
#188 = ADVANCED_FACE ( 'NONE', ( #260 ), #178, .T. ) ;
#189 = EDGE_LOOP ( 'NONE', ( #232, #74 ) ) ;
#190 = CARTESIAN_POINT ( 'NONE',  ( 0.000000000000000000, 0.000000000000000000, 0.000000000000000000 ) ) ;
#191 =( GEOMETRIC_REPRESENTATION_CONTEXT ( 3 ) GLOBAL_UNCERTAINTY_ASSIGNED_CONTEXT ( ( #146 ) ) GLOBAL_UNIT_ASSIGNED_CONTEXT ( ( #14, #17, #86 ) ) REPRESENTATION_CONTEXT ( 'NONE', 'WORKASPACE' ) );
#192 =( NAMED_UNIT ( * ) PLANE_ANGLE_UNIT ( ) SI_UNIT ( $, .RADIAN. ) );
#193 = ADVANCED_FACE ( 'NONE', ( #288 ), #184, .T. ) ;
#194 = VERTEX_POINT ( 'NONE', #8 ) ;
#195 = LENGTH_MEASURE_WITH_UNIT ( LENGTH_MEASURE( 0.02539999999999999897 ), #105 );
#196 = DIRECTION ( 'NONE',  ( -3.768143997376475057E-17, 1.000000000000000000, -0.000000000000000000 ) ) ;
#197 = ORIENTED_EDGE ( 'NONE', *, *, #295, .T. ) ;
#198 = DIRECTION ( 'NONE',  ( -0.000000000000000000, -1.000000000000000000, -0.000000000000000000 ) ) ;
#199 = PRESENTATION_LAYER_ASSIGNMENT (  '', '', ( #34 ) ) ;
#200 = EDGE_CURVE ( 'NONE', #264, #93, #231, .T. ) ;
#201 =( LENGTH_UNIT ( ) NAMED_UNIT ( * ) SI_UNIT ( $, .METRE. ) );
#202 = SURFACE_STYLE_USAGE ( .BOTH. , #40 ) ;
#203 = CARTESIAN_POINT ( 'NONE',  ( 0.000000000000000000, 0.3750000000000000555, -0.06250000000000000000 ) ) ;
#204 = LENGTH_MEASURE_WITH_UNIT ( LENGTH_MEASURE( 0.02539999999999999897 ), #201 );
#205 = ORIENTED_EDGE ( 'NONE', *, *, #278, .F. ) ;
#206 = FILL_AREA_STYLE ('',( #118 ) ) ;
#207 = SHAPE_DEFINITION_REPRESENTATION ( #174, #30 ) ;
#208 = COLOUR_RGB ( '',1.000000000000000000, 0.000000000000000000, 0.000000000000000000 ) ;
#209 = COLOUR_RGB ( '',0.7921568627450980005, 0.8196078431372548767, 0.9333333333333333481 ) ;
#210 = EDGE_CURVE ( 'NONE', #93, #264, #177, .T. ) ;
#211 = CARTESIAN_POINT ( 'NONE',  ( 4.437159120301362840E-35, 0.3750000000000000555, 0.000000000000000000 ) ) ;
#212 = DIRECTION ( 'NONE',  ( 0.000000000000000000, 0.000000000000000000, -1.000000000000000000 ) ) ;
#213 = EDGE_CURVE ( 'NONE', #194, #79, #226, .T. ) ;
#214 = MECHANICAL_DESIGN_GEOMETRIC_PRESENTATION_REPRESENTATION (  '', ( #5 ), #133 ) ;
#215 = PRESENTATION_STYLE_ASSIGNMENT (( #33 ) ) ;
#216 = SURFACE_STYLE_FILL_AREA ( #289 ) ;
#217 = LENGTH_MEASURE_WITH_UNIT ( LENGTH_MEASURE( 0.02539999999999999897 ), #144 );
#218 = UNCERTAINTY_MEASURE_WITH_UNIT (LENGTH_MEASURE( 1.000000000000000082E-05 ), #246, 'distance_accuracy_value', 'NONE');
#219 = ADVANCED_FACE ( 'NONE', ( #83 ), #129, .F. ) ;
#220 = FACE_OUTER_BOUND ( 'NONE', #117, .T. ) ;
#221 = VECTOR ( 'NONE', #291, 39.37007874015748143 ) ;
#222 = CARTESIAN_POINT ( 'NONE',  ( 0.000000000000000000, 0.000000000000000000, 0.000000000000000000 ) ) ;
#223 = DIRECTION ( 'NONE',  ( 0.000000000000000000, 0.000000000000000000, -1.000000000000000000 ) ) ;
#224 =( NAMED_UNIT ( * ) PLANE_ANGLE_UNIT ( ) SI_UNIT ( $, .RADIAN. ) );
#225 = AXIS2_PLACEMENT_3D ( 'NONE', #185, #3, #132 ) ;
#226 = CIRCLE ( 'NONE', #151, 0.06250000000000001388 ) ;
#227 = DIRECTION ( 'NONE',  ( -1.000000000000000000, 0.000000000000000000, 0.000000000000000000 ) ) ;
#228 = SURFACE_STYLE_FILL_AREA ( #265 ) ;
#229 = DIRECTION ( 'NONE',  ( -1.000000000000000000, 0.000000000000000000, 0.000000000000000000 ) ) ;
#230 = PRODUCT_DEFINITION ( 'UNKNOWN', '', #237, #60 ) ;
#231 = CIRCLE ( 'NONE', #161, 0.06250000000000005551 ) ;
#232 = ORIENTED_EDGE ( 'NONE', *, *, #210, .T. ) ;
#233 = MANIFOLD_SOLID_BREP ( 'Revolve - Cutting Edge', #97 ) ;
#234 = LINE ( 'NONE', #158, #127 ) ;
#235 = EDGE_LOOP ( 'NONE', ( #287, #247, #70, #136 ) ) ;
#236 = AXIS2_PLACEMENT_3D ( 'NONE', #308, #179, #21 ) ;
#237 = PRODUCT_DEFINITION_FORMATION_WITH_SPECIFIED_SOURCE ( 'ANY', '', #71, .NOT_KNOWN. ) ;
#238 = MANIFOLD_SOLID_BREP ( 'Revolve - Tool Body (Straight Shanked)', #114 ) ;
#239 = CARTESIAN_POINT ( 'NONE',  ( -6.123233995736772199E-17, 2.000000000000000000, 0.000000000000000000 ) ) ;
#240 = SURFACE_STYLE_FILL_AREA ( #12 ) ;
#241 = ORIENTED_EDGE ( 'NONE', *, *, #113, .T. ) ;
#242 = SURFACE_SIDE_STYLE ('',( #216 ) ) ;
#243 = AXIS2_PLACEMENT_3D ( 'NONE', #239, #196, #286 ) ;
#244 = CARTESIAN_POINT ( 'NONE',  ( -6.123233995736772199E-17, 2.000000000000000000, 0.000000000000000000 ) ) ;
#245 = UNCERTAINTY_MEASURE_WITH_UNIT (LENGTH_MEASURE( 1.000000000000000082E-05 ), #112, 'distance_accuracy_value', 'NONE');
#246 =( CONVERSION_BASED_UNIT ( 'INCH', #143 ) LENGTH_UNIT ( ) NAMED_UNIT ( #102 ) );
#247 = ORIENTED_EDGE ( 'NONE', *, *, #249, .T. ) ;
#248 = SURFACE_STYLE_USAGE ( .BOTH. , #55 ) ;
#249 = EDGE_CURVE ( 'NONE', #147, #264, #15, .T. ) ;
#250 = CARTESIAN_POINT ( 'NONE',  ( -0.06250000000000000000, 0.3749999999999999445, 0.000000000000000000 ) ) ;
#251 =( LENGTH_UNIT ( ) NAMED_UNIT ( * ) SI_UNIT ( $, .METRE. ) );
#252 = EDGE_LOOP ( 'NONE', ( #103, #4 ) ) ;
#253 = AXIS2_PLACEMENT_3D ( 'NONE', #190, #273, #212 ) ;
#254 = EDGE_CURVE ( 'NONE', #292, #79, #10, .T. ) ;
#255 = CARTESIAN_POINT ( 'NONE',  ( -6.123233995736772199E-17, 2.000000000000000000, 0.000000000000000000 ) ) ;
#256 = STYLED_ITEM ( 'NONE', ( #282 ), #142 ) ;
#257 = AXIS2_PLACEMENT_3D ( 'NONE', #222, #61, #181 ) ;
#258 = ORIENTED_EDGE ( 'NONE', *, *, #272, .T. ) ;
#259 = MECHANICAL_DESIGN_GEOMETRIC_PRESENTATION_REPRESENTATION (  '', ( #85 ), #48 ) ;
#260 = FACE_OUTER_BOUND ( 'NONE', #6, .T. ) ;
#261 = DIRECTION ( 'NONE',  ( -0.000000000000000000, -1.000000000000000000, -0.000000000000000000 ) ) ;
#262 = CARTESIAN_POINT ( 'NONE',  ( -0.06250000000000012490, 2.000000000000000000, 0.000000000000000000 ) ) ;
#263 = VECTOR ( 'NONE', #73, 39.37007874015748143 ) ;
#264 = VERTEX_POINT ( 'NONE', #299 ) ;
#265 = FILL_AREA_STYLE ('',( #75 ) ) ;
#266 =( CONVERSION_BASED_UNIT ( 'INCH', #78 ) LENGTH_UNIT ( ) NAMED_UNIT ( #123 ) );
#267 = DIRECTION ( 'NONE',  ( 0.000000000000000000, -0.000000000000000000, 1.000000000000000000 ) ) ;
#268 = ORIENTED_EDGE ( 'NONE', *, *, #89, .T. ) ;
#269 =( LENGTH_UNIT ( ) NAMED_UNIT ( * ) SI_UNIT ( $, .METRE. ) );
#270 = AXIS2_PLACEMENT_3D ( 'NONE', #122, #104, #162 ) ;
#271 = VERTEX_POINT ( 'NONE', #250 ) ;
#272 = EDGE_CURVE ( 'NONE', #292, #186, #91, .T. ) ;
#273 = DIRECTION ( 'NONE',  ( -0.000000000000000000, -1.000000000000000000, -0.000000000000000000 ) ) ;
#274 =( NAMED_UNIT ( * ) SI_UNIT ( $, .STERADIAN. ) SOLID_ANGLE_UNIT ( ) );
#275 = DIRECTION ( 'NONE',  ( -3.768143997376475057E-17, 1.000000000000000000, -0.000000000000000000 ) ) ;
#276 = APPLICATION_PROTOCOL_DEFINITION ( 'draft international standard', 'automotive_design', 1998, #296 ) ;
#277 = DIMENSIONAL_EXPONENTS ( 1.000000000000000000, 0.000000000000000000, 0.000000000000000000, 0.000000000000000000, 0.000000000000000000, 0.000000000000000000, 0.000000000000000000 ) ;
#278 = EDGE_CURVE ( 'NONE', #79, #194, #81, .T. ) ;
#279 = MECHANICAL_DESIGN_GEOMETRIC_PRESENTATION_REPRESENTATION (  '', ( #98 ), #156 ) ;
#280 = DIRECTION ( 'NONE',  ( 0.000000000000000000, -1.000000000000000000, -0.000000000000000000 ) ) ;
#281 = SURFACE_SIDE_STYLE ('',( #120 ) ) ;
#282 = PRESENTATION_STYLE_ASSIGNMENT (( #19 ) ) ;
#283 = CIRCLE ( 'NONE', #270, 0.06250000000000000000 ) ;
#284 = CARTESIAN_POINT ( 'NONE',  ( 0.000000000000000000, 0.3750000000000000555, 0.000000000000000000 ) ) ;
#285 = ORIENTED_EDGE ( 'NONE', *, *, #272, .F. ) ;
#286 = DIRECTION ( 'NONE',  ( -1.000000000000000000, 0.000000000000000000, 0.000000000000000000 ) ) ;
#287 = ORIENTED_EDGE ( 'NONE', *, *, #90, .T. ) ;
#288 = FACE_OUTER_BOUND ( 'NONE', #46, .T. ) ;
#289 = FILL_AREA_STYLE ('',( #69 ) ) ;
#290 = COLOUR_RGB ( '',1.000000000000000000, 0.000000000000000000, 0.000000000000000000 ) ;
#291 = DIRECTION ( 'NONE',  ( -3.768143997376475057E-17, 1.000000000000000000, -0.000000000000000000 ) ) ;
#292 = VERTEX_POINT ( 'NONE', #107 ) ;
#293 =( CONVERSION_BASED_UNIT ( 'INCH', #195 ) LENGTH_UNIT ( ) NAMED_UNIT ( #277 ) );
#294 = PRESENTATION_STYLE_ASSIGNMENT (( #62 ) ) ;
#295 = EDGE_CURVE ( 'NONE', #271, #93, #22, .T. ) ;
#296 = APPLICATION_CONTEXT ( 'automotive_design' ) ;
#297 = PRESENTATION_STYLE_ASSIGNMENT (( #77 ) ) ;
#298 = AXIS2_PLACEMENT_3D ( 'NONE', #106, #45, #155 ) ;
#299 = CARTESIAN_POINT ( 'NONE',  ( 0.06250000000000000000, 2.000000000000000000, 7.654042494670963708E-18 ) ) ;
#300 =( GEOMETRIC_REPRESENTATION_CONTEXT ( 3 ) GLOBAL_UNCERTAINTY_ASSIGNED_CONTEXT ( ( #169 ) ) GLOBAL_UNIT_ASSIGNED_CONTEXT ( ( #266, #192, #59 ) ) REPRESENTATION_CONTEXT ( 'NONE', 'WORKASPACE' ) );
#301 = CYLINDRICAL_SURFACE ( 'NONE', #150, 0.06250000000000002776 ) ;
#302 = DIMENSIONAL_EXPONENTS ( 1.000000000000000000, 0.000000000000000000, 0.000000000000000000, 0.000000000000000000, 0.000000000000000000, 0.000000000000000000, 0.000000000000000000 ) ;
#303 = DIRECTION ( 'NONE',  ( 1.000000000000000000, 3.768143997376475057E-17, 0.000000000000000000 ) ) ;
#304 = STYLED_ITEM ( 'NONE', ( #297 ), #76 ) ;
#305 = PRESENTATION_LAYER_ASSIGNMENT (  '', '', ( #98 ) ) ;
#306 = PRESENTATION_STYLE_ASSIGNMENT (( #202 ) ) ;
#307 = FACE_OUTER_BOUND ( 'NONE', #235, .T. ) ;
#308 = CARTESIAN_POINT ( 'NONE',  ( 0.000000000000000000, 0.3749999999999999445, 0.000000000000000000 ) ) ;
#309 = CIRCLE ( 'NONE', #236, 0.06250000000000000000 ) ;
ENDSEC;
END-ISO-10303-21;
