ISO-10303-21;
HEADER;
FILE_DESCRIPTION (( 'STEP AP214' ),
    '1' );
FILE_NAME ('Micro_DMM-030-490X.STEP',
    '2021-09-02T16:16:01',
    ( '' ),
    ( '' ),
    'SwSTEP 2.0',
    'SolidWorks 2020',
    '' );
FILE_SCHEMA (( 'AUTOMOTIVE_DESIGN' ));
ENDSEC;

DATA;
#1 = EDGE_CURVE ( 'NONE', #148, #194, #137, .T. ) ;
#2 = ORIENTED_EDGE ( 'NONE', *, *, #228, .F. ) ;
#3 = EDGE_CURVE ( 'NONE', #151, #327, #315, .T. ) ;
#4 = CONICAL_SURFACE ( 'NONE', #317, 0.007499999999999999722, 0.7853981633974504994 ) ;
#5 = ORIENTED_EDGE ( 'NONE', *, *, #174, .F. ) ;
#6 = EDGE_CURVE ( 'NONE', #327, #122, #292, .T. ) ;
#7 = DIMENSIONAL_EXPONENTS ( 1.000000000000000000, 0.0000000000000000000, 0.0000000000000000000, 0.0000000000000000000, 0.0000000000000000000, 0.0000000000000000000, 0.0000000000000000000 ) ;
#8 = DIRECTION ( 'NONE',  ( 0.7071067811865536790, 8.659560562355008046E-17, -0.7071067811865412445 ) ) ;
#9 = CARTESIAN_POINT ( 'NONE',  ( 0.0000000000000000000, 0.0000000000000000000, 1.707404996040164512E-17 ) ) ;
#10 = EDGE_LOOP ( 'NONE', ( #263, #282 ) ) ;
#11 = CARTESIAN_POINT ( 'NONE',  ( 0.05905499999999998251, 7.232151672364692341E-18, 1.496062999999999921 ) ) ;
#12 = DIRECTION ( 'NONE',  ( 0.0000000000000000000, 0.0000000000000000000, 1.000000000000000000 ) ) ;
#13 = AXIS2_PLACEMENT_3D ( 'NONE', #326, #132, #97 ) ;
#14 = DIRECTION ( 'NONE',  ( -1.000000000000000000, 0.0000000000000000000, 0.0000000000000000000 ) ) ;
#15 = CARTESIAN_POINT ( 'NONE',  ( 0.05905499999999998251, 7.232151672364692341E-18, 0.3149610000000000465 ) ) ;
#16 = DIRECTION ( 'NONE',  ( 1.000000000000000000, 0.0000000000000000000, 0.0000000000000000000 ) ) ;
#17 = EDGE_CURVE ( 'NONE', #122, #53, #310, .T. ) ;
#18 = AXIS2_PLACEMENT_3D ( 'NONE', #213, #90, #190 ) ;
#19 = CARTESIAN_POINT ( 'NONE',  ( -0.05905499999999998251, 0.0000000000000000000, 1.481063000000000240 ) ) ;
#20 = EDGE_CURVE ( 'NONE', #166, #307, #186, .T. ) ;
#21 =( CONVERSION_BASED_UNIT ( 'INCH', #77 ) LENGTH_UNIT ( ) NAMED_UNIT ( #241 ) );
#22 =( GEOMETRIC_REPRESENTATION_CONTEXT ( 3 ) GLOBAL_UNCERTAINTY_ASSIGNED_CONTEXT ( ( #35 ) ) GLOBAL_UNIT_ASSIGNED_CONTEXT ( ( #30, #230, #171 ) ) REPRESENTATION_CONTEXT ( 'NONE', 'WORKASPACE' ) );
#23 = ORIENTED_EDGE ( 'NONE', *, *, #1, .T. ) ;
#24 = ADVANCED_FACE ( 'NONE', ( #67 ), #131, .T. ) ;
#25 = CLOSED_SHELL ( 'NONE', ( #269, #107, #287, #264, #197, #100, #37, #60, #184, #24, #124 ) ) ;
#26 = DIRECTION ( 'NONE',  ( 1.000000000000000000, 0.0000000000000000000, 0.0000000000000000000 ) ) ;
#27 = ORIENTED_EDGE ( 'NONE', *, *, #20, .T. ) ;
#28 = APPLICATION_PROTOCOL_DEFINITION ( 'draft international standard', 'automotive_design', 1998, #44 ) ;
#29 = EDGE_LOOP ( 'NONE', ( #38, #280 ) ) ;
#30 =( CONVERSION_BASED_UNIT ( 'INCH', #283 ) LENGTH_UNIT ( ) NAMED_UNIT ( #78 ) );
#31 = ORIENTED_EDGE ( 'NONE', *, *, #299, .F. ) ;
#32 = AXIS2_PLACEMENT_3D ( 'NONE', #244, #109, #242 ) ;
#33 = DIRECTION ( 'NONE',  ( -0.7071067811865490160, 8.659560562354951347E-17, 0.7071067811865459074 ) ) ;
#34 = CYLINDRICAL_SURFACE ( 'NONE', #274, 0.05905499999999998251 ) ;
#35 = UNCERTAINTY_MEASURE_WITH_UNIT (LENGTH_MEASURE( 1.000000000000000082E-05 ), #30, 'distance_accuracy_value', 'NONE');
#36 = CARTESIAN_POINT ( 'NONE',  ( 0.0000000000000000000, 0.0000000000000000000, 0.05150499999999980788 ) ) ;
#37 = ADVANCED_FACE ( 'NONE', ( #42 ), #262, .T. ) ;
#38 = ORIENTED_EDGE ( 'NONE', *, *, #258, .T. ) ;
#39 = PLANE ( 'NONE',  #233 ) ;
#40 = FACE_OUTER_BOUND ( 'NONE', #80, .T. ) ;
#41 = FACE_OUTER_BOUND ( 'NONE', #106, .T. ) ;
#42 = FACE_OUTER_BOUND ( 'NONE', #129, .T. ) ;
#43 = EDGE_CURVE ( 'NONE', #307, #327, #306, .T. ) ;
#44 = APPLICATION_CONTEXT ( 'automotive_design' ) ;
#45 = AXIS2_PLACEMENT_3D ( 'NONE', #69, #187, #14 ) ;
#46 = MECHANICAL_DESIGN_GEOMETRIC_PRESENTATION_REPRESENTATION (  '', ( #108 ), #87 ) ;
#47 = FILL_AREA_STYLE_COLOUR ( '', #70 ) ;
#48 = VECTOR ( 'NONE', #33, 39.37007874015748854 ) ;
#49 = ORIENTED_EDGE ( 'NONE', *, *, #43, .F. ) ;
#50 = DIRECTION ( 'NONE',  ( -1.000000000000000000, 0.0000000000000000000, 0.0000000000000000000 ) ) ;
#51 = EDGE_LOOP ( 'NONE', ( #231, #278, #105, #102 ) ) ;
#52 = VECTOR ( 'NONE', #209, 39.37007874015748854 ) ;
#53 = VERTEX_POINT ( 'NONE', #295 ) ;
#54 = CIRCLE ( 'NONE', #267, 0.04405500000000001082 ) ;
#55 = DIRECTION ( 'NONE',  ( 1.000000000000000000, 0.0000000000000000000, 0.0000000000000000000 ) ) ;
#56 = ORIENTED_EDGE ( 'NONE', *, *, #236, .T. ) ;
#57 = EDGE_CURVE ( 'NONE', #53, #122, #324, .T. ) ;
#58 = DIRECTION ( 'NONE',  ( -1.000000000000000000, 0.0000000000000000000, 0.0000000000000000000 ) ) ;
#59 = CIRCLE ( 'NONE', #239, 0.05900500000000000883 ) ;
#60 = ADVANCED_FACE ( 'NONE', ( #93, #318 ), #218, .T. ) ;
#61 = CARTESIAN_POINT ( 'NONE',  ( 0.05900500000000002271, 0.0000000000000000000, 0.05150499999999980788 ) ) ;
#62 = CARTESIAN_POINT ( 'NONE',  ( 0.0000000000000000000, 0.0000000000000000000, 1.496062999999999921 ) ) ;
#63 = PLANE ( 'NONE',  #88 ) ;
#64 = DIRECTION ( 'NONE',  ( -0.0000000000000000000, -0.0000000000000000000, -1.000000000000000000 ) ) ;
#65 = DIRECTION ( 'NONE',  ( -0.0000000000000000000, 0.0000000000000000000, -1.000000000000000000 ) ) ;
#66 = CARTESIAN_POINT ( 'NONE',  ( 0.05900500000000007822, 7.226028438368966682E-18, 0.3149610000000000465 ) ) ;
#67 = FACE_OUTER_BOUND ( 'NONE', #229, .T. ) ;
#68 = CARTESIAN_POINT ( 'NONE',  ( -0.05900500000000007128, 0.0000000000000000000, 0.3149610000000000465 ) ) ;
#69 = CARTESIAN_POINT ( 'NONE',  ( 0.0000000000000000000, 0.0000000000000000000, 0.0000000000000000000 ) ) ;
#70 = COLOUR_RGB ( '',0.7921568627450980005, 0.8196078431372548767, 0.9333333333333333481 ) ;
#71 = EDGE_CURVE ( 'NONE', #82, #194, #59, .T. ) ;
#72 = SURFACE_SIDE_STYLE ('',( #223 ) ) ;
#73 =( NAMED_UNIT ( * ) PLANE_ANGLE_UNIT ( ) SI_UNIT ( $, .RADIAN. ) );
#74 = ORIENTED_EDGE ( 'NONE', *, *, #258, .F. ) ;
#75 = SURFACE_STYLE_FILL_AREA ( #303 ) ;
#76 = AXIS2_PLACEMENT_3D ( 'NONE', #117, #217, #221 ) ;
#77 = LENGTH_MEASURE_WITH_UNIT ( LENGTH_MEASURE( 0.02539999999999999897 ), #147 );
#78 = DIMENSIONAL_EXPONENTS ( 1.000000000000000000, 0.0000000000000000000, 0.0000000000000000000, 0.0000000000000000000, 0.0000000000000000000, 0.0000000000000000000, 0.0000000000000000000 ) ;
#79 = AXIS2_PLACEMENT_3D ( 'NONE', #289, #159, #210 ) ;
#80 = EDGE_LOOP ( 'NONE', ( #177, #98, #154, #309 ) ) ;
#81 = ORIENTED_EDGE ( 'NONE', *, *, #308, .F. ) ;
#82 = VERTEX_POINT ( 'NONE', #191 ) ;
#83 = ORIENTED_EDGE ( 'NONE', *, *, #254, .T. ) ;
#84 = AXIS2_PLACEMENT_3D ( 'NONE', #36, #89, #161 ) ;
#85 = DIRECTION ( 'NONE',  ( 0.0000000000000000000, 0.0000000000000000000, 1.000000000000000000 ) ) ;
#86 = ORIENTED_EDGE ( 'NONE', *, *, #17, .T. ) ;
#87 =( GEOMETRIC_REPRESENTATION_CONTEXT ( 3 ) GLOBAL_UNCERTAINTY_ASSIGNED_CONTEXT ( ( #113 ) ) GLOBAL_UNIT_ASSIGNED_CONTEXT ( ( #21, #323, #305 ) ) REPRESENTATION_CONTEXT ( 'NONE', 'WORKASPACE' ) );
#88 = AXIS2_PLACEMENT_3D ( 'NONE', #216, #12, #214 ) ;
#89 = DIRECTION ( 'NONE',  ( -0.0000000000000000000, -0.0000000000000000000, -1.000000000000000000 ) ) ;
#90 = DIRECTION ( 'NONE',  ( -0.0000000000000000000, -0.0000000000000000000, -1.000000000000000000 ) ) ;
#91 = DIRECTION ( 'NONE',  ( -0.0000000000000000000, -0.0000000000000000000, -1.000000000000000000 ) ) ;
#92 = DIRECTION ( 'NONE',  ( 0.0000000000000000000, 0.0000000000000000000, 1.000000000000000000 ) ) ;
#93 = FACE_BOUND ( 'NONE', #10, .T. ) ;
#94 =( LENGTH_UNIT ( ) NAMED_UNIT ( * ) SI_UNIT ( $, .METRE. ) );
#95 = PRODUCT_DEFINITION_FORMATION_WITH_SPECIFIED_SOURCE ( 'ANY', '', #133, .NOT_KNOWN. ) ;
#96 = VECTOR ( 'NONE', #180, 39.37007874015748143 ) ;
#97 = DIRECTION ( 'NONE',  ( 1.000000000000000000, 0.0000000000000000000, 0.0000000000000000000 ) ) ;
#98 = ORIENTED_EDGE ( 'NONE', *, *, #176, .T. ) ;
#99 = CARTESIAN_POINT ( 'NONE',  ( -0.05905499999999998251, 0.0000000000000000000, 1.496062999999999921 ) ) ;
#100 = ADVANCED_FACE ( 'NONE', ( #272 ), #39, .T. ) ;
#101 = AXIS2_PLACEMENT_3D ( 'NONE', #9, #110, #266 ) ;
#102 = ORIENTED_EDGE ( 'NONE', *, *, #17, .F. ) ;
#103 = PRODUCT_DEFINITION_SHAPE ( 'NONE', 'NONE',  #276 ) ;
#104 = CIRCLE ( 'NONE', #84, 0.05900500000000000883 ) ;
#105 = ORIENTED_EDGE ( 'NONE', *, *, #308, .T. ) ;
#106 = EDGE_LOOP ( 'NONE', ( #198, #204, #182, #5 ) ) ;
#107 = ADVANCED_FACE ( 'NONE', ( #40 ), #225, .T. ) ;
#108 = STYLED_ITEM ( 'NONE', ( #120 ), #321 ) ;
#109 = DIRECTION ( 'NONE',  ( -0.0000000000000000000, -0.0000000000000000000, -1.000000000000000000 ) ) ;
#110 = DIRECTION ( 'NONE',  ( -0.0000000000000000000, -0.0000000000000000000, -1.000000000000000000 ) ) ;
#111 = CARTESIAN_POINT ( 'NONE',  ( 0.007499999999999999722, 0.0000000000000000000, 1.707404996040164512E-17 ) ) ;
#112 = EDGE_LOOP ( 'NONE', ( #245, #302, #224, #81 ) ) ;
#113 = UNCERTAINTY_MEASURE_WITH_UNIT (LENGTH_MEASURE( 1.000000000000000082E-05 ), #21, 'distance_accuracy_value', 'NONE');
#114 = DIRECTION ( 'NONE',  ( 1.000000000000000000, 0.0000000000000000000, 0.0000000000000000000 ) ) ;
#115 = CARTESIAN_POINT ( 'NONE',  ( 0.04405500000000001082, 5.395181473643666598E-18, 1.496062999999999921 ) ) ;
#116 = DIRECTION ( 'NONE',  ( 0.0000000000000000000, 0.0000000000000000000, 1.000000000000000000 ) ) ;
#117 = CARTESIAN_POINT ( 'NONE',  ( 0.0000000000000000000, 0.0000000000000000000, 0.0000000000000000000 ) ) ;
#118 = DIRECTION ( 'NONE',  ( -1.000000000000000000, 0.0000000000000000000, 0.0000000000000000000 ) ) ;
#119 = CARTESIAN_POINT ( 'NONE',  ( 0.05905499999999998251, 7.232151672364692341E-18, 1.481063000000000240 ) ) ;
#120 = PRESENTATION_STYLE_ASSIGNMENT (( #301 ) ) ;
#121 = AXIS2_PLACEMENT_3D ( 'NONE', #162, #164, #118 ) ;
#122 = VERTEX_POINT ( 'NONE', #15 ) ;
#123 = CYLINDRICAL_SURFACE ( 'NONE', #76, 0.05900500000000003659 ) ;
#124 = ADVANCED_FACE ( 'NONE', ( #248 ), #63, .F. ) ;
#125 = EDGE_LOOP ( 'NONE', ( #227, #314, #49, #175 ) ) ;
#126 = SURFACE_SIDE_STYLE ('',( #75 ) ) ;
#127 = ADVANCED_BREP_SHAPE_REPRESENTATION ( 'Micro_DMM-030-490X', ( #321, #178 ), #286 ) ;
#128 = EDGE_CURVE ( 'NONE', #265, #172, #149, .T. ) ;
#129 = EDGE_LOOP ( 'NONE', ( #237, #74, #27, #31 ) ) ;
#130 = PRESENTATION_STYLE_ASSIGNMENT (( #167 ) ) ;
#131 = CYLINDRICAL_SURFACE ( 'NONE', #45, 0.05900500000000003659 ) ;
#132 = DIRECTION ( 'NONE',  ( 0.0000000000000000000, 0.0000000000000000000, 1.000000000000000000 ) ) ;
#133 = PRODUCT ( 'Micro_DMM-030-490X', 'Micro_DMM-030-490X', '', ( #279 ) ) ;
#134 = CIRCLE ( 'NONE', #32, 0.007499999999999999722 ) ;
#135 = VECTOR ( 'NONE', #64, 39.37007874015748143 ) ;
#136 = CYLINDRICAL_SURFACE ( 'NONE', #285, 0.05905499999999998251 ) ;
#137 = LINE ( 'NONE', #111, #52 ) ;
#138 = LINE ( 'NONE', #240, #96 ) ;
#139 = DIRECTION ( 'NONE',  ( -1.000000000000000000, 0.0000000000000000000, 0.0000000000000000000 ) ) ;
#140 = DIRECTION ( 'NONE',  ( -1.000000000000000000, 0.0000000000000000000, 0.0000000000000000000 ) ) ;
#141 = CONICAL_SURFACE ( 'NONE', #195, 0.04405500000000001082, 0.7853981633974570498 ) ;
#142 = DIRECTION ( 'NONE',  ( -1.000000000000000000, 0.0000000000000000000, 0.0000000000000000000 ) ) ;
#143 = CARTESIAN_POINT ( 'NONE',  ( 0.0000000000000000000, 0.0000000000000000000, 1.496062999999999921 ) ) ;
#144 = CARTESIAN_POINT ( 'NONE',  ( 0.05900500000000007128, 0.0000000000000000000, 0.3149610000000000465 ) ) ;
#145 =( NAMED_UNIT ( * ) SI_UNIT ( $, .STERADIAN. ) SOLID_ANGLE_UNIT ( ) );
#146 = AXIS2_PLACEMENT_3D ( 'NONE', #316, #92, #114 ) ;
#147 =( LENGTH_UNIT ( ) NAMED_UNIT ( * ) SI_UNIT ( $, .METRE. ) );
#148 = VERTEX_POINT ( 'NONE', #188 ) ;
#149 = CIRCLE ( 'NONE', #173, 0.05900500000000007128 ) ;
#150 = EDGE_LOOP ( 'NONE', ( #220, #56 ) ) ;
#151 = VERTEX_POINT ( 'NONE', #211 ) ;
#152 = EDGE_CURVE ( 'NONE', #194, #82, #104, .T. ) ;
#153 = VECTOR ( 'NONE', #273, 39.37007874015748143 ) ;
#154 = ORIENTED_EDGE ( 'NONE', *, *, #71, .T. ) ;
#155 = FACE_OUTER_BOUND ( 'NONE', #112, .T. ) ;
#156 = ORIENTED_EDGE ( 'NONE', *, *, #176, .F. ) ;
#157 = ORIENTED_EDGE ( 'NONE', *, *, #174, .T. ) ;
#158 = AXIS2_PLACEMENT_3D ( 'NONE', #311, #192, #255 ) ;
#159 = DIRECTION ( 'NONE',  ( -0.0000000000000000000, -0.0000000000000000000, -1.000000000000000000 ) ) ;
#160 = CARTESIAN_POINT ( 'NONE',  ( 0.0000000000000000000, 0.0000000000000000000, 1.496062999999999921 ) ) ;
#161 = DIRECTION ( 'NONE',  ( -1.000000000000000000, 0.0000000000000000000, 0.0000000000000000000 ) ) ;
#162 = CARTESIAN_POINT ( 'NONE',  ( 0.0000000000000000000, 0.0000000000000000000, 1.496062999999999921 ) ) ;
#163 = LINE ( 'NONE', #293, #153 ) ;
#164 = DIRECTION ( 'NONE',  ( 0.0000000000000000000, 0.0000000000000000000, -1.000000000000000000 ) ) ;
#165 = LENGTH_MEASURE_WITH_UNIT ( LENGTH_MEASURE( 0.02539999999999999897 ), #94 );
#166 = VERTEX_POINT ( 'NONE', #185 ) ;
#167 = SURFACE_STYLE_USAGE ( .BOTH. , #126 ) ;
#168 = CIRCLE ( 'NONE', #101, 0.007499999999999999722 ) ;
#169 = PRODUCT_DEFINITION_CONTEXT ( 'detailed design', #284, 'design' ) ;
#170 = CARTESIAN_POINT ( 'NONE',  ( -0.007499999999999999722, 4.072256768864737466E-18, 1.707404996040164512E-17 ) ) ;
#171 =( NAMED_UNIT ( * ) SI_UNIT ( $, .STERADIAN. ) SOLID_ANGLE_UNIT ( ) );
#172 = VERTEX_POINT ( 'NONE', #66 ) ;
#173 = AXIS2_PLACEMENT_3D ( 'NONE', #271, #296, #140 ) ;
#174 = EDGE_CURVE ( 'NONE', #265, #82, #163, .T. ) ;
#175 = ORIENTED_EDGE ( 'NONE', *, *, #20, .F. ) ;
#176 = EDGE_CURVE ( 'NONE', #325, #82, #268, .T. ) ;
#177 = ORIENTED_EDGE ( 'NONE', *, *, #236, .F. ) ;
#178 = AXIS2_PLACEMENT_3D ( 'NONE', #261, #235, #26 ) ;
#179 = CARTESIAN_POINT ( 'NONE',  ( 0.0000000000000000000, 0.0000000000000000000, 1.496062999999999921 ) ) ;
#180 = DIRECTION ( 'NONE',  ( -0.0000000000000000000, -0.0000000000000000000, -1.000000000000000000 ) ) ;
#181 = DIRECTION ( 'NONE',  ( 1.000000000000000000, 0.0000000000000000000, 0.0000000000000000000 ) ) ;
#182 = ORIENTED_EDGE ( 'NONE', *, *, #71, .F. ) ;
#183 = AXIS2_PLACEMENT_3D ( 'NONE', #144, #65, #249 ) ;
#184 = ADVANCED_FACE ( 'NONE', ( #313 ), #4, .T. ) ;
#185 = CARTESIAN_POINT ( 'NONE',  ( -0.04405500000000001082, 0.0000000000000000000, 1.496062999999999921 ) ) ;
#186 = LINE ( 'NONE', #297, #304 ) ;
#187 = DIRECTION ( 'NONE',  ( -0.0000000000000000000, -0.0000000000000000000, -1.000000000000000000 ) ) ;
#188 = CARTESIAN_POINT ( 'NONE',  ( 0.007499999999999999722, 0.0000000000000000000, 1.707404996040164512E-17 ) ) ;
#189 = PRODUCT_RELATED_PRODUCT_CATEGORY ( 'part', '', ( #133 ) ) ;
#190 = DIRECTION ( 'NONE',  ( -1.000000000000000000, 0.0000000000000000000, 0.0000000000000000000 ) ) ;
#191 = CARTESIAN_POINT ( 'NONE',  ( -0.05900500000000002271, 7.226028438368960519E-18, 0.05150499999999980788 ) ) ;
#192 = DIRECTION ( 'NONE',  ( 0.0000000000000000000, 0.0000000000000000000, -1.000000000000000000 ) ) ;
#193 = FILL_AREA_STYLE_COLOUR ( '', #251 ) ;
#194 = VERTEX_POINT ( 'NONE', #61 ) ;
#195 = AXIS2_PLACEMENT_3D ( 'NONE', #312, #259, #50 ) ;
#196 = EDGE_CURVE ( 'NONE', #172, #194, #138, .T. ) ;
#197 = ADVANCED_FACE ( 'NONE', ( #288 ), #34, .T. ) ;
#198 = ORIENTED_EDGE ( 'NONE', *, *, #128, .T. ) ;
#199 = EDGE_LOOP ( 'NONE', ( #205, #86 ) ) ;
#200 = ORIENTED_EDGE ( 'NONE', *, *, #152, .T. ) ;
#201 = SHAPE_DEFINITION_REPRESENTATION ( #103, #127 ) ;
#202 = STYLED_ITEM ( 'NONE', ( #130 ), #127 ) ;
#203 = DIRECTION ( 'NONE',  ( 0.0000000000000000000, 0.0000000000000000000, 1.000000000000000000 ) ) ;
#204 = ORIENTED_EDGE ( 'NONE', *, *, #196, .T. ) ;
#205 = ORIENTED_EDGE ( 'NONE', *, *, #57, .T. ) ;
#206 = VECTOR ( 'NONE', #253, 39.37007874015748143 ) ;
#207 = FACE_OUTER_BOUND ( 'NONE', #125, .T. ) ;
#208 = CARTESIAN_POINT ( 'NONE',  ( 0.0000000000000000000, 0.0000000000000000000, 1.707404996040164512E-17 ) ) ;
#209 = DIRECTION ( 'NONE',  ( 0.7071067811865490160, 0.0000000000000000000, 0.7071067811865459074 ) ) ;
#210 = DIRECTION ( 'NONE',  ( -1.000000000000000000, 0.0000000000000000000, 0.0000000000000000000 ) ) ;
#211 = CARTESIAN_POINT ( 'NONE',  ( 0.04405500000000001082, 6.313666573004179469E-18, 1.496062999999999921 ) ) ;
#212 = CIRCLE ( 'NONE', #13, 0.04405500000000001082 ) ;
#213 = CARTESIAN_POINT ( 'NONE',  ( 0.0000000000000000000, 0.0000000000000000000, 0.3149610000000000465 ) ) ;
#214 = DIRECTION ( 'NONE',  ( 1.000000000000000000, 0.0000000000000000000, -0.0000000000000000000 ) ) ;
#215 = CARTESIAN_POINT ( 'NONE',  ( 0.0000000000000000000, 0.0000000000000000000, 1.481063000000000240 ) ) ;
#216 = CARTESIAN_POINT ( 'NONE',  ( 0.0000000000000000000, 0.0000000000000000000, 0.0000000000000000000 ) ) ;
#217 = DIRECTION ( 'NONE',  ( -0.0000000000000000000, -0.0000000000000000000, -1.000000000000000000 ) ) ;
#218 = PLANE ( 'NONE',  #183 ) ;
#219 = VECTOR ( 'NONE', #8, 39.37007874015748854 ) ;
#220 = ORIENTED_EDGE ( 'NONE', *, *, #228, .T. ) ;
#221 = DIRECTION ( 'NONE',  ( -1.000000000000000000, 0.0000000000000000000, 0.0000000000000000000 ) ) ;
#222 = FILL_AREA_STYLE ('',( #47 ) ) ;
#223 = SURFACE_STYLE_FILL_AREA ( #222 ) ;
#224 = ORIENTED_EDGE ( 'NONE', *, *, #57, .F. ) ;
#225 = CONICAL_SURFACE ( 'NONE', #146, 0.007499999999999999722, 0.7853981633974504994 ) ;
#226 = UNCERTAINTY_MEASURE_WITH_UNIT (LENGTH_MEASURE( 1.000000000000000082E-05 ), #277, 'distance_accuracy_value', 'NONE');
#227 = ORIENTED_EDGE ( 'NONE', *, *, #281, .F. ) ;
#228 = EDGE_CURVE ( 'NONE', #148, #325, #134, .T. ) ;
#229 = EDGE_LOOP ( 'NONE', ( #243, #83, #157, #234 ) ) ;
#230 =( NAMED_UNIT ( * ) PLANE_ANGLE_UNIT ( ) SI_UNIT ( $, .RADIAN. ) );
#231 = ORIENTED_EDGE ( 'NONE', *, *, #6, .F. ) ;
#232 =( LENGTH_UNIT ( ) NAMED_UNIT ( * ) SI_UNIT ( $, .METRE. ) );
#233 = AXIS2_PLACEMENT_3D ( 'NONE', #143, #116, #319 ) ;
#234 = ORIENTED_EDGE ( 'NONE', *, *, #152, .F. ) ;
#235 = DIRECTION ( 'NONE',  ( 0.0000000000000000000, 0.0000000000000000000, 1.000000000000000000 ) ) ;
#236 = EDGE_CURVE ( 'NONE', #325, #148, #168, .T. ) ;
#237 = ORIENTED_EDGE ( 'NONE', *, *, #3, .F. ) ;
#238 = DIRECTION ( 'NONE',  ( -0.0000000000000000000, -0.0000000000000000000, -1.000000000000000000 ) ) ;
#239 = AXIS2_PLACEMENT_3D ( 'NONE', #322, #91, #142 ) ;
#240 = CARTESIAN_POINT ( 'NONE',  ( 0.05900500000000003659, 7.226028438368962060E-18, 0.0000000000000000000 ) ) ;
#241 = DIMENSIONAL_EXPONENTS ( 1.000000000000000000, 0.0000000000000000000, 0.0000000000000000000, 0.0000000000000000000, 0.0000000000000000000, 0.0000000000000000000, 0.0000000000000000000 ) ;
#242 = DIRECTION ( 'NONE',  ( -1.000000000000000000, 0.0000000000000000000, 0.0000000000000000000 ) ) ;
#243 = ORIENTED_EDGE ( 'NONE', *, *, #196, .F. ) ;
#244 = CARTESIAN_POINT ( 'NONE',  ( 0.0000000000000000000, 0.0000000000000000000, 1.707404996040164512E-17 ) ) ;
#245 = ORIENTED_EDGE ( 'NONE', *, *, #43, .T. ) ;
#246 = AXIS2_PLACEMENT_3D ( 'NONE', #215, #275, #16 ) ;
#247 = DIRECTION ( 'NONE',  ( -0.0000000000000000000, -0.0000000000000000000, -1.000000000000000000 ) ) ;
#248 = FACE_OUTER_BOUND ( 'NONE', #150, .T. ) ;
#249 = DIRECTION ( 'NONE',  ( -1.000000000000000000, 0.0000000000000000000, 0.0000000000000000000 ) ) ;
#250 = LINE ( 'NONE', #99, #206 ) ;
#251 = COLOUR_RGB ( '',0.7921568627450980005, 0.8196078431372548767, 0.9333333333333333481 ) ;
#252 = AXIS2_PLACEMENT_3D ( 'NONE', #298, #247, #320 ) ;
#253 = DIRECTION ( 'NONE',  ( -0.0000000000000000000, -0.0000000000000000000, -1.000000000000000000 ) ) ;
#254 = EDGE_CURVE ( 'NONE', #172, #265, #256, .T. ) ;
#255 = DIRECTION ( 'NONE',  ( 1.000000000000000000, 0.0000000000000000000, 0.0000000000000000000 ) ) ;
#256 = CIRCLE ( 'NONE', #79, 0.05900500000000007128 ) ;
#257 = APPLICATION_PROTOCOL_DEFINITION ( 'draft international standard', 'automotive_design', 1998, #284 ) ;
#258 = EDGE_CURVE ( 'NONE', #166, #151, #54, .T. ) ;
#259 = DIRECTION ( 'NONE',  ( 0.0000000000000000000, 0.0000000000000000000, -1.000000000000000000 ) ) ;
#260 = EDGE_LOOP ( 'NONE', ( #156, #2, #23, #200 ) ) ;
#261 = CARTESIAN_POINT ( 'NONE',  ( 0.0000000000000000000, 0.0000000000000000000, 0.0000000000000000000 ) ) ;
#262 = CONICAL_SURFACE ( 'NONE', #121, 0.04405500000000001082, 0.7853981633974570498 ) ;
#263 = ORIENTED_EDGE ( 'NONE', *, *, #128, .F. ) ;
#264 = ADVANCED_FACE ( 'NONE', ( #155 ), #136, .T. ) ;
#265 = VERTEX_POINT ( 'NONE', #68 ) ;
#266 = DIRECTION ( 'NONE',  ( -1.000000000000000000, 0.0000000000000000000, 0.0000000000000000000 ) ) ;
#267 = AXIS2_PLACEMENT_3D ( 'NONE', #62, #203, #55 ) ;
#268 = LINE ( 'NONE', #291, #48 ) ;
#269 = ADVANCED_FACE ( 'NONE', ( #41 ), #123, .T. ) ;
#270 = DIRECTION ( 'NONE',  ( -0.0000000000000000000, -0.0000000000000000000, -1.000000000000000000 ) ) ;
#271 = CARTESIAN_POINT ( 'NONE',  ( 0.0000000000000000000, 0.0000000000000000000, 0.3149610000000000465 ) ) ;
#272 = FACE_OUTER_BOUND ( 'NONE', #29, .T. ) ;
#273 = DIRECTION ( 'NONE',  ( -0.0000000000000000000, -0.0000000000000000000, -1.000000000000000000 ) ) ;
#274 = AXIS2_PLACEMENT_3D ( 'NONE', #160, #270, #139 ) ;
#275 = DIRECTION ( 'NONE',  ( 0.0000000000000000000, 0.0000000000000000000, -1.000000000000000000 ) ) ;
#276 = PRODUCT_DEFINITION ( 'UNKNOWN', '', #95, #169 ) ;
#277 =( CONVERSION_BASED_UNIT ( 'INCH', #165 ) LENGTH_UNIT ( ) NAMED_UNIT ( #7 ) );
#278 = ORIENTED_EDGE ( 'NONE', *, *, #299, .T. ) ;
#279 = PRODUCT_CONTEXT ( 'NONE', #44, 'mechanical' ) ;
#280 = ORIENTED_EDGE ( 'NONE', *, *, #281, .T. ) ;
#281 = EDGE_CURVE ( 'NONE', #151, #166, #212, .T. ) ;
#282 = ORIENTED_EDGE ( 'NONE', *, *, #254, .F. ) ;
#283 = LENGTH_MEASURE_WITH_UNIT ( LENGTH_MEASURE( 0.02539999999999999897 ), #232 );
#284 = APPLICATION_CONTEXT ( 'automotive_design' ) ;
#285 = AXIS2_PLACEMENT_3D ( 'NONE', #179, #238, #58 ) ;
#286 =( GEOMETRIC_REPRESENTATION_CONTEXT ( 3 ) GLOBAL_UNCERTAINTY_ASSIGNED_CONTEXT ( ( #226 ) ) GLOBAL_UNIT_ASSIGNED_CONTEXT ( ( #277, #73, #145 ) ) REPRESENTATION_CONTEXT ( 'NONE', 'WORKASPACE' ) );
#287 = ADVANCED_FACE ( 'NONE', ( #207 ), #141, .T. ) ;
#288 = FACE_OUTER_BOUND ( 'NONE', #51, .T. ) ;
#289 = CARTESIAN_POINT ( 'NONE',  ( 0.0000000000000000000, 0.0000000000000000000, 0.3149610000000000465 ) ) ;
#290 = PRESENTATION_LAYER_ASSIGNMENT (  '', '', ( #202 ) ) ;
#291 = CARTESIAN_POINT ( 'NONE',  ( -0.007499999999999999722, 9.184850993605147975E-19, 1.707404996040164512E-17 ) ) ;
#292 = LINE ( 'NONE', #11, #135 ) ;
#293 = CARTESIAN_POINT ( 'NONE',  ( -0.05900500000000003659, 0.0000000000000000000, 0.0000000000000000000 ) ) ;
#294 = DIRECTION ( 'NONE',  ( -0.7071067811865536790, 0.0000000000000000000, -0.7071067811865412445 ) ) ;
#295 = CARTESIAN_POINT ( 'NONE',  ( -0.05905499999999998251, 0.0000000000000000000, 0.3149610000000000465 ) ) ;
#296 = DIRECTION ( 'NONE',  ( -0.0000000000000000000, -0.0000000000000000000, -1.000000000000000000 ) ) ;
#297 = CARTESIAN_POINT ( 'NONE',  ( -0.04405500000000001082, 0.0000000000000000000, 1.496062999999999921 ) ) ;
#298 = CARTESIAN_POINT ( 'NONE',  ( 0.0000000000000000000, 0.0000000000000000000, 0.3149610000000000465 ) ) ;
#299 = EDGE_CURVE ( 'NONE', #327, #307, #328, .T. ) ;
#300 = PRESENTATION_LAYER_ASSIGNMENT (  '', '', ( #108 ) ) ;
#301 = SURFACE_STYLE_USAGE ( .BOTH. , #72 ) ;
#302 = ORIENTED_EDGE ( 'NONE', *, *, #6, .T. ) ;
#303 = FILL_AREA_STYLE ('',( #193 ) ) ;
#304 = VECTOR ( 'NONE', #294, 39.37007874015748854 ) ;
#305 =( NAMED_UNIT ( * ) SI_UNIT ( $, .STERADIAN. ) SOLID_ANGLE_UNIT ( ) );
#306 = CIRCLE ( 'NONE', #246, 0.05905499999999998251 ) ;
#307 = VERTEX_POINT ( 'NONE', #19 ) ;
#308 = EDGE_CURVE ( 'NONE', #307, #53, #250, .T. ) ;
#309 = ORIENTED_EDGE ( 'NONE', *, *, #1, .F. ) ;
#310 = CIRCLE ( 'NONE', #18, 0.05905499999999998251 ) ;
#311 = CARTESIAN_POINT ( 'NONE',  ( 0.0000000000000000000, 0.0000000000000000000, 1.481063000000000240 ) ) ;
#312 = CARTESIAN_POINT ( 'NONE',  ( 0.0000000000000000000, 0.0000000000000000000, 1.496062999999999921 ) ) ;
#313 = FACE_OUTER_BOUND ( 'NONE', #260, .T. ) ;
#314 = ORIENTED_EDGE ( 'NONE', *, *, #3, .T. ) ;
#315 = LINE ( 'NONE', #115, #219 ) ;
#316 = CARTESIAN_POINT ( 'NONE',  ( 0.0000000000000000000, 0.0000000000000000000, 1.707404996040164512E-17 ) ) ;
#317 = AXIS2_PLACEMENT_3D ( 'NONE', #208, #85, #181 ) ;
#318 = FACE_OUTER_BOUND ( 'NONE', #199, .T. ) ;
#319 = DIRECTION ( 'NONE',  ( 1.000000000000000000, 0.0000000000000000000, -0.0000000000000000000 ) ) ;
#320 = DIRECTION ( 'NONE',  ( -1.000000000000000000, 0.0000000000000000000, 0.0000000000000000000 ) ) ;
#321 = MANIFOLD_SOLID_BREP ( 'Cut-Revolve4', #25 ) ;
#322 = CARTESIAN_POINT ( 'NONE',  ( 0.0000000000000000000, 0.0000000000000000000, 0.05150499999999980788 ) ) ;
#323 =( NAMED_UNIT ( * ) PLANE_ANGLE_UNIT ( ) SI_UNIT ( $, .RADIAN. ) );
#324 = CIRCLE ( 'NONE', #252, 0.05905499999999998251 ) ;
#325 = VERTEX_POINT ( 'NONE', #170 ) ;
#326 = CARTESIAN_POINT ( 'NONE',  ( 0.0000000000000000000, 0.0000000000000000000, 1.496062999999999921 ) ) ;
#327 = VERTEX_POINT ( 'NONE', #119 ) ;
#328 = CIRCLE ( 'NONE', #158, 0.05905499999999998251 ) ;
#329 = MECHANICAL_DESIGN_GEOMETRIC_PRESENTATION_REPRESENTATION (  '', ( #202 ), #22 ) ;
ENDSEC;
END-ISO-10303-21;
