ISO-10303-21;
HEADER;
FILE_DESCRIPTION (( 'STEP AP214' ),
    '1' );
FILE_NAME ('Micro_RDC-20.STEP',
    '2021-08-31T17:00:33',
    ( '' ),
    ( '' ),
    'SwSTEP 2.0',
    'SolidWorks 2020',
    '' );
FILE_SCHEMA (( 'AUTOMOTIVE_DESIGN' ));
ENDSEC;

DATA;
#1 = DIRECTION ( 'NONE',  ( -1.000000000000000000, 0.0000000000000000000, 0.0000000000000000000 ) ) ;
#2 = DIRECTION ( 'NONE',  ( -1.224646799147353454E-16, -0.0000000000000000000, -1.000000000000000000 ) ) ;
#3 =( NAMED_UNIT ( * ) SI_UNIT ( $, .STERADIAN. ) SOLID_ANGLE_UNIT ( ) );
#4 = EDGE_CURVE ( 'NONE', #263, #162, #279, .T. ) ;
#5 =( CONVERSION_BASED_UNIT ( 'INCH', #76 ) LENGTH_UNIT ( ) NAMED_UNIT ( #10 ) );
#6 = VERTEX_POINT ( 'NONE', #242 ) ;
#7 = EDGE_LOOP ( 'NONE', ( #144, #240, #56, #36 ) ) ;
#8 = AXIS2_PLACEMENT_3D ( 'NONE', #225, #288, #63 ) ;
#9 = ORIENTED_EDGE ( 'NONE', *, *, #51, .F. ) ;
#10 = DIMENSIONAL_EXPONENTS ( 1.000000000000000000, 0.0000000000000000000, 0.0000000000000000000, 0.0000000000000000000, 0.0000000000000000000, 0.0000000000000000000, 0.0000000000000000000 ) ;
#11 = CARTESIAN_POINT ( 'NONE',  ( 0.0000000000000000000, 0.0000000000000000000, 1.500000000000000222 ) ) ;
#12 = EDGE_LOOP ( 'NONE', ( #103, #166, #139, #29 ) ) ;
#13 = DIMENSIONAL_EXPONENTS ( 1.000000000000000000, 0.0000000000000000000, 0.0000000000000000000, 0.0000000000000000000, 0.0000000000000000000, 0.0000000000000000000, 0.0000000000000000000 ) ;
#14 = COLOUR_RGB ( '',0.7921568627450980005, 0.8196078431372548767, 0.9333333333333333481 ) ;
#15 = CARTESIAN_POINT ( 'NONE',  ( 0.04685310000000005026, 0.0000000000000000000, 0.3749999999999999445 ) ) ;
#16 = FACE_OUTER_BOUND ( 'NONE', #12, .T. ) ;
#17 = DIRECTION ( 'NONE',  ( 1.000000000000000000, 0.0000000000000000000, -0.0000000000000000000 ) ) ;
#18 = CIRCLE ( 'NONE', #131, 0.04685310000000000863 ) ;
#19 = PRODUCT_DEFINITION_FORMATION_WITH_SPECIFIED_SOURCE ( 'ANY', '', #256, .NOT_KNOWN. ) ;
#20 = DIRECTION ( 'NONE',  ( 1.224646799147353454E-16, 0.0000000000000000000, 1.000000000000000000 ) ) ;
#21 = FACE_OUTER_BOUND ( 'NONE', #159, .T. ) ;
#22 = DIRECTION ( 'NONE',  ( 0.0000000000000000000, 0.0000000000000000000, -1.000000000000000000 ) ) ;
#23 = CIRCLE ( 'NONE', #292, 0.06250000000000000000 ) ;
#24 = CIRCLE ( 'NONE', #118, 0.04685310000000000169 ) ;
#25 = DIRECTION ( 'NONE',  ( 0.0000000000000000000, 0.0000000000000000000, -1.000000000000000000 ) ) ;
#26 = ADVANCED_FACE ( 'NONE', ( #16 ), #148, .T. ) ;
#27 = DIRECTION ( 'NONE',  ( -0.0000000000000000000, -0.0000000000000000000, -1.000000000000000000 ) ) ;
#28 = CARTESIAN_POINT ( 'NONE',  ( 0.0000000000000000000, 0.0000000000000000000, 1.500000000000000222 ) ) ;
#29 = ORIENTED_EDGE ( 'NONE', *, *, #243, .F. ) ;
#30 = SURFACE_STYLE_USAGE ( .BOTH. , #101 ) ;
#31 = ORIENTED_EDGE ( 'NONE', *, *, #185, .F. ) ;
#32 = EDGE_LOOP ( 'NONE', ( #171, #238, #31, #261 ) ) ;
#33 = CIRCLE ( 'NONE', #71, 0.04685310000000000169 ) ;
#34 = EDGE_CURVE ( 'NONE', #6, #217, #188, .T. ) ;
#35 = ORIENTED_EDGE ( 'NONE', *, *, #185, .T. ) ;
#36 = ORIENTED_EDGE ( 'NONE', *, *, #222, .T. ) ;
#37 = FACE_OUTER_BOUND ( 'NONE', #168, .T. ) ;
#38 = STYLED_ITEM ( 'NONE', ( #96 ), #115 ) ;
#39 = SURFACE_STYLE_FILL_AREA ( #196 ) ;
#40 = DIRECTION ( 'NONE',  ( 0.0000000000000000000, 0.0000000000000000000, -1.000000000000000000 ) ) ;
#41 = EDGE_CURVE ( 'NONE', #217, #6, #18, .T. ) ;
#42 = DIRECTION ( 'NONE',  ( -1.224646799147353454E-16, -0.0000000000000000000, -1.000000000000000000 ) ) ;
#43 = VECTOR ( 'NONE', #129, 39.37007874015748143 ) ;
#44 = DIMENSIONAL_EXPONENTS ( 1.000000000000000000, 0.0000000000000000000, 0.0000000000000000000, 0.0000000000000000000, 0.0000000000000000000, 0.0000000000000000000, 0.0000000000000000000 ) ;
#45 = DIRECTION ( 'NONE',  ( -1.224646799147353454E-16, -0.0000000000000000000, -1.000000000000000000 ) ) ;
#46 = DIRECTION ( 'NONE',  ( -1.000000000000000000, 0.0000000000000000000, 1.224646799147353454E-16 ) ) ;
#47 = CARTESIAN_POINT ( 'NONE',  ( 0.0000000000000000000, 0.0000000000000000000, 1.485000000000000764 ) ) ;
#48 = VECTOR ( 'NONE', #154, 39.37007874015748143 ) ;
#49 =( NAMED_UNIT ( * ) PLANE_ANGLE_UNIT ( ) SI_UNIT ( $, .RADIAN. ) );
#50 = CARTESIAN_POINT ( 'NONE',  ( -0.04685310000000000169, 0.0000000000000000000, 1.147569978902617334E-17 ) ) ;
#51 = EDGE_CURVE ( 'NONE', #265, #79, #24, .T. ) ;
#52 = DIRECTION ( 'NONE',  ( 0.0000000000000000000, 0.0000000000000000000, 1.000000000000000000 ) ) ;
#53 = COLOUR_RGB ( '',0.7921568627450980005, 0.8196078431372548767, 0.9333333333333333481 ) ;
#54 = VERTEX_POINT ( 'NONE', #173 ) ;
#55 = ORIENTED_EDGE ( 'NONE', *, *, #276, .T. ) ;
#56 = ORIENTED_EDGE ( 'NONE', *, *, #141, .T. ) ;
#57 = EDGE_CURVE ( 'NONE', #162, #263, #178, .T. ) ;
#58 = SHAPE_DEFINITION_REPRESENTATION ( #210, #115 ) ;
#59 = VERTEX_POINT ( 'NONE', #270 ) ;
#60 =( GEOMETRIC_REPRESENTATION_CONTEXT ( 3 ) GLOBAL_UNCERTAINTY_ASSIGNED_CONTEXT ( ( #164 ) ) GLOBAL_UNIT_ASSIGNED_CONTEXT ( ( #90, #49, #113 ) ) REPRESENTATION_CONTEXT ( 'NONE', 'WORKASPACE' ) );
#61 = DIRECTION ( 'NONE',  ( 1.000000000000000000, 0.0000000000000000000, 0.0000000000000000000 ) ) ;
#62 = ADVANCED_FACE ( 'NONE', ( #37 ), #223, .T. ) ;
#63 = DIRECTION ( 'NONE',  ( 1.000000000000000000, 0.0000000000000000000, 0.0000000000000000000 ) ) ;
#64 = CARTESIAN_POINT ( 'NONE',  ( -0.04685309999999996700, 5.737849894513086668E-18, 0.3749999999999999445 ) ) ;
#65 = CARTESIAN_POINT ( 'NONE',  ( 4.592425496802575451E-17, 0.0000000000000000000, 0.3749999999999999445 ) ) ;
#66 = STYLED_ITEM ( 'NONE', ( #149 ), #163 ) ;
#67 = CYLINDRICAL_SURFACE ( 'NONE', #95, 0.04685310000000000169 ) ;
#68 = DIRECTION ( 'NONE',  ( -0.0000000000000000000, -0.0000000000000000000, -1.000000000000000000 ) ) ;
#69 = ADVANCED_FACE ( 'NONE', ( #293 ), #230, .T. ) ;
#70 = DIRECTION ( 'NONE',  ( -1.224646799147353454E-16, -0.0000000000000000000, -1.000000000000000000 ) ) ;
#71 = AXIS2_PLACEMENT_3D ( 'NONE', #179, #272, #211 ) ;
#72 = DIRECTION ( 'NONE',  ( 1.000000000000000000, 0.0000000000000000000, -0.0000000000000000000 ) ) ;
#73 = ORIENTED_EDGE ( 'NONE', *, *, #41, .T. ) ;
#74 = VECTOR ( 'NONE', #125, 39.37007874015747433 ) ;
#75 = ORIENTED_EDGE ( 'NONE', *, *, #251, .F. ) ;
#76 = LENGTH_MEASURE_WITH_UNIT ( LENGTH_MEASURE( 0.02539999999999999897 ), #165 );
#77 = ORIENTED_EDGE ( 'NONE', *, *, #41, .F. ) ;
#78 = APPLICATION_PROTOCOL_DEFINITION ( 'draft international standard', 'automotive_design', 1998, #117 ) ;
#79 = VERTEX_POINT ( 'NONE', #175 ) ;
#80 = FILL_AREA_STYLE ('',( #97 ) ) ;
#81 = ORIENTED_EDGE ( 'NONE', *, *, #276, .F. ) ;
#82 = AXIS2_PLACEMENT_3D ( 'NONE', #128, #20, #221 ) ;
#83 = DIRECTION ( 'NONE',  ( 0.0000000000000000000, 0.0000000000000000000, 1.000000000000000000 ) ) ;
#84 = CARTESIAN_POINT ( 'NONE',  ( -0.04750000000000064587, 0.0000000000000000000, 1.500000000000000222 ) ) ;
#85 = FILL_AREA_STYLE_COLOUR ( '', #53 ) ;
#86 = AXIS2_PLACEMENT_3D ( 'NONE', #296, #27, #1 ) ;
#87 = CARTESIAN_POINT ( 'NONE',  ( 0.0000000000000000000, 0.0000000000000000000, 1.500000000000000222 ) ) ;
#88 = EDGE_CURVE ( 'NONE', #217, #59, #176, .T. ) ;
#89 =( LENGTH_UNIT ( ) NAMED_UNIT ( * ) SI_UNIT ( $, .METRE. ) );
#90 =( CONVERSION_BASED_UNIT ( 'INCH', #151 ) LENGTH_UNIT ( ) NAMED_UNIT ( #13 ) );
#91 = CIRCLE ( 'NONE', #224, 0.06250000000000000000 ) ;
#92 = CARTESIAN_POINT ( 'NONE',  ( 0.0000000000000000000, 0.0000000000000000000, 0.0000000000000000000 ) ) ;
#93 = FACE_OUTER_BOUND ( 'NONE', #104, .T. ) ;
#94 = CARTESIAN_POINT ( 'NONE',  ( 5.679152322418701052E-17, 0.0000000000000000000, 0.4637379795033758079 ) ) ;
#95 = AXIS2_PLACEMENT_3D ( 'NONE', #92, #70, #46 ) ;
#96 = PRESENTATION_STYLE_ASSIGNMENT (( #30 ) ) ;
#97 = FILL_AREA_STYLE_COLOUR ( '', #14 ) ;
#98 = VECTOR ( 'NONE', #105, 39.37007874015748143 ) ;
#99 =( LENGTH_UNIT ( ) NAMED_UNIT ( * ) SI_UNIT ( $, .METRE. ) );
#100 = ORIENTED_EDGE ( 'NONE', *, *, #251, .T. ) ;
#101 = SURFACE_SIDE_STYLE ('',( #170 ) ) ;
#102 = VERTEX_POINT ( 'NONE', #122 ) ;
#103 = ORIENTED_EDGE ( 'NONE', *, *, #215, .F. ) ;
#104 = EDGE_LOOP ( 'NONE', ( #216, #218 ) ) ;
#105 = DIRECTION ( 'NONE',  ( 0.1736481776669313304, 0.0000000000000000000, 0.9848077530122077983 ) ) ;
#106 = DIRECTION ( 'NONE',  ( -1.000000000000000000, 0.0000000000000000000, 0.0000000000000000000 ) ) ;
#107 = LINE ( 'NONE', #84, #152 ) ;
#108 = CARTESIAN_POINT ( 'NONE',  ( 0.06250000000000005551, 7.654042494670962167E-18, 0.4637379795033758079 ) ) ;
#109 = CARTESIAN_POINT ( 'NONE',  ( 0.0000000000000000000, 0.0000000000000000000, 1.485000000000000764 ) ) ;
#110 = CARTESIAN_POINT ( 'NONE',  ( -0.04685309999999996700, 6.695946194592021721E-18, 0.3749999999999999445 ) ) ;
#111 = ADVANCED_FACE ( 'NONE', ( #147 ), #266, .T. ) ;
#112 = CARTESIAN_POINT ( 'NONE',  ( 0.0000000000000000000, 0.0000000000000000000, 0.0000000000000000000 ) ) ;
#113 =( NAMED_UNIT ( * ) SI_UNIT ( $, .STERADIAN. ) SOLID_ANGLE_UNIT ( ) );
#114 =( NAMED_UNIT ( * ) PLANE_ANGLE_UNIT ( ) SI_UNIT ( $, .RADIAN. ) );
#115 = ADVANCED_BREP_SHAPE_REPRESENTATION ( 'Micro_RDC-20', ( #163, #132 ), #142 ) ;
#116 = ORIENTED_EDGE ( 'NONE', *, *, #57, .T. ) ;
#117 = APPLICATION_CONTEXT ( 'automotive_design' ) ;
#118 = AXIS2_PLACEMENT_3D ( 'NONE', #200, #245, #145 ) ;
#119 = ADVANCED_FACE ( 'NONE', ( #21 ), #195, .T. ) ;
#120 = ORIENTED_EDGE ( 'NONE', *, *, #241, .F. ) ;
#121 = EDGE_LOOP ( 'NONE', ( #237, #284, #260, #192 ) ) ;
#122 = CARTESIAN_POINT ( 'NONE',  ( -0.06250000000000000000, 0.0000000000000000000, 1.485000000000000764 ) ) ;
#123 = VECTOR ( 'NONE', #255, 39.37007874015748143 ) ;
#124 = DIRECTION ( 'NONE',  ( -1.000000000000000000, 0.0000000000000000000, 0.0000000000000000000 ) ) ;
#125 = DIRECTION ( 'NONE',  ( -0.1736481776669311639, 2.126576849575782392E-17, 0.9848077530122080203 ) ) ;
#126 = DIRECTION ( 'NONE',  ( -0.0000000000000000000, -0.0000000000000000000, -1.000000000000000000 ) ) ;
#127 = PRESENTATION_LAYER_ASSIGNMENT (  '', '', ( #66 ) ) ;
#128 = CARTESIAN_POINT ( 'NONE',  ( 4.592425496802575451E-17, 0.0000000000000000000, 0.3749999999999999445 ) ) ;
#129 = DIRECTION ( 'NONE',  ( -0.0000000000000000000, -0.0000000000000000000, -1.000000000000000000 ) ) ;
#130 = LINE ( 'NONE', #232, #123 ) ;
#131 = AXIS2_PLACEMENT_3D ( 'NONE', #65, #42, #124 ) ;
#132 = AXIS2_PLACEMENT_3D ( 'NONE', #262, #138, #161 ) ;
#133 = FACE_OUTER_BOUND ( 'NONE', #7, .T. ) ;
#134 = LINE ( 'NONE', #203, #48 ) ;
#135 = PRODUCT_CONTEXT ( 'NONE', #117, 'mechanical' ) ;
#136 = ORIENTED_EDGE ( 'NONE', *, *, #141, .F. ) ;
#137 = ORIENTED_EDGE ( 'NONE', *, *, #4, .T. ) ;
#138 = DIRECTION ( 'NONE',  ( 0.0000000000000000000, 0.0000000000000000000, 1.000000000000000000 ) ) ;
#139 = ORIENTED_EDGE ( 'NONE', *, *, #155, .T. ) ;
#140 = PRODUCT_DEFINITION_CONTEXT ( 'detailed design', #295, 'design' ) ;
#141 = EDGE_CURVE ( 'NONE', #6, #143, #290, .T. ) ;
#142 =( GEOMETRIC_REPRESENTATION_CONTEXT ( 3 ) GLOBAL_UNCERTAINTY_ASSIGNED_CONTEXT ( ( #258 ) ) GLOBAL_UNIT_ASSIGNED_CONTEXT ( ( #5, #114, #3 ) ) REPRESENTATION_CONTEXT ( 'NONE', 'WORKASPACE' ) );
#143 = VERTEX_POINT ( 'NONE', #108 ) ;
#144 = ORIENTED_EDGE ( 'NONE', *, *, #88, .F. ) ;
#145 = DIRECTION ( 'NONE',  ( -1.000000000000000000, 0.0000000000000000000, 1.224646799147353454E-16 ) ) ;
#146 = VECTOR ( 'NONE', #274, 39.37007874015748143 ) ;
#147 = FACE_OUTER_BOUND ( 'NONE', #283, .T. ) ;
#148 = CONICAL_SURFACE ( 'NONE', #264, 0.04750000000000064587, 0.7853981633974457255 ) ;
#149 = PRESENTATION_STYLE_ASSIGNMENT (( #269 ) ) ;
#150 = CARTESIAN_POINT ( 'NONE',  ( 0.0000000000000000000, 0.0000000000000000000, 1.500000000000000222 ) ) ;
#151 = LENGTH_MEASURE_WITH_UNIT ( LENGTH_MEASURE( 0.02539999999999999897 ), #89 );
#152 = VECTOR ( 'NONE', #202, 39.37007874015748143 ) ;
#153 = DIRECTION ( 'NONE',  ( 1.000000000000000000, 0.0000000000000000000, 0.0000000000000000000 ) ) ;
#154 = DIRECTION ( 'NONE',  ( -1.224646799147353454E-16, -0.0000000000000000000, -1.000000000000000000 ) ) ;
#155 = EDGE_CURVE ( 'NONE', #162, #102, #107, .T. ) ;
#156 = AXIS2_PLACEMENT_3D ( 'NONE', #267, #248, #106 ) ;
#157 = FACE_OUTER_BOUND ( 'NONE', #121, .T. ) ;
#158 = DIRECTION ( 'NONE',  ( 1.224646799147353454E-16, 0.0000000000000000000, 1.000000000000000000 ) ) ;
#159 = EDGE_LOOP ( 'NONE', ( #35, #277, #75, #81 ) ) ;
#160 = AXIS2_PLACEMENT_3D ( 'NONE', #172, #158, #252 ) ;
#161 = DIRECTION ( 'NONE',  ( 1.000000000000000000, 0.0000000000000000000, 0.0000000000000000000 ) ) ;
#162 = VERTEX_POINT ( 'NONE', #294 ) ;
#163 = MANIFOLD_SOLID_BREP ( 'Cut-Revolve1', #198 ) ;
#164 = UNCERTAINTY_MEASURE_WITH_UNIT (LENGTH_MEASURE( 1.000000000000000082E-05 ), #90, 'distance_accuracy_value', 'NONE');
#165 =( LENGTH_UNIT ( ) NAMED_UNIT ( * ) SI_UNIT ( $, .METRE. ) );
#166 = ORIENTED_EDGE ( 'NONE', *, *, #57, .F. ) ;
#167 = ADVANCED_FACE ( 'NONE', ( #133 ), #214, .T. ) ;
#168 = EDGE_LOOP ( 'NONE', ( #73, #239, #9, #212 ) ) ;
#169 = CIRCLE ( 'NONE', #235, 0.06250000000000000000 ) ;
#170 = SURFACE_STYLE_FILL_AREA ( #80 ) ;
#171 = ORIENTED_EDGE ( 'NONE', *, *, #4, .F. ) ;
#172 = CARTESIAN_POINT ( 'NONE',  ( 4.592425496802575451E-17, 0.0000000000000000000, 0.3749999999999999445 ) ) ;
#173 = CARTESIAN_POINT ( 'NONE',  ( 0.06250000000000000000, 7.654042494670956004E-18, 1.485000000000000764 ) ) ;
#174 = SURFACE_SIDE_STYLE ('',( #39 ) ) ;
#175 = CARTESIAN_POINT ( 'NONE',  ( 0.04685310000000000169, 5.737849894513085128E-18, 0.0000000000000000000 ) ) ;
#176 = LINE ( 'NONE', #64, #74 ) ;
#177 = DIRECTION ( 'NONE',  ( 1.000000000000000000, 0.0000000000000000000, 0.0000000000000000000 ) ) ;
#178 = CIRCLE ( 'NONE', #8, 0.04750000000000064587 ) ;
#179 = CARTESIAN_POINT ( 'NONE',  ( 7.026839507303431300E-34, 0.0000000000000000000, 5.737849894513086668E-18 ) ) ;
#180 = PLANE ( 'NONE',  #275 ) ;
#181 = LINE ( 'NONE', #208, #146 ) ;
#182 = UNCERTAINTY_MEASURE_WITH_UNIT (LENGTH_MEASURE( 1.000000000000000082E-05 ), #278, 'distance_accuracy_value', 'NONE');
#183 = CIRCLE ( 'NONE', #194, 0.06250000000000000000 ) ;
#184 = DIRECTION ( 'NONE',  ( -1.224646799147353454E-16, -0.0000000000000000000, -1.000000000000000000 ) ) ;
#185 = EDGE_CURVE ( 'NONE', #102, #54, #91, .T. ) ;
#186 = PRODUCT_DEFINITION ( 'UNKNOWN', '', #19, #140 ) ;
#187 = ORIENTED_EDGE ( 'NONE', *, *, #88, .T. ) ;
#188 = CIRCLE ( 'NONE', #156, 0.04685310000000000863 ) ;
#189 = EDGE_CURVE ( 'NONE', #6, #79, #130, .T. ) ;
#190 =( NAMED_UNIT ( * ) PLANE_ANGLE_UNIT ( ) SI_UNIT ( $, .RADIAN. ) );
#191 = ADVANCED_FACE ( 'NONE', ( #229 ), #271, .T. ) ;
#192 = ORIENTED_EDGE ( 'NONE', *, *, #289, .F. ) ;
#193 = DIRECTION ( 'NONE',  ( 0.0000000000000000000, 0.0000000000000000000, 1.000000000000000000 ) ) ;
#194 = AXIS2_PLACEMENT_3D ( 'NONE', #94, #2, #299 ) ;
#195 = CYLINDRICAL_SURFACE ( 'NONE', #219, 0.06250000000000000000 ) ;
#196 = FILL_AREA_STYLE ('',( #85 ) ) ;
#197 = CARTESIAN_POINT ( 'NONE',  ( 0.0000000000000000000, 0.0000000000000000000, 0.0000000000000000000 ) ) ;
#198 = CLOSED_SHELL ( 'NONE', ( #62, #69, #287, #119, #191, #111, #26, #167, #246, #228 ) ) ;
#199 = AXIS2_PLACEMENT_3D ( 'NONE', #28, #22, #298 ) ;
#200 = CARTESIAN_POINT ( 'NONE',  ( 7.026839507303431300E-34, 0.0000000000000000000, 5.737849894513086668E-18 ) ) ;
#201 = EDGE_CURVE ( 'NONE', #217, #265, #134, .T. ) ;
#202 = DIRECTION ( 'NONE',  ( -0.7071067811865456854, 0.0000000000000000000, -0.7071067811865493491 ) ) ;
#203 = CARTESIAN_POINT ( 'NONE',  ( -0.04685310000000000169, 0.0000000000000000000, 5.737849894513086668E-18 ) ) ;
#204 = VECTOR ( 'NONE', #68, 39.37007874015748143 ) ;
#205 = PRESENTATION_LAYER_ASSIGNMENT (  '', '', ( #38 ) ) ;
#206 = CARTESIAN_POINT ( 'NONE',  ( 0.04750000000000064587, 6.735557395310482421E-18, 1.500000000000000222 ) ) ;
#207 = DIRECTION ( 'NONE',  ( 1.000000000000000000, 0.0000000000000000000, 0.0000000000000000000 ) ) ;
#208 = CARTESIAN_POINT ( 'NONE',  ( 0.04750000000000064587, 5.817072295950006528E-18, 1.500000000000000222 ) ) ;
#209 = AXIS2_PLACEMENT_3D ( 'NONE', #197, #45, #291 ) ;
#210 = PRODUCT_DEFINITION_SHAPE ( 'NONE', 'NONE',  #186 ) ;
#211 = DIRECTION ( 'NONE',  ( -1.000000000000000000, 0.0000000000000000000, 1.224646799147353454E-16 ) ) ;
#212 = ORIENTED_EDGE ( 'NONE', *, *, #201, .F. ) ;
#213 = EDGE_LOOP ( 'NONE', ( #77, #187, #100, #136 ) ) ;
#214 = CONICAL_SURFACE ( 'NONE', #160, 0.04685310000000000863, 0.1745329251994338360 ) ;
#215 = EDGE_CURVE ( 'NONE', #263, #54, #181, .T. ) ;
#216 = ORIENTED_EDGE ( 'NONE', *, *, #51, .T. ) ;
#217 = VERTEX_POINT ( 'NONE', #110 ) ;
#218 = ORIENTED_EDGE ( 'NONE', *, *, #289, .T. ) ;
#219 = AXIS2_PLACEMENT_3D ( 'NONE', #87, #126, #220 ) ;
#220 = DIRECTION ( 'NONE',  ( -1.000000000000000000, 0.0000000000000000000, 0.0000000000000000000 ) ) ;
#221 = DIRECTION ( 'NONE',  ( 1.000000000000000000, 0.0000000000000000000, 0.0000000000000000000 ) ) ;
#222 = EDGE_CURVE ( 'NONE', #143, #59, #183, .T. ) ;
#223 = CYLINDRICAL_SURFACE ( 'NONE', #209, 0.04685310000000000169 ) ;
#224 = AXIS2_PLACEMENT_3D ( 'NONE', #47, #253, #207 ) ;
#225 = CARTESIAN_POINT ( 'NONE',  ( 0.0000000000000000000, 0.0000000000000000000, 1.500000000000000222 ) ) ;
#226 = DIRECTION ( 'NONE',  ( -1.000000000000000000, 0.0000000000000000000, 0.0000000000000000000 ) ) ;
#227 = FACE_OUTER_BOUND ( 'NONE', #32, .T. ) ;
#228 = ADVANCED_FACE ( 'NONE', ( #93 ), #180, .F. ) ;
#229 = FACE_OUTER_BOUND ( 'NONE', #257, .T. ) ;
#230 = CONICAL_SURFACE ( 'NONE', #82, 0.04685310000000000863, 0.1745329251994338360 ) ;
#231 = PRODUCT_RELATED_PRODUCT_CATEGORY ( 'part', '', ( #256 ) ) ;
#232 = CARTESIAN_POINT ( 'NONE',  ( 0.04685310000000000169, 5.737849894513085128E-18, -5.737849894513086668E-18 ) ) ;
#233 = CARTESIAN_POINT ( 'NONE',  ( -0.06250000000000000000, 0.0000000000000000000, 1.500000000000000222 ) ) ;
#234 = LINE ( 'NONE', #273, #204 ) ;
#235 = AXIS2_PLACEMENT_3D ( 'NONE', #254, #184, #153 ) ;
#236 = APPLICATION_PROTOCOL_DEFINITION ( 'draft international standard', 'automotive_design', 1998, #295 ) ;
#237 = ORIENTED_EDGE ( 'NONE', *, *, #189, .F. ) ;
#238 = ORIENTED_EDGE ( 'NONE', *, *, #215, .T. ) ;
#239 = ORIENTED_EDGE ( 'NONE', *, *, #189, .T. ) ;
#240 = ORIENTED_EDGE ( 'NONE', *, *, #34, .F. ) ;
#241 = EDGE_CURVE ( 'NONE', #54, #143, #234, .T. ) ;
#242 = CARTESIAN_POINT ( 'NONE',  ( 0.04685310000000005026, 0.0000000000000000000, 0.3749999999999999445 ) ) ;
#243 = EDGE_CURVE ( 'NONE', #54, #102, #23, .T. ) ;
#244 = CARTESIAN_POINT ( 'NONE',  ( 0.0000000000000000000, 0.0000000000000000000, 1.500000000000000222 ) ) ;
#245 = DIRECTION ( 'NONE',  ( -1.224646799147353454E-16, -0.0000000000000000000, -1.000000000000000000 ) ) ;
#246 = ADVANCED_FACE ( 'NONE', ( #157 ), #67, .T. ) ;
#247 = CONICAL_SURFACE ( 'NONE', #199, 0.04750000000000064587, 0.7853981633974457255 ) ;
#248 = DIRECTION ( 'NONE',  ( -1.224646799147353454E-16, -0.0000000000000000000, -1.000000000000000000 ) ) ;
#249 = MECHANICAL_DESIGN_GEOMETRIC_PRESENTATION_REPRESENTATION (  '', ( #38 ), #268 ) ;
#250 = LINE ( 'NONE', #233, #43 ) ;
#251 = EDGE_CURVE ( 'NONE', #59, #143, #169, .T. ) ;
#252 = DIRECTION ( 'NONE',  ( 1.000000000000000000, 0.0000000000000000000, 0.0000000000000000000 ) ) ;
#253 = DIRECTION ( 'NONE',  ( 0.0000000000000000000, 0.0000000000000000000, -1.000000000000000000 ) ) ;
#254 = CARTESIAN_POINT ( 'NONE',  ( 5.679152322418701052E-17, 0.0000000000000000000, 0.4637379795033758079 ) ) ;
#255 = DIRECTION ( 'NONE',  ( -1.224646799147353454E-16, -0.0000000000000000000, -1.000000000000000000 ) ) ;
#256 = PRODUCT ( 'Micro_RDC-20', 'Micro_RDC-20', '', ( #135 ) ) ;
#257 = EDGE_LOOP ( 'NONE', ( #120, #280, #55, #286 ) ) ;
#258 = UNCERTAINTY_MEASURE_WITH_UNIT (LENGTH_MEASURE( 1.000000000000000082E-05 ), #5, 'distance_accuracy_value', 'NONE');
#259 = MECHANICAL_DESIGN_GEOMETRIC_PRESENTATION_REPRESENTATION (  '', ( #66 ), #60 ) ;
#260 = ORIENTED_EDGE ( 'NONE', *, *, #201, .T. ) ;
#261 = ORIENTED_EDGE ( 'NONE', *, *, #155, .F. ) ;
#262 = CARTESIAN_POINT ( 'NONE',  ( 0.0000000000000000000, 0.0000000000000000000, 0.0000000000000000000 ) ) ;
#263 = VERTEX_POINT ( 'NONE', #206 ) ;
#264 = AXIS2_PLACEMENT_3D ( 'NONE', #150, #40, #226 ) ;
#265 = VERTEX_POINT ( 'NONE', #50 ) ;
#266 = PLANE ( 'NONE',  #297 ) ;
#267 = CARTESIAN_POINT ( 'NONE',  ( 4.592425496802575451E-17, 0.0000000000000000000, 0.3749999999999999445 ) ) ;
#268 =( GEOMETRIC_REPRESENTATION_CONTEXT ( 3 ) GLOBAL_UNCERTAINTY_ASSIGNED_CONTEXT ( ( #182 ) ) GLOBAL_UNIT_ASSIGNED_CONTEXT ( ( #278, #190, #282 ) ) REPRESENTATION_CONTEXT ( 'NONE', 'WORKASPACE' ) );
#269 = SURFACE_STYLE_USAGE ( .BOTH. , #174 ) ;
#270 = CARTESIAN_POINT ( 'NONE',  ( -0.06249999999999993755, 0.0000000000000000000, 0.4637379795033758079 ) ) ;
#271 = CYLINDRICAL_SURFACE ( 'NONE', #86, 0.06250000000000000000 ) ;
#272 = DIRECTION ( 'NONE',  ( -1.224646799147353454E-16, -0.0000000000000000000, -1.000000000000000000 ) ) ;
#273 = CARTESIAN_POINT ( 'NONE',  ( 0.06250000000000000000, 7.654042494670956004E-18, 1.500000000000000222 ) ) ;
#274 = DIRECTION ( 'NONE',  ( 0.7071067811865456854, 8.659560562354911904E-17, -0.7071067811865493491 ) ) ;
#275 = AXIS2_PLACEMENT_3D ( 'NONE', #112, #52, #72 ) ;
#276 = EDGE_CURVE ( 'NONE', #102, #59, #250, .T. ) ;
#277 = ORIENTED_EDGE ( 'NONE', *, *, #241, .T. ) ;
#278 =( CONVERSION_BASED_UNIT ( 'INCH', #285 ) LENGTH_UNIT ( ) NAMED_UNIT ( #44 ) );
#279 = CIRCLE ( 'NONE', #281, 0.04750000000000064587 ) ;
#280 = ORIENTED_EDGE ( 'NONE', *, *, #243, .T. ) ;
#281 = AXIS2_PLACEMENT_3D ( 'NONE', #11, #193, #61 ) ;
#282 =( NAMED_UNIT ( * ) SI_UNIT ( $, .STERADIAN. ) SOLID_ANGLE_UNIT ( ) );
#283 = EDGE_LOOP ( 'NONE', ( #116, #137 ) ) ;
#284 = ORIENTED_EDGE ( 'NONE', *, *, #34, .T. ) ;
#285 = LENGTH_MEASURE_WITH_UNIT ( LENGTH_MEASURE( 0.02539999999999999897 ), #99 );
#286 = ORIENTED_EDGE ( 'NONE', *, *, #222, .F. ) ;
#287 = ADVANCED_FACE ( 'NONE', ( #227 ), #247, .T. ) ;
#288 = DIRECTION ( 'NONE',  ( 0.0000000000000000000, 0.0000000000000000000, 1.000000000000000000 ) ) ;
#289 = EDGE_CURVE ( 'NONE', #79, #265, #33, .T. ) ;
#290 = LINE ( 'NONE', #15, #98 ) ;
#291 = DIRECTION ( 'NONE',  ( -1.000000000000000000, 0.0000000000000000000, 1.224646799147353454E-16 ) ) ;
#292 = AXIS2_PLACEMENT_3D ( 'NONE', #109, #25, #177 ) ;
#293 = FACE_OUTER_BOUND ( 'NONE', #213, .T. ) ;
#294 = CARTESIAN_POINT ( 'NONE',  ( -0.04750000000000064587, 0.0000000000000000000, 1.500000000000000222 ) ) ;
#295 = APPLICATION_CONTEXT ( 'automotive_design' ) ;
#296 = CARTESIAN_POINT ( 'NONE',  ( 0.0000000000000000000, 0.0000000000000000000, 1.500000000000000222 ) ) ;
#297 = AXIS2_PLACEMENT_3D ( 'NONE', #244, #83, #17 ) ;
#298 = DIRECTION ( 'NONE',  ( -1.000000000000000000, 0.0000000000000000000, 0.0000000000000000000 ) ) ;
#299 = DIRECTION ( 'NONE',  ( 1.000000000000000000, 0.0000000000000000000, 0.0000000000000000000 ) ) ;
ENDSEC;
END-ISO-10303-21;
