ISO-10303-21;
HEADER;
FILE_DESCRIPTION (( 'STEP AP214' ),
    '1' );
FILE_NAME ('12332.STEP',
    '2023-06-30T21:51:15',
    ( '' ),
    ( '' ),
    'SwSTEP 2.0',
    'SolidWorks 2023',
    '' );
FILE_SCHEMA (( 'AUTOMOTIVE_DESIGN' ));
ENDSEC;

DATA;
#1 =( CONVERSION_BASED_UNIT ( 'INCH', #52 ) LENGTH_UNIT ( ) NAMED_UNIT ( #174 ) );
#2 = DIRECTION ( 'NONE',  ( -1.224646799147353700E-16, 1.000000000000000000, -0.000000000000000000 ) ) ;
#3 = DIRECTION ( 'NONE',  ( -1.000000000000000000, 0.000000000000000000, 0.000000000000000000 ) ) ;
#4 = VECTOR ( 'NONE', #143, 39.37007874015748143 ) ;
#5 = ADVANCED_FACE ( 'NONE', ( #345 ), #135, .T. ) ;
#6 = FILL_AREA_STYLE ('',( #9 ) ) ;
#7 = CARTESIAN_POINT ( 'NONE',  ( 0.000000000000000000, 0.2500000000000000000, 0.000000000000000000 ) ) ;
#8 = SURFACE_STYLE_USAGE ( .BOTH. , #357 ) ;
#9 = FILL_AREA_STYLE_COLOUR ( '', #331 ) ;
#10 = CARTESIAN_POINT ( 'NONE',  ( -0.2500000000000000000, 0.2500000000000000000, 3.061616997868382402E-17 ) ) ;
#11 = PRESENTATION_LAYER_ASSIGNMENT (  '', '', ( #89 ) ) ;
#12 = LENGTH_MEASURE_WITH_UNIT ( LENGTH_MEASURE( 0.02539999999999999897 ), #257 );
#13 = DIRECTION ( 'NONE',  ( -0.000000000000000000, -1.000000000000000000, -0.000000000000000000 ) ) ;
#14 = FILL_AREA_STYLE ('',( #152 ) ) ;
#15 = DIRECTION ( 'NONE',  ( 0.000000000000000000, 0.000000000000000000, -1.000000000000000000 ) ) ;
#16 = EDGE_CURVE ( 'NONE', #216, #127, #273, .T. ) ;
#17 = AXIS2_PLACEMENT_3D ( 'NONE', #295, #115, #153 ) ;
#18 = VERTEX_POINT ( 'NONE', #36 ) ;
#19 = FACE_OUTER_BOUND ( 'NONE', #342, .T. ) ;
#20 = DIRECTION ( 'NONE',  ( 1.224646799147353700E-16, -1.000000000000000000, 0.000000000000000000 ) ) ;
#21 = ORIENTED_EDGE ( 'NONE', *, *, #114, .T. ) ;
#22 = SURFACE_STYLE_FILL_AREA ( #24 ) ;
#23 = ORIENTED_EDGE ( 'NONE', *, *, #362, .T. ) ;
#24 = FILL_AREA_STYLE ('',( #162 ) ) ;
#25 = VECTOR ( 'NONE', #281, 39.37007874015748143 ) ;
#26 = ORIENTED_EDGE ( 'NONE', *, *, #330, .F. ) ;
#27 = ORIENTED_EDGE ( 'NONE', *, *, #54, .F. ) ;
#28 = DIMENSIONAL_EXPONENTS ( 1.000000000000000000, 0.000000000000000000, 0.000000000000000000, 0.000000000000000000, 0.000000000000000000, 0.000000000000000000, 0.000000000000000000 ) ;
#29 = SURFACE_STYLE_FILL_AREA ( #14 ) ;
#30 = CARTESIAN_POINT ( 'NONE',  ( 0.000000000000000000, 0.2500000000000000000, -0.2500000000000000000 ) ) ;
#31 = COLOUR_RGB ( '',0.7921568627450980005, 0.8196078431372548767, 0.9333333333333333481 ) ;
#32 = DIMENSIONAL_EXPONENTS ( 1.000000000000000000, 0.000000000000000000, 0.000000000000000000, 0.000000000000000000, 0.000000000000000000, 0.000000000000000000, 0.000000000000000000 ) ;
#33 = FACE_OUTER_BOUND ( 'NONE', #49, .T. ) ;
#34 = PRESENTATION_LAYER_ASSIGNMENT (  '', '', ( #338 ) ) ;
#35 = FILL_AREA_STYLE_COLOUR ( '', #87 ) ;
#36 = CARTESIAN_POINT ( 'NONE',  ( 3.061616997868383018E-17, 0.2500000000000000000, 0.2500000000000000000 ) ) ;
#37 = DIRECTION ( 'NONE',  ( -1.224646799147353700E-16, 1.000000000000000000, -0.000000000000000000 ) ) ;
#38 = CARTESIAN_POINT ( 'NONE',  ( 0.000000000000000000, 0.2500000000000000000, 0.000000000000000000 ) ) ;
#39 = ADVANCED_BREP_SHAPE_REPRESENTATION ( '12332', ( #53, #298, #286 ), #363 ) ;
#40 = EDGE_LOOP ( 'NONE', ( #301, #155, #365, #137, #340 ) ) ;
#41 = UNCERTAINTY_MEASURE_WITH_UNIT (LENGTH_MEASURE( 1.000000000000000082E-05 ), #160, 'distance_accuracy_value', 'NONE');
#42 = DIRECTION ( 'NONE',  ( -0.000000000000000000, -1.000000000000000000, -0.000000000000000000 ) ) ;
#43 = SURFACE_STYLE_USAGE ( .BOTH. , #296 ) ;
#44 = ORIENTED_EDGE ( 'NONE', *, *, #249, .T. ) ;
#45 = VECTOR ( 'NONE', #100, 39.37007874015748143 ) ;
#46 = DIRECTION ( 'NONE',  ( 0.000000000000000000, 0.000000000000000000, 1.000000000000000000 ) ) ;
#47 = SURFACE_STYLE_FILL_AREA ( #303 ) ;
#48 = ORIENTED_EDGE ( 'NONE', *, *, #226, .T. ) ;
#49 = EDGE_LOOP ( 'NONE', ( #21, #276, #268, #27 ) ) ;
#50 = PRODUCT ( '12332', '12332', '', ( #197 ) ) ;
#51 = AXIS2_PLACEMENT_3D ( 'NONE', #125, #20, #305 ) ;
#52 = LENGTH_MEASURE_WITH_UNIT ( LENGTH_MEASURE( 0.02539999999999999897 ), #367 );
#53 = MANIFOLD_SOLID_BREP ( 'Revolve - Cutting Edge', #199 ) ;
#54 = EDGE_CURVE ( 'NONE', #129, #131, #324, .T. ) ;
#55 =( NAMED_UNIT ( * ) SI_UNIT ( $, .STERADIAN. ) SOLID_ANGLE_UNIT ( ) );
#56 = AXIS2_PLACEMENT_3D ( 'NONE', #332, #42, #146 ) ;
#57 =( CONVERSION_BASED_UNIT ( 'INCH', #319 ) LENGTH_UNIT ( ) NAMED_UNIT ( #32 ) );
#58 = CARTESIAN_POINT ( 'NONE',  ( 1.836970198721030427E-16, 1.000000000000000000, 0.000000000000000000 ) ) ;
#59 =( GEOMETRIC_REPRESENTATION_CONTEXT ( 3 ) GLOBAL_UNCERTAINTY_ASSIGNED_CONTEXT ( ( #307 ) ) GLOBAL_UNIT_ASSIGNED_CONTEXT ( ( #321, #372, #55 ) ) REPRESENTATION_CONTEXT ( 'NONE', 'WORKASPACE' ) );
#60 = CARTESIAN_POINT ( 'NONE',  ( -6.123233995736772199E-17, 3.000000000000000444, 0.000000000000000000 ) ) ;
#61 = DIRECTION ( 'NONE',  ( -1.000000000000000000, 0.000000000000000000, 0.000000000000000000 ) ) ;
#62 =( LENGTH_UNIT ( ) NAMED_UNIT ( * ) SI_UNIT ( $, .METRE. ) );
#63 = DIRECTION ( 'NONE',  ( -0.000000000000000000, -1.000000000000000000, -0.000000000000000000 ) ) ;
#64 = DIRECTION ( 'NONE',  ( -1.224646799147353700E-16, 1.000000000000000000, -0.000000000000000000 ) ) ;
#65 = DIRECTION ( 'NONE',  ( 0.000000000000000000, 0.000000000000000000, -1.000000000000000000 ) ) ;
#66 = CIRCLE ( 'NONE', #17, 0.2500000000000000000 ) ;
#67 = CARTESIAN_POINT ( 'NONE',  ( 0.000000000000000000, 0.000000000000000000, -0.2499999999999999167 ) ) ;
#68 = LENGTH_MEASURE_WITH_UNIT ( LENGTH_MEASURE( 0.02539999999999999897 ), #73 );
#69 =( NAMED_UNIT ( * ) PLANE_ANGLE_UNIT ( ) SI_UNIT ( $, .RADIAN. ) );
#70 = ORIENTED_EDGE ( 'NONE', *, *, #282, .F. ) ;
#71 = CIRCLE ( 'NONE', #111, 0.2499999999999997224 ) ;
#72 = EDGE_LOOP ( 'NONE', ( #75, #44 ) ) ;
#73 =( LENGTH_UNIT ( ) NAMED_UNIT ( * ) SI_UNIT ( $, .METRE. ) );
#74 = DIRECTION ( 'NONE',  ( 0.000000000000000000, 0.000000000000000000, 1.000000000000000000 ) ) ;
#75 = ORIENTED_EDGE ( 'NONE', *, *, #159, .T. ) ;
#76 = PRESENTATION_STYLE_ASSIGNMENT (( #308 ) ) ;
#77 = CARTESIAN_POINT ( 'NONE',  ( -6.123233995736772199E-17, 3.000000000000000444, 0.000000000000000000 ) ) ;
#78 = AXIS2_PLACEMENT_3D ( 'NONE', #260, #351, #359 ) ;
#79 =( NAMED_UNIT ( * ) PLANE_ANGLE_UNIT ( ) SI_UNIT ( $, .RADIAN. ) );
#80 = EDGE_CURVE ( 'NONE', #193, #129, #190, .T. ) ;
#81 = CARTESIAN_POINT ( 'NONE',  ( -6.123233995736772199E-17, 3.000000000000000444, 0.000000000000000000 ) ) ;
#82 = MECHANICAL_DESIGN_GEOMETRIC_PRESENTATION_REPRESENTATION (  '', ( #139 ), #92 ) ;
#83 = AXIS2_PLACEMENT_3D ( 'NONE', #328, #251, #3 ) ;
#84 =( NAMED_UNIT ( * ) SI_UNIT ( $, .STERADIAN. ) SOLID_ANGLE_UNIT ( ) );
#85 = DIMENSIONAL_EXPONENTS ( 1.000000000000000000, 0.000000000000000000, 0.000000000000000000, 0.000000000000000000, 0.000000000000000000, 0.000000000000000000, 0.000000000000000000 ) ;
#86 = CARTESIAN_POINT ( 'NONE',  ( 1.836970198721030427E-16, 1.000000000000000000, 0.000000000000000000 ) ) ;
#87 = COLOUR_RGB ( '',0.7921568627450980005, 0.8196078431372548767, 0.9333333333333333481 ) ;
#88 = MECHANICAL_DESIGN_GEOMETRIC_PRESENTATION_REPRESENTATION (  '', ( #172 ), #59 ) ;
#89 = STYLED_ITEM ( 'NONE', ( #262 ), #179 ) ;
#90 = FILL_AREA_STYLE ('',( #35 ) ) ;
#91 = CARTESIAN_POINT ( 'NONE',  ( -0.2499999999999999167, 3.000000000000000444, 0.000000000000000000 ) ) ;
#92 =( GEOMETRIC_REPRESENTATION_CONTEXT ( 3 ) GLOBAL_UNCERTAINTY_ASSIGNED_CONTEXT ( ( #335 ) ) GLOBAL_UNIT_ASSIGNED_CONTEXT ( ( #1, #218, #250 ) ) REPRESENTATION_CONTEXT ( 'NONE', 'WORKASPACE' ) );
#93 = CIRCLE ( 'NONE', #107, 0.2499999999999999722 ) ;
#94 = SURFACE_STYLE_FILL_AREA ( #299 ) ;
#95 =( LENGTH_UNIT ( ) NAMED_UNIT ( * ) SI_UNIT ( $, .METRE. ) );
#96 = CARTESIAN_POINT ( 'NONE',  ( 1.836970198721030181E-16, 1.000000000000000000, 0.000000000000000000 ) ) ;
#97 = EDGE_CURVE ( 'NONE', #310, #329, #66, .T. ) ;
#98 = EDGE_LOOP ( 'NONE', ( #347, #166, #26, #297 ) ) ;
#99 = SPHERICAL_SURFACE ( 'NONE', #280, 0.2500000000000000000 ) ;
#100 = DIRECTION ( 'NONE',  ( -0.000000000000000000, -1.000000000000000000, -0.000000000000000000 ) ) ;
#101 = AXIS2_PLACEMENT_3D ( 'NONE', #7, #63, #225 ) ;
#102 = ORIENTED_EDGE ( 'NONE', *, *, #16, .T. ) ;
#103 = SURFACE_STYLE_USAGE ( .BOTH. , #370 ) ;
#104 = SHAPE_DEFINITION_REPRESENTATION ( #205, #39 ) ;
#105 = ORIENTED_EDGE ( 'NONE', *, *, #114, .F. ) ;
#106 = AXIS2_PLACEMENT_3D ( 'NONE', #58, #327, #61 ) ;
#107 = AXIS2_PLACEMENT_3D ( 'NONE', #81, #2, #142 ) ;
#108 =( NAMED_UNIT ( * ) SI_UNIT ( $, .STERADIAN. ) SOLID_ANGLE_UNIT ( ) );
#109 = DIRECTION ( 'NONE',  ( 1.000000000000000000, 0.000000000000000000, 0.000000000000000000 ) ) ;
#110 = DIRECTION ( 'NONE',  ( -1.224646799147353700E-16, 1.000000000000000000, -0.000000000000000000 ) ) ;
#111 = AXIS2_PLACEMENT_3D ( 'NONE', #86, #64, #208 ) ;
#112 = COLOUR_RGB ( '',1.000000000000000000, 0.000000000000000000, 0.000000000000000000 ) ;
#113 = SURFACE_SIDE_STYLE ('',( #334 ) ) ;
#114 = EDGE_CURVE ( 'NONE', #129, #193, #71, .T. ) ;
#115 = DIRECTION ( 'NONE',  ( 1.224646799147353207E-16, -0.000000000000000000, 1.000000000000000000 ) ) ;
#116 = SURFACE_STYLE_USAGE ( .BOTH. , #113 ) ;
#117 = CARTESIAN_POINT ( 'NONE',  ( -1.530808498934191509E-17, 0.000000000000000000, 0.000000000000000000 ) ) ;
#118 = AXIS2_PLACEMENT_3D ( 'NONE', #207, #37, #151 ) ;
#119 = FACE_OUTER_BOUND ( 'NONE', #187, .T. ) ;
#120 = ADVANCED_FACE ( 'NONE', ( #123 ), #206, .T. ) ;
#121 = UNCERTAINTY_MEASURE_WITH_UNIT (LENGTH_MEASURE( 1.000000000000000082E-05 ), #57, 'distance_accuracy_value', 'NONE');
#122 = ORIENTED_EDGE ( 'NONE', *, *, #80, .T. ) ;
#123 = FACE_OUTER_BOUND ( 'NONE', #98, .T. ) ;
#124 = CARTESIAN_POINT ( 'NONE',  ( 0.2499999999999999167, 1.000000000000000000, 3.061616997868382402E-17 ) ) ;
#125 = CARTESIAN_POINT ( 'NONE',  ( 0.2499999999999998890, 3.000000000000000444, 0.000000000000000000 ) ) ;
#126 = CARTESIAN_POINT ( 'NONE',  ( -3.061616997868383018E-17, 0.2500000000000000000, 0.000000000000000000 ) ) ;
#127 = VERTEX_POINT ( 'NONE', #277 ) ;
#128 = CYLINDRICAL_SURFACE ( 'NONE', #196, 0.2499999999999999167 ) ;
#129 = VERTEX_POINT ( 'NONE', #182 ) ;
#130 = PRESENTATION_STYLE_ASSIGNMENT (( #244 ) ) ;
#131 = VERTEX_POINT ( 'NONE', #254 ) ;
#132 = VECTOR ( 'NONE', #203, 39.37007874015748143 ) ;
#133 = DIRECTION ( 'NONE',  ( -1.224646799147353700E-16, 1.000000000000000000, 0.000000000000000000 ) ) ;
#134 = APPLICATION_PROTOCOL_DEFINITION ( 'draft international standard', 'automotive_design', 1998, #239 ) ;
#135 = CYLINDRICAL_SURFACE ( 'NONE', #195, 0.2499999999999999167 ) ;
#136 = ADVANCED_FACE ( 'NONE', ( #358 ), #99, .T. ) ;
#137 = ORIENTED_EDGE ( 'NONE', *, *, #362, .F. ) ;
#138 = CARTESIAN_POINT ( 'NONE',  ( 0.000000000000000000, 0.000000000000000000, 0.000000000000000000 ) ) ;
#139 = STYLED_ITEM ( 'NONE', ( #312 ), #5 ) ;
#140 = PRODUCT_RELATED_PRODUCT_CATEGORY ( 'part', '', ( #50 ) ) ;
#141 = CARTESIAN_POINT ( 'NONE',  ( 3.061616997868382402E-17, 0.000000000000000000, 0.2499999999999999167 ) ) ;
#142 = DIRECTION ( 'NONE',  ( -1.000000000000000000, 0.000000000000000000, 0.000000000000000000 ) ) ;
#143 = DIRECTION ( 'NONE',  ( -0.000000000000000000, -1.000000000000000000, -0.000000000000000000 ) ) ;
#144 = SURFACE_STYLE_FILL_AREA ( #356 ) ;
#145 =( NAMED_UNIT ( * ) PLANE_ANGLE_UNIT ( ) SI_UNIT ( $, .RADIAN. ) );
#146 = DIRECTION ( 'NONE',  ( 0.000000000000000000, 0.000000000000000000, -1.000000000000000000 ) ) ;
#147 = ADVANCED_FACE ( 'NONE', ( #210 ), #366, .F. ) ;
#148 = PRESENTATION_STYLE_ASSIGNMENT (( #8 ) ) ;
#149 = PRESENTATION_LAYER_ASSIGNMENT (  '', '', ( #202 ) ) ;
#150 = MECHANICAL_DESIGN_GEOMETRIC_PRESENTATION_REPRESENTATION (  '', ( #211 ), #274 ) ;
#151 = DIRECTION ( 'NONE',  ( -1.000000000000000000, 0.000000000000000000, 0.000000000000000000 ) ) ;
#152 = FILL_AREA_STYLE_COLOUR ( '', #31 ) ;
#153 = DIRECTION ( 'NONE',  ( 1.000000000000000000, 0.000000000000000000, -1.224646799147353207E-16 ) ) ;
#154 =( NAMED_UNIT ( * ) SI_UNIT ( $, .STERADIAN. ) SOLID_ANGLE_UNIT ( ) );
#155 = ORIENTED_EDGE ( 'NONE', *, *, #192, .T. ) ;
#156 = MECHANICAL_DESIGN_GEOMETRIC_PRESENTATION_REPRESENTATION (  '', ( #167 ), #227 ) ;
#157 = PRODUCT_DEFINITION_CONTEXT ( 'detailed design', #373, 'design' ) ;
#158 = COLOUR_RGB ( '',1.000000000000000000, 0.000000000000000000, 0.000000000000000000 ) ;
#159 = EDGE_CURVE ( 'NONE', #131, #265, #256, .T. ) ;
#160 =( CONVERSION_BASED_UNIT ( 'INCH', #68 ) LENGTH_UNIT ( ) NAMED_UNIT ( #28 ) );
#161 = ORIENTED_EDGE ( 'NONE', *, *, #302, .T. ) ;
#162 = FILL_AREA_STYLE_COLOUR ( '', #158 ) ;
#163 =( LENGTH_UNIT ( ) NAMED_UNIT ( * ) SI_UNIT ( $, .METRE. ) );
#164 = EDGE_LOOP ( 'NONE', ( #105, #219 ) ) ;
#165 = LENGTH_MEASURE_WITH_UNIT ( LENGTH_MEASURE( 0.02539999999999999897 ), #240 );
#166 = ORIENTED_EDGE ( 'NONE', *, *, #97, .T. ) ;
#167 = STYLED_ITEM ( 'NONE', ( #204 ), #136 ) ;
#168 = AXIS2_PLACEMENT_3D ( 'NONE', #336, #188, #15 ) ;
#169 = APPLICATION_PROTOCOL_DEFINITION ( 'draft international standard', 'automotive_design', 1998, #373 ) ;
#170 = VERTEX_POINT ( 'NONE', #309 ) ;
#171 = LINE ( 'NONE', #371, #25 ) ;
#172 = STYLED_ITEM ( 'NONE', ( #130 ), #201 ) ;
#173 = DIRECTION ( 'NONE',  ( -0.000000000000000000, -1.000000000000000000, -0.000000000000000000 ) ) ;
#174 = DIMENSIONAL_EXPONENTS ( 1.000000000000000000, 0.000000000000000000, 0.000000000000000000, 0.000000000000000000, 0.000000000000000000, 0.000000000000000000, 0.000000000000000000 ) ;
#175 = CARTESIAN_POINT ( 'NONE',  ( 0.2499999999999999167, 3.000000000000000444, 3.061616997868382402E-17 ) ) ;
#176 = DIRECTION ( 'NONE',  ( -1.000000000000000000, 0.000000000000000000, 0.000000000000000000 ) ) ;
#177 = PRODUCT_DEFINITION_FORMATION_WITH_SPECIFIED_SOURCE ( 'ANY', '', #50, .NOT_KNOWN. ) ;
#178 = LENGTH_MEASURE_WITH_UNIT ( LENGTH_MEASURE( 0.02539999999999999897 ), #62 );
#179 = ADVANCED_FACE ( 'NONE', ( #214 ), #304, .T. ) ;
#180 = CARTESIAN_POINT ( 'NONE',  ( 0.000000000000000000, 0.000000000000000000, 0.000000000000000000 ) ) ;
#181 = SURFACE_STYLE_FILL_AREA ( #90 ) ;
#182 = CARTESIAN_POINT ( 'NONE',  ( -0.2499999999999995559, 1.000000000000000000, 0.000000000000000000 ) ) ;
#183 = AXIS2_PLACEMENT_3D ( 'NONE', #209, #269, #348 ) ;
#184 = FACE_OUTER_BOUND ( 'NONE', #72, .T. ) ;
#185 = CYLINDRICAL_SURFACE ( 'NONE', #118, 0.2499999999999998612 ) ;
#186 = UNCERTAINTY_MEASURE_WITH_UNIT (LENGTH_MEASURE( 1.000000000000000082E-05 ), #279, 'distance_accuracy_value', 'NONE');
#187 = EDGE_LOOP ( 'NONE', ( #194, #122, #212, #236 ) ) ;
#188 = DIRECTION ( 'NONE',  ( -0.000000000000000000, -1.000000000000000000, -0.000000000000000000 ) ) ;
#189 = ORIENTED_EDGE ( 'NONE', *, *, #330, .T. ) ;
#190 = CIRCLE ( 'NONE', #106, 0.2499999999999997224 ) ;
#191 = CIRCLE ( 'NONE', #290, 0.2500000000000000000 ) ;
#192 = EDGE_CURVE ( 'NONE', #170, #221, #264, .T. ) ;
#193 = VERTEX_POINT ( 'NONE', #124 ) ;
#194 = ORIENTED_EDGE ( 'NONE', *, *, #230, .F. ) ;
#195 = AXIS2_PLACEMENT_3D ( 'NONE', #180, #13, #65 ) ;
#196 = AXIS2_PLACEMENT_3D ( 'NONE', #317, #173, #283 ) ;
#197 = PRODUCT_CONTEXT ( 'NONE', #239, 'mechanical' ) ;
#198 = DIMENSIONAL_EXPONENTS ( 1.000000000000000000, 0.000000000000000000, 0.000000000000000000, 0.000000000000000000, 0.000000000000000000, 0.000000000000000000, 0.000000000000000000 ) ;
#199 = CLOSED_SHELL ( 'NONE', ( #120, #201, #179, #5, #136 ) ) ;
#200 = CIRCLE ( 'NONE', #83, 0.2500000000000000000 ) ;
#201 = ADVANCED_FACE ( 'NONE', ( #19 ), #128, .T. ) ;
#202 = STYLED_ITEM ( 'NONE', ( #213 ), #120 ) ;
#203 = DIRECTION ( 'NONE',  ( -1.224646799147353700E-16, 1.000000000000000000, -0.000000000000000000 ) ) ;
#204 = PRESENTATION_STYLE_ASSIGNMENT (( #116 ) ) ;
#205 = PRODUCT_DEFINITION_SHAPE ( 'NONE', 'NONE',  #325 ) ;
#206 = SPHERICAL_SURFACE ( 'NONE', #183, 0.2500000000000000000 ) ;
#207 = CARTESIAN_POINT ( 'NONE',  ( -6.123233995736772199E-17, 3.000000000000000444, 0.000000000000000000 ) ) ;
#208 = DIRECTION ( 'NONE',  ( -1.000000000000000000, 0.000000000000000000, 0.000000000000000000 ) ) ;
#209 = CARTESIAN_POINT ( 'NONE',  ( -3.061616997868383018E-17, 0.2500000000000000000, 0.000000000000000000 ) ) ;
#210 = FACE_OUTER_BOUND ( 'NONE', #164, .T. ) ;
#211 = STYLED_ITEM ( 'NONE', ( #76 ), #298 ) ;
#212 = ORIENTED_EDGE ( 'NONE', *, *, #54, .T. ) ;
#213 = PRESENTATION_STYLE_ASSIGNMENT (( #364 ) ) ;
#214 = FACE_OUTER_BOUND ( 'NONE', #368, .T. ) ;
#215 = DIRECTION ( 'NONE',  ( 0.000000000000000000, 0.000000000000000000, -1.000000000000000000 ) ) ;
#216 = VERTEX_POINT ( 'NONE', #30 ) ;
#217 = DIRECTION ( 'NONE',  ( -1.224646799147353700E-16, 1.000000000000000000, -0.000000000000000000 ) ) ;
#218 =( NAMED_UNIT ( * ) PLANE_ANGLE_UNIT ( ) SI_UNIT ( $, .RADIAN. ) );
#219 = ORIENTED_EDGE ( 'NONE', *, *, #80, .F. ) ;
#220 = DIRECTION ( 'NONE',  ( 0.000000000000000000, -0.000000000000000000, 1.000000000000000000 ) ) ;
#221 = VERTEX_POINT ( 'NONE', #275 ) ;
#222 = LINE ( 'NONE', #141, #4 ) ;
#223 = COLOUR_RGB ( '',1.000000000000000000, 0.000000000000000000, 0.000000000000000000 ) ;
#224 = CIRCLE ( 'NONE', #101, 0.2500000000000000000 ) ;
#225 = DIRECTION ( 'NONE',  ( 0.000000000000000000, 0.000000000000000000, -1.000000000000000000 ) ) ;
#226 = EDGE_CURVE ( 'NONE', #170, #18, #222, .T. ) ;
#227 =( GEOMETRIC_REPRESENTATION_CONTEXT ( 3 ) GLOBAL_UNCERTAINTY_ASSIGNED_CONTEXT ( ( #258 ) ) GLOBAL_UNIT_ASSIGNED_CONTEXT ( ( #287, #145, #154 ) ) REPRESENTATION_CONTEXT ( 'NONE', 'WORKASPACE' ) );
#228 = DIRECTION ( 'NONE',  ( 0.000000000000000000, 0.000000000000000000, -1.000000000000000000 ) ) ;
#229 = EDGE_LOOP ( 'NONE', ( #337, #23, #102, #189 ) ) ;
#230 = EDGE_CURVE ( 'NONE', #193, #265, #171, .T. ) ;
#231 = CARTESIAN_POINT ( 'NONE',  ( 0.000000000000000000, 1.000000000000000000, 0.000000000000000000 ) ) ;
#232 = PRESENTATION_LAYER_ASSIGNMENT (  '', '', ( #167 ) ) ;
#233 = CARTESIAN_POINT ( 'NONE',  ( 0.000000000000000000, 0.2500000000000000000, 0.000000000000000000 ) ) ;
#234 = SURFACE_SIDE_STYLE ('',( #144 ) ) ;
#235 = FILL_AREA_STYLE_COLOUR ( '', #112 ) ;
#236 = ORIENTED_EDGE ( 'NONE', *, *, #249, .F. ) ;
#237 = UNCERTAINTY_MEASURE_WITH_UNIT (LENGTH_MEASURE( 1.000000000000000082E-05 ), #350, 'distance_accuracy_value', 'NONE');
#238 = DIRECTION ( 'NONE',  ( 1.000000000000000000, 0.000000000000000000, 0.000000000000000000 ) ) ;
#239 = APPLICATION_CONTEXT ( 'automotive_design' ) ;
#240 =( LENGTH_UNIT ( ) NAMED_UNIT ( * ) SI_UNIT ( $, .METRE. ) );
#241 = ORIENTED_EDGE ( 'NONE', *, *, #192, .F. ) ;
#242 = MECHANICAL_DESIGN_GEOMETRIC_PRESENTATION_REPRESENTATION (  '', ( #202 ), #352 ) ;
#243 = CIRCLE ( 'NONE', #78, 0.2499999999999998890 ) ;
#244 = SURFACE_STYLE_USAGE ( .BOTH. , #369 ) ;
#245 = FILL_AREA_STYLE_COLOUR ( '', #223 ) ;
#246 = UNCERTAINTY_MEASURE_WITH_UNIT (LENGTH_MEASURE( 1.000000000000000082E-05 ), #261, 'distance_accuracy_value', 'NONE');
#247 = AXIS2_PLACEMENT_3D ( 'NONE', #231, #270, #220 ) ;
#248 = CYLINDRICAL_SURFACE ( 'NONE', #320, 0.2499999999999998612 ) ;
#249 = EDGE_CURVE ( 'NONE', #265, #131, #93, .T. ) ;
#250 =( NAMED_UNIT ( * ) SI_UNIT ( $, .STERADIAN. ) SOLID_ANGLE_UNIT ( ) );
#251 = DIRECTION ( 'NONE',  ( 0.000000000000000000, 0.000000000000000000, -1.000000000000000000 ) ) ;
#252 = CLOSED_SHELL ( 'NONE', ( #278, #147, #291, #355 ) ) ;
#253 = AXIS2_PLACEMENT_3D ( 'NONE', #77, #217, #341 ) ;
#254 = CARTESIAN_POINT ( 'NONE',  ( -0.2500000000000000555, 3.000000000000000444, 0.000000000000000000 ) ) ;
#255 =( NAMED_UNIT ( * ) PLANE_ANGLE_UNIT ( ) SI_UNIT ( $, .RADIAN. ) );
#256 = CIRCLE ( 'NONE', #253, 0.2499999999999999722 ) ;
#257 =( LENGTH_UNIT ( ) NAMED_UNIT ( * ) SI_UNIT ( $, .METRE. ) );
#258 = UNCERTAINTY_MEASURE_WITH_UNIT (LENGTH_MEASURE( 1.000000000000000082E-05 ), #287, 'distance_accuracy_value', 'NONE');
#259 = EDGE_CURVE ( 'NONE', #18, #310, #224, .T. ) ;
#260 = CARTESIAN_POINT ( 'NONE',  ( 0.000000000000000000, 1.000000000000000000, 0.000000000000000000 ) ) ;
#261 =( CONVERSION_BASED_UNIT ( 'INCH', #12 ) LENGTH_UNIT ( ) NAMED_UNIT ( #198 ) );
#262 = PRESENTATION_STYLE_ASSIGNMENT (( #43 ) ) ;
#263 = PRESENTATION_LAYER_ASSIGNMENT (  '', '', ( #139 ) ) ;
#264 = CIRCLE ( 'NONE', #168, 0.2499999999999998890 ) ;
#265 = VERTEX_POINT ( 'NONE', #175 ) ;
#266 =( NAMED_UNIT ( * ) SI_UNIT ( $, .STERADIAN. ) SOLID_ANGLE_UNIT ( ) );
#267 = ORIENTED_EDGE ( 'NONE', *, *, #16, .F. ) ;
#268 = ORIENTED_EDGE ( 'NONE', *, *, #159, .F. ) ;
#269 = DIRECTION ( 'NONE',  ( 0.000000000000000000, 0.000000000000000000, 1.000000000000000000 ) ) ;
#270 = DIRECTION ( 'NONE',  ( 0.000000000000000000, 1.000000000000000000, 0.000000000000000000 ) ) ;
#271 = LENGTH_MEASURE_WITH_UNIT ( LENGTH_MEASURE( 0.02539999999999999897 ), #163 );
#272 = ORIENTED_EDGE ( 'NONE', *, *, #302, .F. ) ;
#273 = CIRCLE ( 'NONE', #318, 0.2500000000000000000 ) ;
#274 =( GEOMETRIC_REPRESENTATION_CONTEXT ( 3 ) GLOBAL_UNCERTAINTY_ASSIGNED_CONTEXT ( ( #121 ) ) GLOBAL_UNIT_ASSIGNED_CONTEXT ( ( #57, #316, #323 ) ) REPRESENTATION_CONTEXT ( 'NONE', 'WORKASPACE' ) );
#275 = CARTESIAN_POINT ( 'NONE',  ( 0.000000000000000000, 1.000000000000000000, -0.2499999999999998890 ) ) ;
#276 = ORIENTED_EDGE ( 'NONE', *, *, #230, .T. ) ;
#277 = CARTESIAN_POINT ( 'NONE',  ( 0.2500000000000000000, 0.2500000000000000000, 0.000000000000000000 ) ) ;
#278 = ADVANCED_FACE ( 'NONE', ( #33 ), #248, .T. ) ;
#279 =( CONVERSION_BASED_UNIT ( 'INCH', #311 ) LENGTH_UNIT ( ) NAMED_UNIT ( #315 ) );
#280 = AXIS2_PLACEMENT_3D ( 'NONE', #126, #46, #238 ) ;
#281 = DIRECTION ( 'NONE',  ( -1.224646799147353700E-16, 1.000000000000000000, -0.000000000000000000 ) ) ;
#282 = EDGE_CURVE ( 'NONE', #127, #18, #314, .T. ) ;
#283 = DIRECTION ( 'NONE',  ( 0.000000000000000000, 0.000000000000000000, -1.000000000000000000 ) ) ;
#284 = DIMENSIONAL_EXPONENTS ( 1.000000000000000000, 0.000000000000000000, 0.000000000000000000, 0.000000000000000000, 0.000000000000000000, 0.000000000000000000, 0.000000000000000000 ) ;
#285 = COLOUR_RGB ( '',1.000000000000000000, 0.000000000000000000, 0.000000000000000000 ) ;
#286 = AXIS2_PLACEMENT_3D ( 'NONE', #138, #74, #109 ) ;
#287 =( CONVERSION_BASED_UNIT ( 'INCH', #178 ) LENGTH_UNIT ( ) NAMED_UNIT ( #349 ) );
#288 = DIRECTION ( 'NONE',  ( -0.000000000000000000, -1.000000000000000000, -0.000000000000000000 ) ) ;
#289 =( GEOMETRIC_REPRESENTATION_CONTEXT ( 3 ) GLOBAL_UNCERTAINTY_ASSIGNED_CONTEXT ( ( #246 ) ) GLOBAL_UNIT_ASSIGNED_CONTEXT ( ( #261, #255, #84 ) ) REPRESENTATION_CONTEXT ( 'NONE', 'WORKASPACE' ) );
#290 = AXIS2_PLACEMENT_3D ( 'NONE', #233, #300, #215 ) ;
#291 = ADVANCED_FACE ( 'NONE', ( #119 ), #185, .T. ) ;
#292 = FILL_AREA_STYLE_COLOUR ( '', #285 ) ;
#293 = PLANE ( 'NONE',  #51 ) ;
#294 =( NAMED_UNIT ( * ) PLANE_ANGLE_UNIT ( ) SI_UNIT ( $, .RADIAN. ) );
#295 = CARTESIAN_POINT ( 'NONE',  ( -3.061616997868383018E-17, 0.2500000000000000000, 0.000000000000000000 ) ) ;
#296 = SURFACE_SIDE_STYLE ('',( #94 ) ) ;
#297 = ORIENTED_EDGE ( 'NONE', *, *, #282, .T. ) ;
#298 = MANIFOLD_SOLID_BREP ( 'Revolve - Tool Body (Straight Shanked)', #252 ) ;
#299 = FILL_AREA_STYLE ('',( #235 ) ) ;
#300 = DIRECTION ( 'NONE',  ( -0.000000000000000000, -1.000000000000000000, -0.000000000000000000 ) ) ;
#301 = ORIENTED_EDGE ( 'NONE', *, *, #226, .F. ) ;
#302 = EDGE_CURVE ( 'NONE', #221, #170, #243, .T. ) ;
#303 = FILL_AREA_STYLE ('',( #245 ) ) ;
#304 = PLANE ( 'NONE',  #247 ) ;
#305 = DIRECTION ( 'NONE',  ( 1.000000000000000000, 1.224646799147353700E-16, 0.000000000000000000 ) ) ;
#306 = ORIENTED_EDGE ( 'NONE', *, *, #343, .F. ) ;
#307 = UNCERTAINTY_MEASURE_WITH_UNIT (LENGTH_MEASURE( 1.000000000000000082E-05 ), #321, 'distance_accuracy_value', 'NONE');
#308 = SURFACE_STYLE_USAGE ( .BOTH. , #346 ) ;
#309 = CARTESIAN_POINT ( 'NONE',  ( 3.061616997868381785E-17, 1.000000000000000000, 0.2499999999999998890 ) ) ;
#310 = VERTEX_POINT ( 'NONE', #10 ) ;
#311 = LENGTH_MEASURE_WITH_UNIT ( LENGTH_MEASURE( 0.02539999999999999897 ), #95 );
#312 = PRESENTATION_STYLE_ASSIGNMENT (( #103 ) ) ;
#313 =( NAMED_UNIT ( * ) SI_UNIT ( $, .STERADIAN. ) SOLID_ANGLE_UNIT ( ) );
#314 = CIRCLE ( 'NONE', #56, 0.2500000000000000000 ) ;
#315 = DIMENSIONAL_EXPONENTS ( 1.000000000000000000, 0.000000000000000000, 0.000000000000000000, 0.000000000000000000, 0.000000000000000000, 0.000000000000000000, 0.000000000000000000 ) ;
#316 =( NAMED_UNIT ( * ) PLANE_ANGLE_UNIT ( ) SI_UNIT ( $, .RADIAN. ) );
#317 = CARTESIAN_POINT ( 'NONE',  ( 0.000000000000000000, 0.000000000000000000, 0.000000000000000000 ) ) ;
#318 = AXIS2_PLACEMENT_3D ( 'NONE', #38, #288, #228 ) ;
#319 = LENGTH_MEASURE_WITH_UNIT ( LENGTH_MEASURE( 0.02539999999999999897 ), #322 );
#320 = AXIS2_PLACEMENT_3D ( 'NONE', #60, #110, #176 ) ;
#321 =( CONVERSION_BASED_UNIT ( 'INCH', #165 ) LENGTH_UNIT ( ) NAMED_UNIT ( #85 ) );
#322 =( LENGTH_UNIT ( ) NAMED_UNIT ( * ) SI_UNIT ( $, .METRE. ) );
#323 =( NAMED_UNIT ( * ) SI_UNIT ( $, .STERADIAN. ) SOLID_ANGLE_UNIT ( ) );
#324 = LINE ( 'NONE', #91, #132 ) ;
#325 = PRODUCT_DEFINITION ( 'UNKNOWN', '', #177, #157 ) ;
#326 = PRESENTATION_LAYER_ASSIGNMENT (  '', '', ( #211 ) ) ;
#327 = DIRECTION ( 'NONE',  ( -1.224646799147353700E-16, 1.000000000000000000, -0.000000000000000000 ) ) ;
#328 = CARTESIAN_POINT ( 'NONE',  ( -3.061616997868383018E-17, 0.2500000000000000000, 0.000000000000000000 ) ) ;
#329 = VERTEX_POINT ( 'NONE', #117 ) ;
#330 = EDGE_CURVE ( 'NONE', #127, #329, #200, .T. ) ;
#331 = COLOUR_RGB ( '',1.000000000000000000, 0.000000000000000000, 0.000000000000000000 ) ;
#332 = CARTESIAN_POINT ( 'NONE',  ( 0.000000000000000000, 0.2500000000000000000, 0.000000000000000000 ) ) ;
#333 =( GEOMETRIC_REPRESENTATION_CONTEXT ( 3 ) GLOBAL_UNCERTAINTY_ASSIGNED_CONTEXT ( ( #41 ) ) GLOBAL_UNIT_ASSIGNED_CONTEXT ( ( #160, #69, #266 ) ) REPRESENTATION_CONTEXT ( 'NONE', 'WORKASPACE' ) );
#334 = SURFACE_STYLE_FILL_AREA ( #6 ) ;
#335 = UNCERTAINTY_MEASURE_WITH_UNIT (LENGTH_MEASURE( 1.000000000000000082E-05 ), #1, 'distance_accuracy_value', 'NONE');
#336 = CARTESIAN_POINT ( 'NONE',  ( 0.000000000000000000, 1.000000000000000000, 0.000000000000000000 ) ) ;
#337 = ORIENTED_EDGE ( 'NONE', *, *, #97, .F. ) ;
#338 = STYLED_ITEM ( 'NONE', ( #148 ), #53 ) ;
#339 = AXIS2_PLACEMENT_3D ( 'NONE', #96, #133, #344 ) ;
#340 = ORIENTED_EDGE ( 'NONE', *, *, #259, .F. ) ;
#341 = DIRECTION ( 'NONE',  ( -1.000000000000000000, 0.000000000000000000, 0.000000000000000000 ) ) ;
#342 = EDGE_LOOP ( 'NONE', ( #161, #48, #70, #267, #306 ) ) ;
#343 = EDGE_CURVE ( 'NONE', #221, #216, #354, .T. ) ;
#344 = DIRECTION ( 'NONE',  ( -1.000000000000000000, -1.224646799147353700E-16, 0.000000000000000000 ) ) ;
#345 = FACE_OUTER_BOUND ( 'NONE', #40, .T. ) ;
#346 = SURFACE_SIDE_STYLE ('',( #29 ) ) ;
#347 = ORIENTED_EDGE ( 'NONE', *, *, #259, .T. ) ;
#348 = DIRECTION ( 'NONE',  ( 1.000000000000000000, 0.000000000000000000, 0.000000000000000000 ) ) ;
#349 = DIMENSIONAL_EXPONENTS ( 1.000000000000000000, 0.000000000000000000, 0.000000000000000000, 0.000000000000000000, 0.000000000000000000, 0.000000000000000000, 0.000000000000000000 ) ;
#350 =( CONVERSION_BASED_UNIT ( 'INCH', #271 ) LENGTH_UNIT ( ) NAMED_UNIT ( #284 ) );
#351 = DIRECTION ( 'NONE',  ( -0.000000000000000000, -1.000000000000000000, -0.000000000000000000 ) ) ;
#352 =( GEOMETRIC_REPRESENTATION_CONTEXT ( 3 ) GLOBAL_UNCERTAINTY_ASSIGNED_CONTEXT ( ( #186 ) ) GLOBAL_UNIT_ASSIGNED_CONTEXT ( ( #279, #294, #313 ) ) REPRESENTATION_CONTEXT ( 'NONE', 'WORKASPACE' ) );
#353 = MECHANICAL_DESIGN_GEOMETRIC_PRESENTATION_REPRESENTATION (  '', ( #89 ), #333 ) ;
#354 = LINE ( 'NONE', #67, #45 ) ;
#355 = ADVANCED_FACE ( 'NONE', ( #184 ), #293, .F. ) ;
#356 = FILL_AREA_STYLE ('',( #292 ) ) ;
#357 = SURFACE_SIDE_STYLE ('',( #181 ) ) ;
#358 = FACE_OUTER_BOUND ( 'NONE', #229, .T. ) ;
#359 = DIRECTION ( 'NONE',  ( 0.000000000000000000, 0.000000000000000000, -1.000000000000000000 ) ) ;
#360 = MECHANICAL_DESIGN_GEOMETRIC_PRESENTATION_REPRESENTATION (  '', ( #338 ), #289 ) ;
#361 = PRESENTATION_LAYER_ASSIGNMENT (  '', '', ( #172 ) ) ;
#362 = EDGE_CURVE ( 'NONE', #310, #216, #191, .T. ) ;
#363 =( GEOMETRIC_REPRESENTATION_CONTEXT ( 3 ) GLOBAL_UNCERTAINTY_ASSIGNED_CONTEXT ( ( #237 ) ) GLOBAL_UNIT_ASSIGNED_CONTEXT ( ( #350, #79, #108 ) ) REPRESENTATION_CONTEXT ( 'NONE', 'WORKASPACE' ) );
#364 = SURFACE_STYLE_USAGE ( .BOTH. , #234 ) ;
#365 = ORIENTED_EDGE ( 'NONE', *, *, #343, .T. ) ;
#366 = PLANE ( 'NONE',  #339 ) ;
#367 =( LENGTH_UNIT ( ) NAMED_UNIT ( * ) SI_UNIT ( $, .METRE. ) );
#368 = EDGE_LOOP ( 'NONE', ( #272, #241 ) ) ;
#369 = SURFACE_SIDE_STYLE ('',( #22 ) ) ;
#370 = SURFACE_SIDE_STYLE ('',( #47 ) ) ;
#371 = CARTESIAN_POINT ( 'NONE',  ( 0.2499999999999998057, 3.000000000000000444, 3.061616997868381785E-17 ) ) ;
#372 =( NAMED_UNIT ( * ) PLANE_ANGLE_UNIT ( ) SI_UNIT ( $, .RADIAN. ) );
#373 = APPLICATION_CONTEXT ( 'automotive_design' ) ;
ENDSEC;
END-ISO-10303-21;
