ISO-10303-21;
HEADER;
FILE_DESCRIPTION (( 'STEP AP214' ),
    '1' );
FILE_NAME ('Micro_SPD-312-100.STEP',
    '2021-09-03T21:20:43',
    ( '' ),
    ( '' ),
    'SwSTEP 2.0',
    'SolidWorks 2020',
    '' );
FILE_SCHEMA (( 'AUTOMOTIVE_DESIGN' ));
ENDSEC;

DATA;
#1 = ADVANCED_FACE ( 'NONE', ( #216 ), #30, .T. ) ;
#2 =( LENGTH_UNIT ( ) NAMED_UNIT ( * ) SI_UNIT ( $, .METRE. ) );
#3 = ORIENTED_EDGE ( 'NONE', *, *, #240, .T. ) ;
#4 = ADVANCED_FACE ( 'NONE', ( #136 ), #252, .T. ) ;
#5 = DIRECTION ( 'NONE',  ( -0.0000000000000000000, -0.0000000000000000000, -1.000000000000000000 ) ) ;
#6 = DIRECTION ( 'NONE',  ( -0.7071067811865410224, 0.0000000000000000000, -0.7071067811865539010 ) ) ;
#7 = APPLICATION_CONTEXT ( 'automotive_design' ) ;
#8 = DIRECTION ( 'NONE',  ( 0.0000000000000000000, 0.0000000000000000000, -1.000000000000000000 ) ) ;
#9 = LINE ( 'NONE', #231, #257 ) ;
#10 = DIRECTION ( 'NONE',  ( 1.000000000000000000, 0.0000000000000000000, 0.0000000000000000000 ) ) ;
#11 = CIRCLE ( 'NONE', #108, 0.1412499999999994871 ) ;
#12 = VECTOR ( 'NONE', #262, 39.37007874015748143 ) ;
#13 = EDGE_CURVE ( 'NONE', #73, #107, #292, .T. ) ;
#14 = PRODUCT_RELATED_PRODUCT_CATEGORY ( 'part', '', ( #286 ) ) ;
#15 = CARTESIAN_POINT ( 'NONE',  ( -0.1562500000000000000, 0.0000000000000000000, 2.500000000000000000 ) ) ;
#16 = VECTOR ( 'NONE', #217, 39.37007874015748143 ) ;
#17 = FACE_OUTER_BOUND ( 'NONE', #53, .T. ) ;
#18 = FACE_OUTER_BOUND ( 'NONE', #269, .T. ) ;
#19 = ORIENTED_EDGE ( 'NONE', *, *, #270, .F. ) ;
#20 = AXIS2_PLACEMENT_3D ( 'NONE', #285, #194, #279 ) ;
#21 = UNCERTAINTY_MEASURE_WITH_UNIT (LENGTH_MEASURE( 1.000000000000000082E-05 ), #98, 'distance_accuracy_value', 'NONE');
#22 = CIRCLE ( 'NONE', #128, 0.1412499999999994871 ) ;
#23 = ORIENTED_EDGE ( 'NONE', *, *, #141, .F. ) ;
#24 = APPLICATION_CONTEXT ( 'automotive_design' ) ;
#25 = ORIENTED_EDGE ( 'NONE', *, *, #166, .F. ) ;
#26 = ADVANCED_FACE ( 'NONE', ( #246 ), #156, .F. ) ;
#27 = ORIENTED_EDGE ( 'NONE', *, *, #87, .F. ) ;
#28 = CIRCLE ( 'NONE', #103, 0.1562000000000000333 ) ;
#29 = DIRECTION ( 'NONE',  ( -0.0000000000000000000, -0.0000000000000000000, -1.000000000000000000 ) ) ;
#30 = CYLINDRICAL_SURFACE ( 'NONE', #41, 0.1562000000000000333 ) ;
#31 = EDGE_CURVE ( 'NONE', #51, #107, #288, .T. ) ;
#32 = CARTESIAN_POINT ( 'NONE',  ( -0.1562000000000000333, 0.0000000000000000000, 0.0000000000000000000 ) ) ;
#33 = DIRECTION ( 'NONE',  ( -0.0000000000000000000, -0.0000000000000000000, -1.000000000000000000 ) ) ;
#34 = CARTESIAN_POINT ( 'NONE',  ( 0.02350000000000000352, 0.0000000000000000000, 0.0000000000000000000 ) ) ;
#35 = DIRECTION ( 'NONE',  ( 0.0000000000000000000, 0.0000000000000000000, 1.000000000000000000 ) ) ;
#36 = EDGE_CURVE ( 'NONE', #48, #210, #313, .T. ) ;
#37 = CARTESIAN_POINT ( 'NONE',  ( 0.1562000000000000055, 1.912898300268165665E-17, 0.1113485210572245920 ) ) ;
#38 = DIRECTION ( 'NONE',  ( -0.7071067811865490160, 8.659560562354951347E-17, 0.7071067811865459074 ) ) ;
#39 = CARTESIAN_POINT ( 'NONE',  ( 0.1562500000000000000, 1.913510623667739463E-17, 2.500000000000000000 ) ) ;
#40 = CARTESIAN_POINT ( 'NONE',  ( 0.0000000000000000000, 0.0000000000000000000, 2.500000000000000000 ) ) ;
#41 = AXIS2_PLACEMENT_3D ( 'NONE', #275, #113, #186 ) ;
#42 = CARTESIAN_POINT ( 'NONE',  ( 0.0000000000000000000, 0.0000000000000000000, 0.0000000000000000000 ) ) ;
#43 = ORIENTED_EDGE ( 'NONE', *, *, #176, .T. ) ;
#44 = EDGE_CURVE ( 'NONE', #107, #73, #132, .T. ) ;
#45 = DIMENSIONAL_EXPONENTS ( 1.000000000000000000, 0.0000000000000000000, 0.0000000000000000000, 0.0000000000000000000, 0.0000000000000000000, 0.0000000000000000000, 0.0000000000000000000 ) ;
#46 = PRODUCT_DEFINITION_FORMATION_WITH_SPECIFIED_SOURCE ( 'ANY', '', #286, .NOT_KNOWN. ) ;
#47 = SURFACE_STYLE_FILL_AREA ( #155 ) ;
#48 = VERTEX_POINT ( 'NONE', #202 ) ;
#49 = ORIENTED_EDGE ( 'NONE', *, *, #44, .F. ) ;
#50 = AXIS2_PLACEMENT_3D ( 'NONE', #84, #294, #325 ) ;
#51 = VERTEX_POINT ( 'NONE', #261 ) ;
#52 = ORIENTED_EDGE ( 'NONE', *, *, #300, .T. ) ;
#53 = EDGE_LOOP ( 'NONE', ( #218, #340, #80, #345 ) ) ;
#54 = AXIS2_PLACEMENT_3D ( 'NONE', #119, #117, #143 ) ;
#55 = AXIS2_PLACEMENT_3D ( 'NONE', #247, #118, #116 ) ;
#56 = DIRECTION ( 'NONE',  ( 1.000000000000000000, 0.0000000000000000000, -0.0000000000000000000 ) ) ;
#57 = CARTESIAN_POINT ( 'NONE',  ( 0.0000000000000000000, 0.0000000000000000000, 2.500000000000000000 ) ) ;
#58 = DIRECTION ( 'NONE',  ( -0.0000000000000000000, -0.0000000000000000000, -1.000000000000000000 ) ) ;
#59 = CARTESIAN_POINT ( 'NONE',  ( 0.02350000000000000352, 0.0000000000000000000, 0.0000000000000000000 ) ) ;
#60 = DIRECTION ( 'NONE',  ( 0.0000000000000000000, 0.0000000000000000000, -1.000000000000000000 ) ) ;
#61 = CIRCLE ( 'NONE', #153, 0.02350000000000000352 ) ;
#62 = DIRECTION ( 'NONE',  ( 1.000000000000000000, 0.0000000000000000000, 0.0000000000000000000 ) ) ;
#63 = FACE_OUTER_BOUND ( 'NONE', #212, .T. ) ;
#64 = ADVANCED_FACE ( 'NONE', ( #17 ), #127, .T. ) ;
#65 = CARTESIAN_POINT ( 'NONE',  ( 0.0000000000000000000, 0.0000000000000000000, 0.0000000000000000000 ) ) ;
#66 = CARTESIAN_POINT ( 'NONE',  ( 0.1562000000000000333, 1.912898300268165973E-17, 0.0000000000000000000 ) ) ;
#67 = AXIS2_PLACEMENT_3D ( 'NONE', #209, #71, #264 ) ;
#68 = AXIS2_PLACEMENT_3D ( 'NONE', #125, #8, #193 ) ;
#69 = EDGE_CURVE ( 'NONE', #183, #73, #306, .T. ) ;
#70 = ORIENTED_EDGE ( 'NONE', *, *, #270, .T. ) ;
#71 = DIRECTION ( 'NONE',  ( -0.0000000000000000000, -0.0000000000000000000, -1.000000000000000000 ) ) ;
#72 = VECTOR ( 'NONE', #33, 39.37007874015748143 ) ;
#73 = VERTEX_POINT ( 'NONE', #151 ) ;
#74 = ADVANCED_FACE ( 'NONE', ( #165 ), #162, .T. ) ;
#75 = ORIENTED_EDGE ( 'NONE', *, *, #13, .T. ) ;
#76 = CARTESIAN_POINT ( 'NONE',  ( 0.0000000000000000000, 0.0000000000000000000, 0.0000000000000000000 ) ) ;
#77 = EDGE_LOOP ( 'NONE', ( #322, #3, #43, #244 ) ) ;
#78 = VECTOR ( 'NONE', #144, 39.37007874015748143 ) ;
#79 = EDGE_CURVE ( 'NONE', #48, #272, #11, .T. ) ;
#80 = ORIENTED_EDGE ( 'NONE', *, *, #249, .T. ) ;
#81 = ORIENTED_EDGE ( 'NONE', *, *, #195, .T. ) ;
#82 = UNCERTAINTY_MEASURE_WITH_UNIT (LENGTH_MEASURE( 1.000000000000000082E-05 ), #133, 'distance_accuracy_value', 'NONE');
#83 = SURFACE_STYLE_USAGE ( .BOTH. , #101 ) ;
#84 = CARTESIAN_POINT ( 'NONE',  ( 0.0000000000000000000, 0.0000000000000000000, 2.500000000000000000 ) ) ;
#85 = VECTOR ( 'NONE', #38, 39.37007874015748854 ) ;
#86 = CIRCLE ( 'NONE', #207, 0.02350000000000000352 ) ;
#87 = EDGE_CURVE ( 'NONE', #183, #51, #28, .T. ) ;
#88 = FACE_OUTER_BOUND ( 'NONE', #328, .T. ) ;
#89 = CARTESIAN_POINT ( 'NONE',  ( 0.0000000000000000000, 0.0000000000000000000, 2.500000000000000000 ) ) ;
#90 = CARTESIAN_POINT ( 'NONE',  ( -0.1562000000000000333, 1.912898300268165973E-17, 0.7500000000000001110 ) ) ;
#91 = DIRECTION ( 'NONE',  ( -1.000000000000000000, 0.0000000000000000000, 0.0000000000000000000 ) ) ;
#92 = DIRECTION ( 'NONE',  ( 1.000000000000000000, 0.0000000000000000000, -0.0000000000000000000 ) ) ;
#93 = EDGE_CURVE ( 'NONE', #129, #210, #122, .T. ) ;
#94 = CIRCLE ( 'NONE', #68, 0.1562500000000000000 ) ;
#95 = LINE ( 'NONE', #39, #78 ) ;
#96 = APPLICATION_PROTOCOL_DEFINITION ( 'draft international standard', 'automotive_design', 1998, #7 ) ;
#97 = LINE ( 'NONE', #66, #72 ) ;
#98 =( CONVERSION_BASED_UNIT ( 'INCH', #260 ) LENGTH_UNIT ( ) NAMED_UNIT ( #45 ) );
#99 = AXIS2_PLACEMENT_3D ( 'NONE', #220, #29, #134 ) ;
#100 = MECHANICAL_DESIGN_GEOMETRIC_PRESENTATION_REPRESENTATION (  '', ( #192 ), #310 ) ;
#101 = SURFACE_SIDE_STYLE ('',( #47 ) ) ;
#102 = EDGE_CURVE ( 'NONE', #191, #163, #226, .T. ) ;
#103 = AXIS2_PLACEMENT_3D ( 'NONE', #237, #173, #199 ) ;
#104 = ORIENTED_EDGE ( 'NONE', *, *, #93, .F. ) ;
#105 = ADVANCED_FACE ( 'NONE', ( #88 ), #338, .T. ) ;
#106 = CARTESIAN_POINT ( 'NONE',  ( 0.0000000000000000000, 0.0000000000000000000, 0.0000000000000000000 ) ) ;
#107 = VERTEX_POINT ( 'NONE', #204 ) ;
#108 = AXIS2_PLACEMENT_3D ( 'NONE', #40, #138, #10 ) ;
#109 = ORIENTED_EDGE ( 'NONE', *, *, #79, .T. ) ;
#110 = ORIENTED_EDGE ( 'NONE', *, *, #44, .T. ) ;
#111 = ADVANCED_FACE ( 'NONE', ( #63 ), #312, .T. ) ;
#112 = PRESENTATION_STYLE_ASSIGNMENT (( #83 ) ) ;
#113 = DIRECTION ( 'NONE',  ( -0.0000000000000000000, -0.0000000000000000000, -1.000000000000000000 ) ) ;
#114 = CONICAL_SURFACE ( 'NONE', #213, 0.1562000000000000333, 0.7853981633974504994 ) ;
#115 = CARTESIAN_POINT ( 'NONE',  ( 0.0000000000000000000, 0.0000000000000000000, 0.7500000000000001110 ) ) ;
#116 = DIRECTION ( 'NONE',  ( -1.000000000000000000, 0.0000000000000000000, 0.0000000000000000000 ) ) ;
#117 = DIRECTION ( 'NONE',  ( -0.0000000000000000000, -0.0000000000000000000, -1.000000000000000000 ) ) ;
#118 = DIRECTION ( 'NONE',  ( -0.0000000000000000000, -0.0000000000000000000, -1.000000000000000000 ) ) ;
#119 = CARTESIAN_POINT ( 'NONE',  ( 0.0000000000000000000, 0.0000000000000000000, 0.7500499999999999945 ) ) ;
#120 = CARTESIAN_POINT ( 'NONE',  ( 0.0000000000000000000, 0.0000000000000000000, 0.0000000000000000000 ) ) ;
#121 = EDGE_LOOP ( 'NONE', ( #188, #149, #157, #19 ) ) ;
#122 = CIRCLE ( 'NONE', #335, 0.1562500000000000000 ) ;
#123 = DIRECTION ( 'NONE',  ( 0.7071067811865490160, 0.0000000000000000000, 0.7071067811865459074 ) ) ;
#124 = VERTEX_POINT ( 'NONE', #170 ) ;
#125 = CARTESIAN_POINT ( 'NONE',  ( 0.0000000000000000000, 0.0000000000000000000, 2.484999999999999432 ) ) ;
#126 = EDGE_LOOP ( 'NONE', ( #25, #297, #70, #158 ) ) ;
#127 = CONICAL_SURFACE ( 'NONE', #235, 0.02350000000000000352, 0.8726646259971667652 ) ;
#128 = AXIS2_PLACEMENT_3D ( 'NONE', #57, #321, #62 ) ;
#129 = VERTEX_POINT ( 'NONE', #283 ) ;
#130 = ORIENTED_EDGE ( 'NONE', *, *, #36, .T. ) ;
#131 = ORIENTED_EDGE ( 'NONE', *, *, #152, .F. ) ;
#132 = CIRCLE ( 'NONE', #54, 0.1562500000000000000 ) ;
#133 =( CONVERSION_BASED_UNIT ( 'INCH', #219 ) LENGTH_UNIT ( ) NAMED_UNIT ( #265 ) );
#134 = DIRECTION ( 'NONE',  ( 1.000000000000000000, 0.0000000000000000000, 0.0000000000000000000 ) ) ;
#135 = LINE ( 'NONE', #32, #211 ) ;
#136 = FACE_OUTER_BOUND ( 'NONE', #271, .T. ) ;
#137 = CARTESIAN_POINT ( 'NONE',  ( 0.0000000000000000000, 0.0000000000000000000, 0.0000000000000000000 ) ) ;
#138 = DIRECTION ( 'NONE',  ( 0.0000000000000000000, 0.0000000000000000000, 1.000000000000000000 ) ) ;
#139 = VECTOR ( 'NONE', #123, 39.37007874015748854 ) ;
#140 = AXIS2_PLACEMENT_3D ( 'NONE', #42, #230, #148 ) ;
#141 = EDGE_CURVE ( 'NONE', #272, #129, #9, .T. ) ;
#142 = CARTESIAN_POINT ( 'NONE',  ( 0.1412499999999994871, 1.821662113731684786E-17, 2.500000000000000000 ) ) ;
#143 = DIRECTION ( 'NONE',  ( 1.000000000000000000, 0.0000000000000000000, 0.0000000000000000000 ) ) ;
#144 = DIRECTION ( 'NONE',  ( -0.0000000000000000000, -0.0000000000000000000, -1.000000000000000000 ) ) ;
#145 = AXIS2_PLACEMENT_3D ( 'NONE', #106, #333, #92 ) ;
#146 = PRESENTATION_LAYER_ASSIGNMENT (  '', '', ( #192 ) ) ;
#147 = SURFACE_SIDE_STYLE ('',( #284 ) ) ;
#148 = DIRECTION ( 'NONE',  ( 1.000000000000000000, 0.0000000000000000000, 0.0000000000000000000 ) ) ;
#149 = ORIENTED_EDGE ( 'NONE', *, *, #166, .T. ) ;
#150 =( NAMED_UNIT ( * ) PLANE_ANGLE_UNIT ( ) SI_UNIT ( $, .RADIAN. ) );
#151 = CARTESIAN_POINT ( 'NONE',  ( 0.1562500000000000000, 1.913510623667739463E-17, 0.7500499999999999945 ) ) ;
#152 = EDGE_CURVE ( 'NONE', #129, #73, #95, .T. ) ;
#153 = AXIS2_PLACEMENT_3D ( 'NONE', #137, #5, #167 ) ;
#154 = ORIENTED_EDGE ( 'NONE', *, *, #195, .F. ) ;
#155 = FILL_AREA_STYLE ('',( #293 ) ) ;
#156 = PLANE ( 'NONE',  #145 ) ;
#157 = ORIENTED_EDGE ( 'NONE', *, *, #176, .F. ) ;
#158 = ORIENTED_EDGE ( 'NONE', *, *, #102, .F. ) ;
#159 = PRODUCT_DEFINITION ( 'UNKNOWN', '', #46, #238 ) ;
#160 = CARTESIAN_POINT ( 'NONE',  ( 0.0000000000000000000, 0.0000000000000000000, 2.500000000000000000 ) ) ;
#161 = ORIENTED_EDGE ( 'NONE', *, *, #69, .T. ) ;
#162 = CONICAL_SURFACE ( 'NONE', #200, 0.02350000000000000352, 0.8726646259971667652 ) ;
#163 = VERTEX_POINT ( 'NONE', #336 ) ;
#164 =( NAMED_UNIT ( * ) SI_UNIT ( $, .STERADIAN. ) SOLID_ANGLE_UNIT ( ) );
#165 = FACE_OUTER_BOUND ( 'NONE', #77, .T. ) ;
#166 = EDGE_CURVE ( 'NONE', #183, #191, #97, .T. ) ;
#167 = DIRECTION ( 'NONE',  ( -1.000000000000000000, 0.0000000000000000000, 0.0000000000000000000 ) ) ;
#168 = DIRECTION ( 'NONE',  ( 0.0000000000000000000, 0.0000000000000000000, 1.000000000000000000 ) ) ;
#169 = LINE ( 'NONE', #59, #16 ) ;
#170 = CARTESIAN_POINT ( 'NONE',  ( -0.02350000000000000352, 1.100345149033896978E-17, 0.0000000000000000000 ) ) ;
#171 = ADVANCED_BREP_SHAPE_REPRESENTATION ( 'Micro_SPD-312-100', ( #187, #140 ), #201 ) ;
#172 = FILL_AREA_STYLE ('',( #314 ) ) ;
#173 = DIRECTION ( 'NONE',  ( -0.0000000000000000000, -0.0000000000000000000, -1.000000000000000000 ) ) ;
#174 = LINE ( 'NONE', #15, #12 ) ;
#175 = CARTESIAN_POINT ( 'NONE',  ( 0.0000000000000000000, 0.0000000000000000000, 0.1113485210572245920 ) ) ;
#176 = EDGE_CURVE ( 'NONE', #163, #191, #309, .T. ) ;
#177 = AXIS2_PLACEMENT_3D ( 'NONE', #224, #281, #308 ) ;
#178 = ORIENTED_EDGE ( 'NONE', *, *, #227, .T. ) ;
#179 =( NAMED_UNIT ( * ) SI_UNIT ( $, .STERADIAN. ) SOLID_ANGLE_UNIT ( ) );
#180 = DIRECTION ( 'NONE',  ( -1.000000000000000000, 0.0000000000000000000, 0.0000000000000000000 ) ) ;
#181 = AXIS2_PLACEMENT_3D ( 'NONE', #160, #198, #305 ) ;
#182 = ORIENTED_EDGE ( 'NONE', *, *, #215, .F. ) ;
#183 = VERTEX_POINT ( 'NONE', #317 ) ;
#184 = ADVANCED_FACE ( 'NONE', ( #18 ), #339, .T. ) ;
#185 = DIRECTION ( 'NONE',  ( -0.0000000000000000000, -0.0000000000000000000, -1.000000000000000000 ) ) ;
#186 = DIRECTION ( 'NONE',  ( -1.000000000000000000, 0.0000000000000000000, 0.0000000000000000000 ) ) ;
#187 = MANIFOLD_SOLID_BREP ( 'Cut-Revolve2', #206 ) ;
#188 = ORIENTED_EDGE ( 'NONE', *, *, #215, .T. ) ;
#189 = VERTEX_POINT ( 'NONE', #34 ) ;
#190 = FACE_OUTER_BOUND ( 'NONE', #248, .T. ) ;
#191 = VERTEX_POINT ( 'NONE', #37 ) ;
#192 = STYLED_ITEM ( 'NONE', ( #256 ), #171 ) ;
#193 = DIRECTION ( 'NONE',  ( 1.000000000000000000, 0.0000000000000000000, 0.0000000000000000000 ) ) ;
#194 = DIRECTION ( 'NONE',  ( -0.0000000000000000000, -0.0000000000000000000, -1.000000000000000000 ) ) ;
#195 = EDGE_CURVE ( 'NONE', #210, #129, #94, .T. ) ;
#196 = DIRECTION ( 'NONE',  ( 0.0000000000000000000, 0.0000000000000000000, 1.000000000000000000 ) ) ;
#197 = CARTESIAN_POINT ( 'NONE',  ( 0.0000000000000000000, 0.0000000000000000000, 2.484999999999999432 ) ) ;
#198 = DIRECTION ( 'NONE',  ( 0.0000000000000000000, 0.0000000000000000000, -1.000000000000000000 ) ) ;
#199 = DIRECTION ( 'NONE',  ( -1.000000000000000000, 0.0000000000000000000, 0.0000000000000000000 ) ) ;
#200 = AXIS2_PLACEMENT_3D ( 'NONE', #65, #35, #330 ) ;
#201 =( GEOMETRIC_REPRESENTATION_CONTEXT ( 3 ) GLOBAL_UNCERTAINTY_ASSIGNED_CONTEXT ( ( #344 ) ) GLOBAL_UNIT_ASSIGNED_CONTEXT ( ( #287, #150, #205 ) ) REPRESENTATION_CONTEXT ( 'NONE', 'WORKASPACE' ) );
#202 = CARTESIAN_POINT ( 'NONE',  ( -0.1412499999999994871, 0.0000000000000000000, 2.500000000000000000 ) ) ;
#203 = APPLICATION_PROTOCOL_DEFINITION ( 'draft international standard', 'automotive_design', 1998, #24 ) ;
#204 = CARTESIAN_POINT ( 'NONE',  ( -0.1562500000000000000, 0.0000000000000000000, 0.7500499999999999945 ) ) ;
#205 =( NAMED_UNIT ( * ) SI_UNIT ( $, .STERADIAN. ) SOLID_ANGLE_UNIT ( ) );
#206 = CLOSED_SHELL ( 'NONE', ( #74, #1, #259, #208, #111, #184, #296, #4, #105, #320, #64, #26 ) ) ;
#207 = AXIS2_PLACEMENT_3D ( 'NONE', #223, #332, #91 ) ;
#208 = ADVANCED_FACE ( 'NONE', ( #307 ), #289, .T. ) ;
#209 = CARTESIAN_POINT ( 'NONE',  ( 0.0000000000000000000, 0.0000000000000000000, 2.500000000000000000 ) ) ;
#210 = VERTEX_POINT ( 'NONE', #348 ) ;
#211 = VECTOR ( 'NONE', #250, 39.37007874015748143 ) ;
#212 = EDGE_LOOP ( 'NONE', ( #81, #343, #49, #349 ) ) ;
#213 = AXIS2_PLACEMENT_3D ( 'NONE', #326, #196, #282 ) ;
#214 = ORIENTED_EDGE ( 'NONE', *, *, #31, .F. ) ;
#215 = EDGE_CURVE ( 'NONE', #51, #183, #236, .T. ) ;
#216 = FACE_OUTER_BOUND ( 'NONE', #121, .T. ) ;
#217 = DIRECTION ( 'NONE',  ( 0.7660444431189793457, 0.0000000000000000000, 0.6427876096865378086 ) ) ;
#218 = ORIENTED_EDGE ( 'NONE', *, *, #240, .F. ) ;
#219 = LENGTH_MEASURE_WITH_UNIT ( LENGTH_MEASURE( 0.02539999999999999897 ), #2 );
#220 = CARTESIAN_POINT ( 'NONE',  ( 0.0000000000000000000, 0.0000000000000000000, 0.7500499999999999945 ) ) ;
#221 = AXIS2_PLACEMENT_3D ( 'NONE', #175, #58, #180 ) ;
#222 = CARTESIAN_POINT ( 'NONE',  ( 0.1562000000000000333, 0.0000000000000000000, 0.7500000000000001110 ) ) ;
#223 = CARTESIAN_POINT ( 'NONE',  ( 0.0000000000000000000, 0.0000000000000000000, 0.0000000000000000000 ) ) ;
#224 = CARTESIAN_POINT ( 'NONE',  ( 0.0000000000000000000, 0.0000000000000000000, 0.1113485210572245920 ) ) ;
#225 = DIRECTION ( 'NONE',  ( 1.000000000000000000, 0.0000000000000000000, 0.0000000000000000000 ) ) ;
#226 = CIRCLE ( 'NONE', #177, 0.1562000000000000055 ) ;
#227 = EDGE_CURVE ( 'NONE', #189, #124, #86, .T. ) ;
#228 = AXIS2_PLACEMENT_3D ( 'NONE', #89, #301, #56 ) ;
#229 = PRODUCT_DEFINITION_SHAPE ( 'NONE', 'NONE',  #159 ) ;
#230 = DIRECTION ( 'NONE',  ( 0.0000000000000000000, 0.0000000000000000000, 1.000000000000000000 ) ) ;
#231 = CARTESIAN_POINT ( 'NONE',  ( 0.1412499999999994871, 1.729813603795630110E-17, 2.500000000000000000 ) ) ;
#232 =( LENGTH_UNIT ( ) NAMED_UNIT ( * ) SI_UNIT ( $, .METRE. ) );
#233 = EDGE_CURVE ( 'NONE', #272, #48, #22, .T. ) ;
#234 = PRODUCT_CONTEXT ( 'NONE', #7, 'mechanical' ) ;
#235 = AXIS2_PLACEMENT_3D ( 'NONE', #120, #168, #251 ) ;
#236 = CIRCLE ( 'NONE', #55, 0.1562000000000000333 ) ;
#237 = CARTESIAN_POINT ( 'NONE',  ( 0.0000000000000000000, 0.0000000000000000000, 0.7500000000000001110 ) ) ;
#238 = PRODUCT_DEFINITION_CONTEXT ( 'detailed design', #24, 'design' ) ;
#239 = ORIENTED_EDGE ( 'NONE', *, *, #69, .F. ) ;
#240 = EDGE_CURVE ( 'NONE', #124, #163, #274, .T. ) ;
#241 = AXIS2_PLACEMENT_3D ( 'NONE', #76, #185, #295 ) ;
#242 = ORIENTED_EDGE ( 'NONE', *, *, #233, .T. ) ;
#243 = ORIENTED_EDGE ( 'NONE', *, *, #13, .F. ) ;
#244 = ORIENTED_EDGE ( 'NONE', *, *, #249, .F. ) ;
#245 = DIRECTION ( 'NONE',  ( -0.7660444431189793457, 9.381338752702748037E-17, 0.6427876096865378086 ) ) ;
#246 = FACE_OUTER_BOUND ( 'NONE', #299, .T. ) ;
#247 = CARTESIAN_POINT ( 'NONE',  ( 0.0000000000000000000, 0.0000000000000000000, 0.7500000000000001110 ) ) ;
#248 = EDGE_LOOP ( 'NONE', ( #109, #242 ) ) ;
#249 = EDGE_CURVE ( 'NONE', #189, #191, #169, .T. ) ;
#250 = DIRECTION ( 'NONE',  ( -0.0000000000000000000, -0.0000000000000000000, -1.000000000000000000 ) ) ;
#251 = DIRECTION ( 'NONE',  ( 1.000000000000000000, 0.0000000000000000000, 0.0000000000000000000 ) ) ;
#252 = CONICAL_SURFACE ( 'NONE', #50, 0.1412499999999994871, 0.7853981633974391752 ) ;
#253 = CARTESIAN_POINT ( 'NONE',  ( -0.1412499999999994871, 0.0000000000000000000, 2.500000000000000000 ) ) ;
#254 = CYLINDRICAL_SURFACE ( 'NONE', #241, 0.1562000000000000333 ) ;
#255 = DIRECTION ( 'NONE',  ( 1.000000000000000000, 0.0000000000000000000, 0.0000000000000000000 ) ) ;
#256 = PRESENTATION_STYLE_ASSIGNMENT (( #290 ) ) ;
#257 = VECTOR ( 'NONE', #304, 39.37007874015748854 ) ;
#258 = VECTOR ( 'NONE', #245, 39.37007874015748143 ) ;
#259 = ADVANCED_FACE ( 'NONE', ( #278 ), #114, .T. ) ;
#260 = LENGTH_MEASURE_WITH_UNIT ( LENGTH_MEASURE( 0.02539999999999999897 ), #232 );
#261 = CARTESIAN_POINT ( 'NONE',  ( -0.1562000000000000333, 1.913204461967952718E-17, 0.7500000000000001110 ) ) ;
#262 = DIRECTION ( 'NONE',  ( -0.0000000000000000000, -0.0000000000000000000, -1.000000000000000000 ) ) ;
#263 = ORIENTED_EDGE ( 'NONE', *, *, #141, .T. ) ;
#264 = DIRECTION ( 'NONE',  ( -1.000000000000000000, 0.0000000000000000000, 0.0000000000000000000 ) ) ;
#265 = DIMENSIONAL_EXPONENTS ( 1.000000000000000000, 0.0000000000000000000, 0.0000000000000000000, 0.0000000000000000000, 0.0000000000000000000, 0.0000000000000000000, 0.0000000000000000000 ) ;
#266 = ORIENTED_EDGE ( 'NONE', *, *, #31, .T. ) ;
#267 = COLOUR_RGB ( '',0.7921568627450980005, 0.8196078431372548767, 0.9333333333333333481 ) ;
#268 =( GEOMETRIC_REPRESENTATION_CONTEXT ( 3 ) GLOBAL_UNCERTAINTY_ASSIGNED_CONTEXT ( ( #82 ) ) GLOBAL_UNIT_ASSIGNED_CONTEXT ( ( #133, #303, #164 ) ) REPRESENTATION_CONTEXT ( 'NONE', 'WORKASPACE' ) );
#269 = EDGE_LOOP ( 'NONE', ( #131, #327, #277, #243 ) ) ;
#270 = EDGE_CURVE ( 'NONE', #51, #163, #135, .T. ) ;
#271 = EDGE_LOOP ( 'NONE', ( #23, #298, #130, #104 ) ) ;
#272 = VERTEX_POINT ( 'NONE', #142 ) ;
#273 = MECHANICAL_DESIGN_GEOMETRIC_PRESENTATION_REPRESENTATION (  '', ( #315 ), #268 ) ;
#274 = LINE ( 'NONE', #276, #258 ) ;
#275 = CARTESIAN_POINT ( 'NONE',  ( 0.0000000000000000000, 0.0000000000000000000, 0.0000000000000000000 ) ) ;
#276 = CARTESIAN_POINT ( 'NONE',  ( -0.02350000000000000352, 2.877919977996280598E-18, 0.0000000000000000000 ) ) ;
#277 = ORIENTED_EDGE ( 'NONE', *, *, #331, .T. ) ;
#278 = FACE_OUTER_BOUND ( 'NONE', #302, .T. ) ;
#279 = DIRECTION ( 'NONE',  ( -1.000000000000000000, 0.0000000000000000000, 0.0000000000000000000 ) ) ;
#280 = FACE_OUTER_BOUND ( 'NONE', #126, .T. ) ;
#281 = DIRECTION ( 'NONE',  ( -0.0000000000000000000, -0.0000000000000000000, -1.000000000000000000 ) ) ;
#282 = DIRECTION ( 'NONE',  ( 1.000000000000000000, 0.0000000000000000000, 0.0000000000000000000 ) ) ;
#283 = CARTESIAN_POINT ( 'NONE',  ( 0.1562500000000000000, 1.913510623667739463E-17, 2.484999999999999432 ) ) ;
#284 = SURFACE_STYLE_FILL_AREA ( #172 ) ;
#285 = CARTESIAN_POINT ( 'NONE',  ( 0.0000000000000000000, 0.0000000000000000000, 2.500000000000000000 ) ) ;
#286 = PRODUCT ( 'Micro_SPD-312-100', 'Micro_SPD-312-100', '', ( #234 ) ) ;
#287 =( CONVERSION_BASED_UNIT ( 'INCH', #311 ) LENGTH_UNIT ( ) NAMED_UNIT ( #342 ) );
#288 = LINE ( 'NONE', #90, #85 ) ;
#289 = CONICAL_SURFACE ( 'NONE', #181, 0.1412499999999994871, 0.7853981633974391752 ) ;
#290 = SURFACE_STYLE_USAGE ( .BOTH. , #147 ) ;
#291 =( LENGTH_UNIT ( ) NAMED_UNIT ( * ) SI_UNIT ( $, .METRE. ) );
#292 = CIRCLE ( 'NONE', #99, 0.1562500000000000000 ) ;
#293 = FILL_AREA_STYLE_COLOUR ( '', #267 ) ;
#294 = DIRECTION ( 'NONE',  ( 0.0000000000000000000, 0.0000000000000000000, -1.000000000000000000 ) ) ;
#295 = DIRECTION ( 'NONE',  ( -1.000000000000000000, 0.0000000000000000000, 0.0000000000000000000 ) ) ;
#296 = ADVANCED_FACE ( 'NONE', ( #190 ), #329, .T. ) ;
#297 = ORIENTED_EDGE ( 'NONE', *, *, #87, .T. ) ;
#298 = ORIENTED_EDGE ( 'NONE', *, *, #79, .F. ) ;
#299 = EDGE_LOOP ( 'NONE', ( #178, #52 ) ) ;
#300 = EDGE_CURVE ( 'NONE', #124, #189, #61, .T. ) ;
#301 = DIRECTION ( 'NONE',  ( 0.0000000000000000000, 0.0000000000000000000, 1.000000000000000000 ) ) ;
#302 = EDGE_LOOP ( 'NONE', ( #182, #266, #110, #239 ) ) ;
#303 =( NAMED_UNIT ( * ) PLANE_ANGLE_UNIT ( ) SI_UNIT ( $, .RADIAN. ) );
#304 = DIRECTION ( 'NONE',  ( 0.7071067811865410224, 8.659560562354852739E-17, -0.7071067811865539010 ) ) ;
#305 = DIRECTION ( 'NONE',  ( -1.000000000000000000, 0.0000000000000000000, 0.0000000000000000000 ) ) ;
#306 = LINE ( 'NONE', #222, #139 ) ;
#307 = FACE_OUTER_BOUND ( 'NONE', #319, .T. ) ;
#308 = DIRECTION ( 'NONE',  ( -1.000000000000000000, 0.0000000000000000000, 0.0000000000000000000 ) ) ;
#309 = CIRCLE ( 'NONE', #221, 0.1562000000000000055 ) ;
#310 =( GEOMETRIC_REPRESENTATION_CONTEXT ( 3 ) GLOBAL_UNCERTAINTY_ASSIGNED_CONTEXT ( ( #21 ) ) GLOBAL_UNIT_ASSIGNED_CONTEXT ( ( #98, #316, #179 ) ) REPRESENTATION_CONTEXT ( 'NONE', 'WORKASPACE' ) );
#311 = LENGTH_MEASURE_WITH_UNIT ( LENGTH_MEASURE( 0.02539999999999999897 ), #291 );
#312 = CYLINDRICAL_SURFACE ( 'NONE', #20, 0.1562500000000000000 ) ;
#313 = LINE ( 'NONE', #253, #318 ) ;
#314 = FILL_AREA_STYLE_COLOUR ( '', #323 ) ;
#315 = STYLED_ITEM ( 'NONE', ( #112 ), #187 ) ;
#316 =( NAMED_UNIT ( * ) PLANE_ANGLE_UNIT ( ) SI_UNIT ( $, .RADIAN. ) );
#317 = CARTESIAN_POINT ( 'NONE',  ( 0.1562000000000000333, 0.0000000000000000000, 0.7500000000000001110 ) ) ;
#318 = VECTOR ( 'NONE', #6, 39.37007874015748854 ) ;
#319 = EDGE_LOOP ( 'NONE', ( #324, #263, #154, #347 ) ) ;
#320 = ADVANCED_FACE ( 'NONE', ( #280 ), #254, .T. ) ;
#321 = DIRECTION ( 'NONE',  ( 0.0000000000000000000, 0.0000000000000000000, 1.000000000000000000 ) ) ;
#322 = ORIENTED_EDGE ( 'NONE', *, *, #300, .F. ) ;
#323 = COLOUR_RGB ( '',0.7921568627450980005, 0.8196078431372548767, 0.9333333333333333481 ) ;
#324 = ORIENTED_EDGE ( 'NONE', *, *, #233, .F. ) ;
#325 = DIRECTION ( 'NONE',  ( -1.000000000000000000, 0.0000000000000000000, 0.0000000000000000000 ) ) ;
#326 = CARTESIAN_POINT ( 'NONE',  ( 0.0000000000000000000, 0.0000000000000000000, 0.7500000000000001110 ) ) ;
#327 = ORIENTED_EDGE ( 'NONE', *, *, #93, .T. ) ;
#328 = EDGE_LOOP ( 'NONE', ( #214, #27, #161, #75 ) ) ;
#329 = PLANE ( 'NONE',  #228 ) ;
#330 = DIRECTION ( 'NONE',  ( 1.000000000000000000, 0.0000000000000000000, 0.0000000000000000000 ) ) ;
#331 = EDGE_CURVE ( 'NONE', #210, #107, #174, .T. ) ;
#332 = DIRECTION ( 'NONE',  ( -0.0000000000000000000, -0.0000000000000000000, -1.000000000000000000 ) ) ;
#333 = DIRECTION ( 'NONE',  ( 0.0000000000000000000, 0.0000000000000000000, 1.000000000000000000 ) ) ;
#334 = DIRECTION ( 'NONE',  ( 0.0000000000000000000, 0.0000000000000000000, 1.000000000000000000 ) ) ;
#335 = AXIS2_PLACEMENT_3D ( 'NONE', #197, #60, #225 ) ;
#336 = CARTESIAN_POINT ( 'NONE',  ( -0.1562000000000000055, 0.0000000000000000000, 0.1113485210572245920 ) ) ;
#337 = SHAPE_DEFINITION_REPRESENTATION ( #229, #171 ) ;
#338 = CONICAL_SURFACE ( 'NONE', #341, 0.1562000000000000333, 0.7853981633974504994 ) ;
#339 = CYLINDRICAL_SURFACE ( 'NONE', #67, 0.1562500000000000000 ) ;
#340 = ORIENTED_EDGE ( 'NONE', *, *, #227, .F. ) ;
#341 = AXIS2_PLACEMENT_3D ( 'NONE', #115, #334, #255 ) ;
#342 = DIMENSIONAL_EXPONENTS ( 1.000000000000000000, 0.0000000000000000000, 0.0000000000000000000, 0.0000000000000000000, 0.0000000000000000000, 0.0000000000000000000, 0.0000000000000000000 ) ;
#343 = ORIENTED_EDGE ( 'NONE', *, *, #152, .T. ) ;
#344 = UNCERTAINTY_MEASURE_WITH_UNIT (LENGTH_MEASURE( 1.000000000000000082E-05 ), #287, 'distance_accuracy_value', 'NONE');
#345 = ORIENTED_EDGE ( 'NONE', *, *, #102, .T. ) ;
#346 = PRESENTATION_LAYER_ASSIGNMENT (  '', '', ( #315 ) ) ;
#347 = ORIENTED_EDGE ( 'NONE', *, *, #36, .F. ) ;
#348 = CARTESIAN_POINT ( 'NONE',  ( -0.1562500000000000000, 0.0000000000000000000, 2.484999999999999432 ) ) ;
#349 = ORIENTED_EDGE ( 'NONE', *, *, #331, .F. ) ;
ENDSEC;
END-ISO-10303-21;
