ISO-10303-21;
HEADER;
FILE_DESCRIPTION (( 'STEP AP214' ),
    '1' );
FILE_NAME ('03272.STEP',
    '2023-06-22T15:07:02',
    ( '' ),
    ( '' ),
    'SwSTEP 2.0',
    'SolidWorks 2023',
    '' );
FILE_SCHEMA (( 'AUTOMOTIVE_DESIGN' ));
ENDSEC;

DATA;
#1 = CYLINDRICAL_SURFACE ( 'NONE', #207, 0.1562500000000000278 ) ;
#2 = PRESENTATION_STYLE_ASSIGNMENT (( #215 ) ) ;
#3 = FACE_OUTER_BOUND ( 'NONE', #136, .T. ) ;
#4 = VERTEX_POINT ( 'NONE', #281 ) ;
#5 = CARTESIAN_POINT ( 'NONE',  ( -6.123233995736772199E-17, 3.000000000000000444, 0.000000000000000000 ) ) ;
#6 = SURFACE_STYLE_FILL_AREA ( #298 ) ;
#7 = AXIS2_PLACEMENT_3D ( 'NONE', #291, #50, #140 ) ;
#8 = CARTESIAN_POINT ( 'NONE',  ( 0.000000000000000000, 0.000000000000000000, 0.000000000000000000 ) ) ;
#9 = LENGTH_MEASURE_WITH_UNIT ( LENGTH_MEASURE( 0.02539999999999999897 ), #220 );
#10 = DIMENSIONAL_EXPONENTS ( 1.000000000000000000, 0.000000000000000000, 0.000000000000000000, 0.000000000000000000, 0.000000000000000000, 0.000000000000000000, 0.000000000000000000 ) ;
#11 = AXIS2_PLACEMENT_3D ( 'NONE', #208, #66, #155 ) ;
#12 = CARTESIAN_POINT ( 'NONE',  ( 0.000000000000000000, 1.000000000000000000, -0.1562500000000000000 ) ) ;
#13 = EDGE_CURVE ( 'NONE', #38, #255, #91, .T. ) ;
#14 = ORIENTED_EDGE ( 'NONE', *, *, #105, .T. ) ;
#15 = ORIENTED_EDGE ( 'NONE', *, *, #177, .F. ) ;
#16 = CARTESIAN_POINT ( 'NONE',  ( 0.000000000000000000, 1.000000000000000000, 0.000000000000000000 ) ) ;
#17 = SURFACE_SIDE_STYLE ('',( #283 ) ) ;
#18 = LINE ( 'NONE', #158, #79 ) ;
#19 = AXIS2_PLACEMENT_3D ( 'NONE', #143, #267, #22 ) ;
#20 = ADVANCED_FACE ( 'NONE', ( #42 ), #133, .T. ) ;
#21 = MANIFOLD_SOLID_BREP ( 'Revolve - Cutting Edge', #85 ) ;
#22 = DIRECTION ( 'NONE',  ( 0.000000000000000000, 0.000000000000000000, -1.000000000000000000 ) ) ;
#23 = UNCERTAINTY_MEASURE_WITH_UNIT (LENGTH_MEASURE( 1.000000000000000082E-05 ), #82, 'distance_accuracy_value', 'NONE');
#24 = LENGTH_MEASURE_WITH_UNIT ( LENGTH_MEASURE( 0.02539999999999999897 ), #268 );
#25 = COLOUR_RGB ( '',0.7921568627450980005, 0.8196078431372548767, 0.9333333333333333481 ) ;
#26 = MANIFOLD_SOLID_BREP ( 'Revolve - Tool Body (Straight Shanked)', #59 ) ;
#27 = FILL_AREA_STYLE_COLOUR ( '', #25 ) ;
#28 = ADVANCED_FACE ( 'NONE', ( #295 ), #239, .T. ) ;
#29 = SURFACE_STYLE_FILL_AREA ( #199 ) ;
#30 = DIMENSIONAL_EXPONENTS ( 1.000000000000000000, 0.000000000000000000, 0.000000000000000000, 0.000000000000000000, 0.000000000000000000, 0.000000000000000000, 0.000000000000000000 ) ;
#31 =( LENGTH_UNIT ( ) NAMED_UNIT ( * ) SI_UNIT ( $, .METRE. ) );
#32 = ORIENTED_EDGE ( 'NONE', *, *, #244, .T. ) ;
#33 = ADVANCED_FACE ( 'NONE', ( #43 ), #280, .F. ) ;
#34 = MECHANICAL_DESIGN_GEOMETRIC_PRESENTATION_REPRESENTATION (  '', ( #259 ), #47 ) ;
#35 = PRODUCT ( '03272', '03272', '', ( #262 ) ) ;
#36 = ORIENTED_EDGE ( 'NONE', *, *, #263, .F. ) ;
#37 = DIRECTION ( 'NONE',  ( 1.000000000000000000, 3.061616997868386099E-17, 0.000000000000000000 ) ) ;
#38 = VERTEX_POINT ( 'NONE', #235 ) ;
#39 = AXIS2_PLACEMENT_3D ( 'NONE', #285, #186, #37 ) ;
#40 = AXIS2_PLACEMENT_3D ( 'NONE', #296, #169, #203 ) ;
#41 = DIRECTION ( 'NONE',  ( 0.000000000000000000, 0.000000000000000000, 1.000000000000000000 ) ) ;
#42 = FACE_OUTER_BOUND ( 'NONE', #226, .T. ) ;
#43 = FACE_OUTER_BOUND ( 'NONE', #260, .T. ) ;
#44 = VERTEX_POINT ( 'NONE', #232 ) ;
#45 = DIRECTION ( 'NONE',  ( -1.000000000000000000, -3.061616997868386099E-17, 0.000000000000000000 ) ) ;
#46 = ADVANCED_FACE ( 'NONE', ( #238 ), #180, .F. ) ;
#47 =( GEOMETRIC_REPRESENTATION_CONTEXT ( 3 ) GLOBAL_UNCERTAINTY_ASSIGNED_CONTEXT ( ( #23 ) ) GLOBAL_UNIT_ASSIGNED_CONTEXT ( ( #82, #62, #197 ) ) REPRESENTATION_CONTEXT ( 'NONE', 'WORKASPACE' ) );
#48 = AXIS2_PLACEMENT_3D ( 'NONE', #8, #198, #176 ) ;
#49 = DIRECTION ( 'NONE',  ( 0.000000000000000000, 0.000000000000000000, -1.000000000000000000 ) ) ;
#50 = DIRECTION ( 'NONE',  ( -0.000000000000000000, -1.000000000000000000, -0.000000000000000000 ) ) ;
#51 = SURFACE_SIDE_STYLE ('',( #97 ) ) ;
#52 = SURFACE_STYLE_USAGE ( .BOTH. , #162 ) ;
#53 =( GEOMETRIC_REPRESENTATION_CONTEXT ( 3 ) GLOBAL_UNCERTAINTY_ASSIGNED_CONTEXT ( ( #216 ) ) GLOBAL_UNIT_ASSIGNED_CONTEXT ( ( #192, #142, #113 ) ) REPRESENTATION_CONTEXT ( 'NONE', 'WORKASPACE' ) );
#54 = ORIENTED_EDGE ( 'NONE', *, *, #219, .F. ) ;
#55 = LENGTH_MEASURE_WITH_UNIT ( LENGTH_MEASURE( 0.02539999999999999897 ), #31 );
#56 =( NAMED_UNIT ( * ) PLANE_ANGLE_UNIT ( ) SI_UNIT ( $, .RADIAN. ) );
#57 = EDGE_CURVE ( 'NONE', #257, #4, #18, .T. ) ;
#58 = FILL_AREA_STYLE_COLOUR ( '', #160 ) ;
#59 = CLOSED_SHELL ( 'NONE', ( #159, #46, #174, #33 ) ) ;
#60 = PRESENTATION_LAYER_ASSIGNMENT (  '', '', ( #195 ) ) ;
#61 = LINE ( 'NONE', #272, #249 ) ;
#62 =( NAMED_UNIT ( * ) PLANE_ANGLE_UNIT ( ) SI_UNIT ( $, .RADIAN. ) );
#63 = ORIENTED_EDGE ( 'NONE', *, *, #187, .T. ) ;
#64 = APPLICATION_PROTOCOL_DEFINITION ( 'draft international standard', 'automotive_design', 1998, #77 ) ;
#65 = EDGE_LOOP ( 'NONE', ( #228, #230 ) ) ;
#66 = DIRECTION ( 'NONE',  ( -0.000000000000000000, -1.000000000000000000, -0.000000000000000000 ) ) ;
#67 = MECHANICAL_DESIGN_GEOMETRIC_PRESENTATION_REPRESENTATION (  '', ( #168 ), #157 ) ;
#68 =( CONVERSION_BASED_UNIT ( 'INCH', #303 ) LENGTH_UNIT ( ) NAMED_UNIT ( #104 ) );
#69 = EDGE_CURVE ( 'NONE', #255, #38, #151, .T. ) ;
#70 = CARTESIAN_POINT ( 'NONE',  ( 7.323045813778616568E-35, 1.000000000000000000, 0.000000000000000000 ) ) ;
#71 = FILL_AREA_STYLE ('',( #116 ) ) ;
#72 = MECHANICAL_DESIGN_GEOMETRIC_PRESENTATION_REPRESENTATION (  '', ( #248 ), #92 ) ;
#73 = AXIS2_PLACEMENT_3D ( 'NONE', #225, #41, #206 ) ;
#74 = FACE_OUTER_BOUND ( 'NONE', #87, .T. ) ;
#75 = SURFACE_STYLE_FILL_AREA ( #71 ) ;
#76 = PLANE ( 'NONE',  #270 ) ;
#77 = APPLICATION_CONTEXT ( 'automotive_design' ) ;
#78 = EDGE_LOOP ( 'NONE', ( #106, #32, #36, #204 ) ) ;
#79 = VECTOR ( 'NONE', #265, 39.37007874015748143 ) ;
#80 = PLANE ( 'NONE',  #88 ) ;
#81 = CARTESIAN_POINT ( 'NONE',  ( -0.1562500000000001110, 3.000000000000000444, 0.000000000000000000 ) ) ;
#82 =( CONVERSION_BASED_UNIT ( 'INCH', #274 ) LENGTH_UNIT ( ) NAMED_UNIT ( #252 ) );
#83 = EDGE_CURVE ( 'NONE', #167, #4, #132, .T. ) ;
#84 = SURFACE_SIDE_STYLE ('',( #6 ) ) ;
#85 = CLOSED_SHELL ( 'NONE', ( #28, #119, #20, #129 ) ) ;
#86 = AXIS2_PLACEMENT_3D ( 'NONE', #294, #223, #102 ) ;
#87 = EDGE_LOOP ( 'NONE', ( #154, #293, #98, #54 ) ) ;
#88 = AXIS2_PLACEMENT_3D ( 'NONE', #309, #96, #287 ) ;
#89 = APPLICATION_PROTOCOL_DEFINITION ( 'draft international standard', 'automotive_design', 1998, #166 ) ;
#90 = DIMENSIONAL_EXPONENTS ( 1.000000000000000000, 0.000000000000000000, 0.000000000000000000, 0.000000000000000000, 0.000000000000000000, 0.000000000000000000, 0.000000000000000000 ) ;
#91 = CIRCLE ( 'NONE', #11, 0.1562500000000000000 ) ;
#92 =( GEOMETRIC_REPRESENTATION_CONTEXT ( 3 ) GLOBAL_UNCERTAINTY_ASSIGNED_CONTEXT ( ( #163 ) ) GLOBAL_UNIT_ASSIGNED_CONTEXT ( ( #200, #56, #100 ) ) REPRESENTATION_CONTEXT ( 'NONE', 'WORKASPACE' ) );
#93 =( NAMED_UNIT ( * ) PLANE_ANGLE_UNIT ( ) SI_UNIT ( $, .RADIAN. ) );
#94 =( NAMED_UNIT ( * ) SI_UNIT ( $, .STERADIAN. ) SOLID_ANGLE_UNIT ( ) );
#95 = CARTESIAN_POINT ( 'NONE',  ( -6.123233995736772199E-17, 3.000000000000000444, 0.000000000000000000 ) ) ;
#96 = DIRECTION ( 'NONE',  ( 0.000000000000000000, 1.000000000000000000, 0.000000000000000000 ) ) ;
#97 = SURFACE_STYLE_FILL_AREA ( #118 ) ;
#98 = ORIENTED_EDGE ( 'NONE', *, *, #83, .F. ) ;
#99 = DIRECTION ( 'NONE',  ( -3.061616997868386099E-17, 1.000000000000000000, -0.000000000000000000 ) ) ;
#100 =( NAMED_UNIT ( * ) SI_UNIT ( $, .STERADIAN. ) SOLID_ANGLE_UNIT ( ) );
#101 = PRESENTATION_STYLE_ASSIGNMENT (( #173 ) ) ;
#102 = DIRECTION ( 'NONE',  ( -1.000000000000000000, 0.000000000000000000, 0.000000000000000000 ) ) ;
#103 = MECHANICAL_DESIGN_GEOMETRIC_PRESENTATION_REPRESENTATION (  '', ( #229 ), #304 ) ;
#104 = DIMENSIONAL_EXPONENTS ( 1.000000000000000000, 0.000000000000000000, 0.000000000000000000, 0.000000000000000000, 0.000000000000000000, 0.000000000000000000, 0.000000000000000000 ) ;
#105 = EDGE_CURVE ( 'NONE', #153, #44, #107, .T. ) ;
#106 = ORIENTED_EDGE ( 'NONE', *, *, #69, .T. ) ;
#107 = CIRCLE ( 'NONE', #19, 0.1562500000000000000 ) ;
#108 = ORIENTED_EDGE ( 'NONE', *, *, #13, .T. ) ;
#109 = ORIENTED_EDGE ( 'NONE', *, *, #263, .T. ) ;
#110 = CARTESIAN_POINT ( 'NONE',  ( 1.913510623667739463E-17, 0.000000000000000000, 0.1562500000000000000 ) ) ;
#111 = PRODUCT_DEFINITION ( 'UNKNOWN', '', #284, #245 ) ;
#112 = SURFACE_SIDE_STYLE ('',( #117 ) ) ;
#113 =( NAMED_UNIT ( * ) SI_UNIT ( $, .STERADIAN. ) SOLID_ANGLE_UNIT ( ) );
#114 = AXIS2_PLACEMENT_3D ( 'NONE', #70, #135, #45 ) ;
#115 =( CONVERSION_BASED_UNIT ( 'INCH', #24 ) LENGTH_UNIT ( ) NAMED_UNIT ( #128 ) );
#116 = FILL_AREA_STYLE_COLOUR ( '', #125 ) ;
#117 = SURFACE_STYLE_FILL_AREA ( #307 ) ;
#118 = FILL_AREA_STYLE ('',( #213 ) ) ;
#119 = ADVANCED_FACE ( 'NONE', ( #3 ), #80, .T. ) ;
#120 = COLOUR_RGB ( '',1.000000000000000000, 0.000000000000000000, 0.000000000000000000 ) ;
#121 =( LENGTH_UNIT ( ) NAMED_UNIT ( * ) SI_UNIT ( $, .METRE. ) );
#122 = DIRECTION ( 'NONE',  ( -0.000000000000000000, -1.000000000000000000, -0.000000000000000000 ) ) ;
#123 = SURFACE_STYLE_USAGE ( .BOTH. , #147 ) ;
#124 = CARTESIAN_POINT ( 'NONE',  ( 7.582401355855259480E-33, 1.000000000000000000, 0.000000000000000000 ) ) ;
#125 = COLOUR_RGB ( '',1.000000000000000000, 0.000000000000000000, 0.000000000000000000 ) ;
#126 = EDGE_LOOP ( 'NONE', ( #256, #63, #237, #15 ) ) ;
#127 =( GEOMETRIC_REPRESENTATION_CONTEXT ( 3 ) GLOBAL_UNCERTAINTY_ASSIGNED_CONTEXT ( ( #141 ) ) GLOBAL_UNIT_ASSIGNED_CONTEXT ( ( #115, #165, #94 ) ) REPRESENTATION_CONTEXT ( 'NONE', 'WORKASPACE' ) );
#128 = DIMENSIONAL_EXPONENTS ( 1.000000000000000000, 0.000000000000000000, 0.000000000000000000, 0.000000000000000000, 0.000000000000000000, 0.000000000000000000, 0.000000000000000000 ) ;
#129 = ADVANCED_FACE ( 'NONE', ( #289 ), #76, .T. ) ;
#130 = ORIENTED_EDGE ( 'NONE', *, *, #69, .F. ) ;
#131 = ORIENTED_EDGE ( 'NONE', *, *, #83, .T. ) ;
#132 = CIRCLE ( 'NONE', #184, 0.1562500000000000833 ) ;
#133 = CYLINDRICAL_SURFACE ( 'NONE', #7, 0.1562500000000000000 ) ;
#134 = ORIENTED_EDGE ( 'NONE', *, *, #177, .T. ) ;
#135 = DIRECTION ( 'NONE',  ( -3.061616997868386099E-17, 1.000000000000000000, 0.000000000000000000 ) ) ;
#136 = EDGE_LOOP ( 'NONE', ( #130, #224 ) ) ;
#137 = DIRECTION ( 'NONE',  ( -0.000000000000000000, -1.000000000000000000, -0.000000000000000000 ) ) ;
#138 = PRESENTATION_LAYER_ASSIGNMENT (  '', '', ( #259 ) ) ;
#139 = FACE_OUTER_BOUND ( 'NONE', #126, .T. ) ;
#140 = DIRECTION ( 'NONE',  ( 0.000000000000000000, 0.000000000000000000, -1.000000000000000000 ) ) ;
#141 = UNCERTAINTY_MEASURE_WITH_UNIT (LENGTH_MEASURE( 1.000000000000000082E-05 ), #115, 'distance_accuracy_value', 'NONE');
#142 =( NAMED_UNIT ( * ) PLANE_ANGLE_UNIT ( ) SI_UNIT ( $, .RADIAN. ) );
#143 = CARTESIAN_POINT ( 'NONE',  ( 0.000000000000000000, 0.000000000000000000, 0.000000000000000000 ) ) ;
#144 =( CONVERSION_BASED_UNIT ( 'INCH', #55 ) LENGTH_UNIT ( ) NAMED_UNIT ( #10 ) );
#145 = PRESENTATION_STYLE_ASSIGNMENT (( #240 ) ) ;
#146 =( NAMED_UNIT ( * ) SI_UNIT ( $, .STERADIAN. ) SOLID_ANGLE_UNIT ( ) );
#147 = SURFACE_SIDE_STYLE ('',( #29 ) ) ;
#148 = STYLED_ITEM ( 'NONE', ( #2 ), #21 ) ;
#149 = CIRCLE ( 'NONE', #231, 0.1562500000000000000 ) ;
#150 = LINE ( 'NONE', #81, #179 ) ;
#151 = CIRCLE ( 'NONE', #282, 0.1562500000000000000 ) ;
#152 = LENGTH_MEASURE_WITH_UNIT ( LENGTH_MEASURE( 0.02539999999999999897 ), #292 );
#153 = VERTEX_POINT ( 'NONE', #110 ) ;
#154 = ORIENTED_EDGE ( 'NONE', *, *, #279, .T. ) ;
#155 = DIRECTION ( 'NONE',  ( 0.000000000000000000, 0.000000000000000000, -1.000000000000000000 ) ) ;
#156 = DIRECTION ( 'NONE',  ( 0.000000000000000000, 0.000000000000000000, -1.000000000000000000 ) ) ;
#157 =( GEOMETRIC_REPRESENTATION_CONTEXT ( 3 ) GLOBAL_UNCERTAINTY_ASSIGNED_CONTEXT ( ( #306 ) ) GLOBAL_UNIT_ASSIGNED_CONTEXT ( ( #68, #93, #190 ) ) REPRESENTATION_CONTEXT ( 'NONE', 'WORKASPACE' ) );
#158 = CARTESIAN_POINT ( 'NONE',  ( 0.1562499999999999722, 3.000000000000000444, 1.913510623667739771E-17 ) ) ;
#159 = ADVANCED_FACE ( 'NONE', ( #74 ), #308, .T. ) ;
#160 = COLOUR_RGB ( '',1.000000000000000000, 0.000000000000000000, 0.000000000000000000 ) ;
#161 = VECTOR ( 'NONE', #122, 39.37007874015748143 ) ;
#162 = SURFACE_SIDE_STYLE ('',( #75 ) ) ;
#163 = UNCERTAINTY_MEASURE_WITH_UNIT (LENGTH_MEASURE( 1.000000000000000082E-05 ), #200, 'distance_accuracy_value', 'NONE');
#164 = DIRECTION ( 'NONE',  ( 0.000000000000000000, -1.000000000000000000, -0.000000000000000000 ) ) ;
#165 =( NAMED_UNIT ( * ) PLANE_ANGLE_UNIT ( ) SI_UNIT ( $, .RADIAN. ) );
#166 = APPLICATION_CONTEXT ( 'automotive_design' ) ;
#167 = VERTEX_POINT ( 'NONE', #189 ) ;
#168 = STYLED_ITEM ( 'NONE', ( #234 ), #20 ) ;
#169 = DIRECTION ( 'NONE',  ( -3.061616997868386099E-17, 1.000000000000000000, -0.000000000000000000 ) ) ;
#170 = LENGTH_MEASURE_WITH_UNIT ( LENGTH_MEASURE( 0.02539999999999999897 ), #269 );
#171 = UNCERTAINTY_MEASURE_WITH_UNIT (LENGTH_MEASURE( 1.000000000000000082E-05 ), #144, 'distance_accuracy_value', 'NONE');
#172 =( NAMED_UNIT ( * ) PLANE_ANGLE_UNIT ( ) SI_UNIT ( $, .RADIAN. ) );
#173 = SURFACE_STYLE_USAGE ( .BOTH. , #84 ) ;
#174 = ADVANCED_FACE ( 'NONE', ( #139 ), #1, .T. ) ;
#175 = PRESENTATION_LAYER_ASSIGNMENT (  '', '', ( #168 ) ) ;
#176 = DIRECTION ( 'NONE',  ( 0.000000000000000000, 0.000000000000000000, -1.000000000000000000 ) ) ;
#177 = EDGE_CURVE ( 'NONE', #4, #167, #254, .T. ) ;
#178 =( LENGTH_UNIT ( ) NAMED_UNIT ( * ) SI_UNIT ( $, .METRE. ) );
#179 = VECTOR ( 'NONE', #250, 39.37007874015748143 ) ;
#180 = PLANE ( 'NONE',  #114 ) ;
#181 = ORIENTED_EDGE ( 'NONE', *, *, #105, .F. ) ;
#182 = PRODUCT_DEFINITION_SHAPE ( 'NONE', 'NONE',  #111 ) ;
#183 =( NAMED_UNIT ( * ) SI_UNIT ( $, .STERADIAN. ) SOLID_ANGLE_UNIT ( ) );
#184 = AXIS2_PLACEMENT_3D ( 'NONE', #301, #188, #243 ) ;
#185 = SURFACE_STYLE_USAGE ( .BOTH. , #17 ) ;
#186 = DIRECTION ( 'NONE',  ( 3.061616997868386099E-17, -1.000000000000000000, 0.000000000000000000 ) ) ;
#187 = EDGE_CURVE ( 'NONE', #257, #302, #149, .T. ) ;
#188 = DIRECTION ( 'NONE',  ( -3.061616997868386099E-17, 1.000000000000000000, -0.000000000000000000 ) ) ;
#189 = CARTESIAN_POINT ( 'NONE',  ( -0.1562500000000001388, 3.000000000000000444, 0.000000000000000000 ) ) ;
#190 =( NAMED_UNIT ( * ) SI_UNIT ( $, .STERADIAN. ) SOLID_ANGLE_UNIT ( ) );
#191 = DIRECTION ( 'NONE',  ( -1.000000000000000000, 0.000000000000000000, 0.000000000000000000 ) ) ;
#192 =( CONVERSION_BASED_UNIT ( 'INCH', #170 ) LENGTH_UNIT ( ) NAMED_UNIT ( #90 ) );
#193 = ORIENTED_EDGE ( 'NONE', *, *, #244, .F. ) ;
#194 = DIRECTION ( 'NONE',  ( -1.000000000000000000, 0.000000000000000000, 0.000000000000000000 ) ) ;
#195 = STYLED_ITEM ( 'NONE', ( #145 ), #119 ) ;
#196 = DIRECTION ( 'NONE',  ( -0.000000000000000000, -1.000000000000000000, -0.000000000000000000 ) ) ;
#197 =( NAMED_UNIT ( * ) SI_UNIT ( $, .STERADIAN. ) SOLID_ANGLE_UNIT ( ) );
#198 = DIRECTION ( 'NONE',  ( -0.000000000000000000, -1.000000000000000000, -0.000000000000000000 ) ) ;
#199 = FILL_AREA_STYLE ('',( #58 ) ) ;
#200 =( CONVERSION_BASED_UNIT ( 'INCH', #152 ) LENGTH_UNIT ( ) NAMED_UNIT ( #275 ) );
#201 = COLOUR_RGB ( '',0.7921568627450980005, 0.8196078431372548767, 0.9333333333333333481 ) ;
#202 = CARTESIAN_POINT ( 'NONE',  ( 0.000000000000000000, 0.000000000000000000, -0.1562500000000000000 ) ) ;
#203 = DIRECTION ( 'NONE',  ( -1.000000000000000000, 0.000000000000000000, 0.000000000000000000 ) ) ;
#204 = ORIENTED_EDGE ( 'NONE', *, *, #236, .F. ) ;
#205 = DIRECTION ( 'NONE',  ( 0.000000000000000000, 0.000000000000000000, -1.000000000000000000 ) ) ;
#206 = DIRECTION ( 'NONE',  ( 1.000000000000000000, 0.000000000000000000, 0.000000000000000000 ) ) ;
#207 = AXIS2_PLACEMENT_3D ( 'NONE', #5, #99, #194 ) ;
#208 = CARTESIAN_POINT ( 'NONE',  ( 0.000000000000000000, 1.000000000000000000, 0.000000000000000000 ) ) ;
#209 = COLOUR_RGB ( '',1.000000000000000000, 0.000000000000000000, 0.000000000000000000 ) ;
#210 = ORIENTED_EDGE ( 'NONE', *, *, #236, .T. ) ;
#211 = AXIS2_PLACEMENT_3D ( 'NONE', #95, #212, #191 ) ;
#212 = DIRECTION ( 'NONE',  ( -3.061616997868386099E-17, 1.000000000000000000, -0.000000000000000000 ) ) ;
#213 = FILL_AREA_STYLE_COLOUR ( '', #120 ) ;
#214 =( GEOMETRIC_REPRESENTATION_CONTEXT ( 3 ) GLOBAL_UNCERTAINTY_ASSIGNED_CONTEXT ( ( #171 ) ) GLOBAL_UNIT_ASSIGNED_CONTEXT ( ( #144, #172, #146 ) ) REPRESENTATION_CONTEXT ( 'NONE', 'WORKASPACE' ) );
#215 = SURFACE_STYLE_USAGE ( .BOTH. , #112 ) ;
#216 = UNCERTAINTY_MEASURE_WITH_UNIT (LENGTH_MEASURE( 1.000000000000000082E-05 ), #192, 'distance_accuracy_value', 'NONE');
#217 = DIRECTION ( 'NONE',  ( -3.061616997868386099E-17, 1.000000000000000000, -0.000000000000000000 ) ) ;
#218 = PRESENTATION_LAYER_ASSIGNMENT (  '', '', ( #229 ) ) ;
#219 = EDGE_CURVE ( 'NONE', #302, #167, #150, .T. ) ;
#220 =( LENGTH_UNIT ( ) NAMED_UNIT ( * ) SI_UNIT ( $, .METRE. ) );
#221 =( NAMED_UNIT ( * ) PLANE_ANGLE_UNIT ( ) SI_UNIT ( $, .RADIAN. ) );
#222 = ADVANCED_BREP_SHAPE_REPRESENTATION ( '03272', ( #21, #26, #73 ), #214 ) ;
#223 = DIRECTION ( 'NONE',  ( -3.061616997868386099E-17, 1.000000000000000000, -0.000000000000000000 ) ) ;
#224 = ORIENTED_EDGE ( 'NONE', *, *, #13, .F. ) ;
#225 = CARTESIAN_POINT ( 'NONE',  ( 0.000000000000000000, 0.000000000000000000, 0.000000000000000000 ) ) ;
#226 = EDGE_LOOP ( 'NONE', ( #193, #108, #210, #181 ) ) ;
#227 = CARTESIAN_POINT ( 'NONE',  ( 0.000000000000000000, 0.000000000000000000, 0.000000000000000000 ) ) ;
#228 = ORIENTED_EDGE ( 'NONE', *, *, #279, .F. ) ;
#229 = STYLED_ITEM ( 'NONE', ( #247 ), #28 ) ;
#230 = ORIENTED_EDGE ( 'NONE', *, *, #187, .F. ) ;
#231 = AXIS2_PLACEMENT_3D ( 'NONE', #124, #217, #246 ) ;
#232 = CARTESIAN_POINT ( 'NONE',  ( 0.000000000000000000, 0.000000000000000000, -0.1562500000000000000 ) ) ;
#233 = FILL_AREA_STYLE ('',( #286 ) ) ;
#234 = PRESENTATION_STYLE_ASSIGNMENT (( #185 ) ) ;
#235 = CARTESIAN_POINT ( 'NONE',  ( 1.913510623667739463E-17, 1.000000000000000000, 0.1562500000000000000 ) ) ;
#236 = EDGE_CURVE ( 'NONE', #255, #44, #273, .T. ) ;
#237 = ORIENTED_EDGE ( 'NONE', *, *, #219, .T. ) ;
#238 = FACE_OUTER_BOUND ( 'NONE', #65, .T. ) ;
#239 = CYLINDRICAL_SURFACE ( 'NONE', #299, 0.1562500000000000000 ) ;
#240 = SURFACE_STYLE_USAGE ( .BOTH. , #51 ) ;
#241 = PRESENTATION_STYLE_ASSIGNMENT (( #52 ) ) ;
#242 = PRESENTATION_LAYER_ASSIGNMENT (  '', '', ( #148 ) ) ;
#243 = DIRECTION ( 'NONE',  ( -1.000000000000000000, 0.000000000000000000, 0.000000000000000000 ) ) ;
#244 = EDGE_CURVE ( 'NONE', #38, #153, #61, .T. ) ;
#245 = PRODUCT_DEFINITION_CONTEXT ( 'detailed design', #77, 'design' ) ;
#246 = DIRECTION ( 'NONE',  ( -1.000000000000000000, 0.000000000000000000, 0.000000000000000000 ) ) ;
#247 = PRESENTATION_STYLE_ASSIGNMENT (( #123 ) ) ;
#248 = STYLED_ITEM ( 'NONE', ( #241 ), #129 ) ;
#249 = VECTOR ( 'NONE', #196, 39.37007874015748143 ) ;
#250 = DIRECTION ( 'NONE',  ( -3.061616997868386099E-17, 1.000000000000000000, -0.000000000000000000 ) ) ;
#251 =( CONVERSION_BASED_UNIT ( 'INCH', #9 ) LENGTH_UNIT ( ) NAMED_UNIT ( #30 ) );
#252 = DIMENSIONAL_EXPONENTS ( 1.000000000000000000, 0.000000000000000000, 0.000000000000000000, 0.000000000000000000, 0.000000000000000000, 0.000000000000000000, 0.000000000000000000 ) ;
#253 = MECHANICAL_DESIGN_GEOMETRIC_PRESENTATION_REPRESENTATION (  '', ( #148 ), #127 ) ;
#254 = CIRCLE ( 'NONE', #86, 0.1562500000000000833 ) ;
#255 = VERTEX_POINT ( 'NONE', #12 ) ;
#256 = ORIENTED_EDGE ( 'NONE', *, *, #57, .F. ) ;
#257 = VERTEX_POINT ( 'NONE', #300 ) ;
#258 = SHAPE_DEFINITION_REPRESENTATION ( #182, #222 ) ;
#259 = STYLED_ITEM ( 'NONE', ( #101 ), #26 ) ;
#260 = EDGE_LOOP ( 'NONE', ( #131, #134 ) ) ;
#261 = CIRCLE ( 'NONE', #40, 0.1562500000000000000 ) ;
#262 = PRODUCT_CONTEXT ( 'NONE', #166, 'mechanical' ) ;
#263 = EDGE_CURVE ( 'NONE', #44, #153, #277, .T. ) ;
#264 = DIRECTION ( 'NONE',  ( -0.000000000000000000, -1.000000000000000000, -0.000000000000000000 ) ) ;
#265 = DIRECTION ( 'NONE',  ( -3.061616997868386099E-17, 1.000000000000000000, -0.000000000000000000 ) ) ;
#266 = PRESENTATION_LAYER_ASSIGNMENT (  '', '', ( #248 ) ) ;
#267 = DIRECTION ( 'NONE',  ( -0.000000000000000000, -1.000000000000000000, -0.000000000000000000 ) ) ;
#268 =( LENGTH_UNIT ( ) NAMED_UNIT ( * ) SI_UNIT ( $, .METRE. ) );
#269 =( LENGTH_UNIT ( ) NAMED_UNIT ( * ) SI_UNIT ( $, .METRE. ) );
#270 = AXIS2_PLACEMENT_3D ( 'NONE', #227, #164, #49 ) ;
#271 = FILL_AREA_STYLE_COLOUR ( '', #201 ) ;
#272 = CARTESIAN_POINT ( 'NONE',  ( 1.913510623667739463E-17, 0.000000000000000000, 0.1562500000000000000 ) ) ;
#273 = LINE ( 'NONE', #202, #161 ) ;
#274 = LENGTH_MEASURE_WITH_UNIT ( LENGTH_MEASURE( 0.02539999999999999897 ), #121 );
#275 = DIMENSIONAL_EXPONENTS ( 1.000000000000000000, 0.000000000000000000, 0.000000000000000000, 0.000000000000000000, 0.000000000000000000, 0.000000000000000000, 0.000000000000000000 ) ;
#276 = MECHANICAL_DESIGN_GEOMETRIC_PRESENTATION_REPRESENTATION (  '', ( #195 ), #53 ) ;
#277 = CIRCLE ( 'NONE', #48, 0.1562500000000000000 ) ;
#278 = EDGE_LOOP ( 'NONE', ( #109, #14 ) ) ;
#279 = EDGE_CURVE ( 'NONE', #302, #257, #261, .T. ) ;
#280 = PLANE ( 'NONE',  #39 ) ;
#281 = CARTESIAN_POINT ( 'NONE',  ( 0.1562500000000000000, 3.000000000000000444, 1.913510623667739771E-17 ) ) ;
#282 = AXIS2_PLACEMENT_3D ( 'NONE', #16, #137, #205 ) ;
#283 = SURFACE_STYLE_FILL_AREA ( #233 ) ;
#284 = PRODUCT_DEFINITION_FORMATION_WITH_SPECIFIED_SOURCE ( 'ANY', '', #35, .NOT_KNOWN. ) ;
#285 = CARTESIAN_POINT ( 'NONE',  ( 0.1562500000000000000, 3.000000000000000444, 0.000000000000000000 ) ) ;
#286 = FILL_AREA_STYLE_COLOUR ( '', #209 ) ;
#287 = DIRECTION ( 'NONE',  ( 0.000000000000000000, -0.000000000000000000, 1.000000000000000000 ) ) ;
#288 = PRODUCT_RELATED_PRODUCT_CATEGORY ( 'part', '', ( #35 ) ) ;
#289 = FACE_OUTER_BOUND ( 'NONE', #278, .T. ) ;
#290 = UNCERTAINTY_MEASURE_WITH_UNIT (LENGTH_MEASURE( 1.000000000000000082E-05 ), #251, 'distance_accuracy_value', 'NONE');
#291 = CARTESIAN_POINT ( 'NONE',  ( 0.000000000000000000, 0.000000000000000000, 0.000000000000000000 ) ) ;
#292 =( LENGTH_UNIT ( ) NAMED_UNIT ( * ) SI_UNIT ( $, .METRE. ) );
#293 = ORIENTED_EDGE ( 'NONE', *, *, #57, .T. ) ;
#294 = CARTESIAN_POINT ( 'NONE',  ( -6.123233995736772199E-17, 3.000000000000000444, 0.000000000000000000 ) ) ;
#295 = FACE_OUTER_BOUND ( 'NONE', #78, .T. ) ;
#296 = CARTESIAN_POINT ( 'NONE',  ( 7.582401355855259480E-33, 1.000000000000000000, 0.000000000000000000 ) ) ;
#297 = CARTESIAN_POINT ( 'NONE',  ( -0.1562500000000000000, 1.000000000000000000, 0.000000000000000000 ) ) ;
#298 = FILL_AREA_STYLE ('',( #271 ) ) ;
#299 = AXIS2_PLACEMENT_3D ( 'NONE', #305, #264, #156 ) ;
#300 = CARTESIAN_POINT ( 'NONE',  ( 0.1562500000000000000, 1.000000000000000000, 1.913510623667739771E-17 ) ) ;
#301 = CARTESIAN_POINT ( 'NONE',  ( -6.123233995736772199E-17, 3.000000000000000444, 0.000000000000000000 ) ) ;
#302 = VERTEX_POINT ( 'NONE', #297 ) ;
#303 = LENGTH_MEASURE_WITH_UNIT ( LENGTH_MEASURE( 0.02539999999999999897 ), #178 );
#304 =( GEOMETRIC_REPRESENTATION_CONTEXT ( 3 ) GLOBAL_UNCERTAINTY_ASSIGNED_CONTEXT ( ( #290 ) ) GLOBAL_UNIT_ASSIGNED_CONTEXT ( ( #251, #221, #183 ) ) REPRESENTATION_CONTEXT ( 'NONE', 'WORKASPACE' ) );
#305 = CARTESIAN_POINT ( 'NONE',  ( 0.000000000000000000, 0.000000000000000000, 0.000000000000000000 ) ) ;
#306 = UNCERTAINTY_MEASURE_WITH_UNIT (LENGTH_MEASURE( 1.000000000000000082E-05 ), #68, 'distance_accuracy_value', 'NONE');
#307 = FILL_AREA_STYLE ('',( #27 ) ) ;
#308 = CYLINDRICAL_SURFACE ( 'NONE', #211, 0.1562500000000000278 ) ;
#309 = CARTESIAN_POINT ( 'NONE',  ( 0.000000000000000000, 1.000000000000000000, 0.000000000000000000 ) ) ;
ENDSEC;
END-ISO-10303-21;
