ISO-10303-21;
HEADER;
FILE_DESCRIPTION (( 'STEP AP214' ),
    '1' );
FILE_NAME ('Micro_SHR-312-4X.STEP',
    '2021-09-02T08:45:46',
    ( '' ),
    ( '' ),
    'SwSTEP 2.0',
    'SolidWorks 2020',
    '' );
FILE_SCHEMA (( 'AUTOMOTIVE_DESIGN' ));
ENDSEC;

DATA;
#1 = ADVANCED_FACE ( 'NONE', ( #251 ), #134, .T. ) ;
#2 = FACE_OUTER_BOUND ( 'NONE', #199, .T. ) ;
#3 = ORIENTED_EDGE ( 'NONE', *, *, #264, .F. ) ;
#4 = MECHANICAL_DESIGN_GEOMETRIC_PRESENTATION_REPRESENTATION (  '', ( #229 ), #200 ) ;
#5 = LINE ( 'NONE', #268, #11 ) ;
#6 = PLANE ( 'NONE',  #78 ) ;
#7 = CARTESIAN_POINT ( 'NONE',  ( 0.1412499999999994871, 1.821662113731684786E-17, 2.500000000000000000 ) ) ;
#8 = COLOUR_RGB ( '',0.7921568627450980005, 0.8196078431372548767, 0.9333333333333333481 ) ;
#9 = DIRECTION ( 'NONE',  ( -0.0000000000000000000, -0.0000000000000000000, -1.000000000000000000 ) ) ;
#10 = CARTESIAN_POINT ( 'NONE',  ( 0.0000000000000000000, 0.0000000000000000000, 0.0000000000000000000 ) ) ;
#11 = VECTOR ( 'NONE', #217, 39.37007874015748143 ) ;
#12 = DIRECTION ( 'NONE',  ( -1.224646799147353207E-16, -0.0000000000000000000, -1.000000000000000000 ) ) ;
#13 = EDGE_LOOP ( 'NONE', ( #128, #85, #60, #41 ) ) ;
#14 = DIRECTION ( 'NONE',  ( -1.000000000000000000, 0.0000000000000000000, 1.224646799147353207E-16 ) ) ;
#15 = VERTEX_POINT ( 'NONE', #278 ) ;
#16 = CIRCLE ( 'NONE', #47, 0.1560937499999999478 ) ;
#17 = LINE ( 'NONE', #291, #51 ) ;
#18 = ADVANCED_FACE ( 'NONE', ( #2 ), #6, .T. ) ;
#19 = EDGE_LOOP ( 'NONE', ( #297, #21, #228, #292 ) ) ;
#20 = ORIENTED_EDGE ( 'NONE', *, *, #55, .F. ) ;
#21 = ORIENTED_EDGE ( 'NONE', *, *, #170, .T. ) ;
#22 = VECTOR ( 'NONE', #12, 39.37007874015748143 ) ;
#23 = DIRECTION ( 'NONE',  ( 1.000000000000000000, 0.0000000000000000000, 0.0000000000000000000 ) ) ;
#24 = DIRECTION ( 'NONE',  ( -1.224646799147353207E-16, -0.0000000000000000000, -1.000000000000000000 ) ) ;
#25 = DIRECTION ( 'NONE',  ( 0.0000000000000000000, 0.0000000000000000000, -1.000000000000000000 ) ) ;
#26 = CONICAL_SURFACE ( 'NONE', #254, 0.1560937499999999478, 0.1745329251994338915 ) ;
#27 = DIRECTION ( 'NONE',  ( 0.0000000000000000000, 0.0000000000000000000, 1.000000000000000000 ) ) ;
#28 = EDGE_CURVE ( 'NONE', #246, #116, #144, .T. ) ;
#29 = LENGTH_MEASURE_WITH_UNIT ( LENGTH_MEASURE( 0.02539999999999999897 ), #289 );
#30 =( NAMED_UNIT ( * ) SI_UNIT ( $, .STERADIAN. ) SOLID_ANGLE_UNIT ( ) );
#31 = CYLINDRICAL_SURFACE ( 'NONE', #269, 0.1560937499999999478 ) ;
#32 = CARTESIAN_POINT ( 'NONE',  ( -0.1562500000000000000, 0.0000000000000000000, 2.484999999999999432 ) ) ;
#33 = AXIS2_PLACEMENT_3D ( 'NONE', #168, #207, #108 ) ;
#34 = DIRECTION ( 'NONE',  ( 1.000000000000000000, 0.0000000000000000000, 0.0000000000000000000 ) ) ;
#35 = VERTEX_POINT ( 'NONE', #167 ) ;
#36 = COLOUR_RGB ( '',0.7921568627450980005, 0.8196078431372548767, 0.9333333333333333481 ) ;
#37 = EDGE_CURVE ( 'NONE', #86, #202, #117, .T. ) ;
#38 = ORIENTED_EDGE ( 'NONE', *, *, #52, .F. ) ;
#39 = DIRECTION ( 'NONE',  ( 1.000000000000000000, 0.0000000000000000000, 0.0000000000000000000 ) ) ;
#40 = VECTOR ( 'NONE', #149, 39.37007874015748143 ) ;
#41 = ORIENTED_EDGE ( 'NONE', *, *, #175, .F. ) ;
#42 = EDGE_CURVE ( 'NONE', #202, #57, #166, .T. ) ;
#43 = DIRECTION ( 'NONE',  ( 1.000000000000000000, 0.0000000000000000000, 0.0000000000000000000 ) ) ;
#44 = DIRECTION ( 'NONE',  ( 1.000000000000000000, 0.0000000000000000000, 0.0000000000000000000 ) ) ;
#45 = ORIENTED_EDGE ( 'NONE', *, *, #247, .T. ) ;
#46 = ORIENTED_EDGE ( 'NONE', *, *, #170, .F. ) ;
#47 = AXIS2_PLACEMENT_3D ( 'NONE', #241, #70, #238 ) ;
#48 = DIRECTION ( 'NONE',  ( -1.224646799147353207E-16, -0.0000000000000000000, -1.000000000000000000 ) ) ;
#49 = CARTESIAN_POINT ( 'NONE',  ( 0.1560937499999999478, 1.911597113044071073E-17, -1.911597113044071073E-17 ) ) ;
#50 = CARTESIAN_POINT ( 'NONE',  ( 0.0000000000000000000, 0.0000000000000000000, 2.500000000000000000 ) ) ;
#51 = VECTOR ( 'NONE', #293, 39.37007874015748854 ) ;
#52 = EDGE_CURVE ( 'NONE', #202, #86, #102, .T. ) ;
#53 = DIRECTION ( 'NONE',  ( -1.000000000000000000, 0.0000000000000000000, 0.0000000000000000000 ) ) ;
#54 = DIRECTION ( 'NONE',  ( -1.000000000000000000, 0.0000000000000000000, 0.0000000000000000000 ) ) ;
#55 = EDGE_CURVE ( 'NONE', #202, #253, #114, .T. ) ;
#56 = AXIS2_PLACEMENT_3D ( 'NONE', #92, #24, #237 ) ;
#57 = VERTEX_POINT ( 'NONE', #191 ) ;
#58 = PRESENTATION_STYLE_ASSIGNMENT (( #156 ) ) ;
#59 = CIRCLE ( 'NONE', #205, 0.1412499999999994871 ) ;
#60 = ORIENTED_EDGE ( 'NONE', *, *, #55, .T. ) ;
#61 = ORIENTED_EDGE ( 'NONE', *, *, #152, .T. ) ;
#62 = EDGE_CURVE ( 'NONE', #116, #189, #298, .T. ) ;
#63 = CARTESIAN_POINT ( 'NONE',  ( 0.1560937500000000588, 0.0000000000000000000, 0.8129999999999999449 ) ) ;
#64 = VERTEX_POINT ( 'NONE', #66 ) ;
#65 = DIRECTION ( 'NONE',  ( -1.224646799147353207E-16, -0.0000000000000000000, -1.000000000000000000 ) ) ;
#66 = CARTESIAN_POINT ( 'NONE',  ( 0.1562500000000000000, 1.913510623667739463E-17, 2.484999999999999432 ) ) ;
#67 = PRODUCT_DEFINITION_CONTEXT ( 'detailed design', #183, 'design' ) ;
#68 = CARTESIAN_POINT ( 'NONE',  ( 9.967230535079635412E-17, 0.0000000000000000000, 0.8138861377843153999 ) ) ;
#69 = SURFACE_STYLE_FILL_AREA ( #74 ) ;
#70 = DIRECTION ( 'NONE',  ( -1.224646799147353207E-16, -0.0000000000000000000, -1.000000000000000000 ) ) ;
#71 = EDGE_CURVE ( 'NONE', #35, #57, #236, .T. ) ;
#72 = DIRECTION ( 'NONE',  ( -0.0000000000000000000, -0.0000000000000000000, -1.000000000000000000 ) ) ;
#73 = AXIS2_PLACEMENT_3D ( 'NONE', #163, #186, #39 ) ;
#74 = FILL_AREA_STYLE ('',( #91 ) ) ;
#75 = ADVANCED_FACE ( 'NONE', ( #282 ), #145, .T. ) ;
#76 = FACE_OUTER_BOUND ( 'NONE', #13, .T. ) ;
#77 = ORIENTED_EDGE ( 'NONE', *, *, #190, .F. ) ;
#78 = AXIS2_PLACEMENT_3D ( 'NONE', #146, #169, #133 ) ;
#79 =( GEOMETRIC_REPRESENTATION_CONTEXT ( 3 ) GLOBAL_UNCERTAINTY_ASSIGNED_CONTEXT ( ( #277 ) ) GLOBAL_UNIT_ASSIGNED_CONTEXT ( ( #80, #105, #154 ) ) REPRESENTATION_CONTEXT ( 'NONE', 'WORKASPACE' ) );
#80 =( CONVERSION_BASED_UNIT ( 'INCH', #227 ) LENGTH_UNIT ( ) NAMED_UNIT ( #162 ) );
#81 = ORIENTED_EDGE ( 'NONE', *, *, #126, .F. ) ;
#82 = FILL_AREA_STYLE ('',( #198 ) ) ;
#83 = EDGE_LOOP ( 'NONE', ( #99, #204, #77, #20 ) ) ;
#84 = ADVANCED_FACE ( 'NONE', ( #281 ), #276, .F. ) ;
#85 = ORIENTED_EDGE ( 'NONE', *, *, #37, .T. ) ;
#86 = VERTEX_POINT ( 'NONE', #63 ) ;
#87 = PRODUCT_RELATED_PRODUCT_CATEGORY ( 'part', '', ( #112 ) ) ;
#88 = DIRECTION ( 'NONE',  ( 0.0000000000000000000, 0.0000000000000000000, -1.000000000000000000 ) ) ;
#89 = CARTESIAN_POINT ( 'NONE',  ( 0.0000000000000000000, 0.0000000000000000000, 2.500000000000000000 ) ) ;
#90 = CARTESIAN_POINT ( 'NONE',  ( 0.0000000000000000000, 0.0000000000000000000, 0.0000000000000000000 ) ) ;
#91 = FILL_AREA_STYLE_COLOUR ( '', #8 ) ;
#92 = CARTESIAN_POINT ( 'NONE',  ( 9.956378477067980482E-17, 0.0000000000000000000, 0.8129999999999999449 ) ) ;
#93 = EDGE_LOOP ( 'NONE', ( #294, #248, #45, #295 ) ) ;
#94 = LINE ( 'NONE', #193, #255 ) ;
#95 = AXIS2_PLACEMENT_3D ( 'NONE', #258, #235, #208 ) ;
#96 = EDGE_CURVE ( 'NONE', #57, #35, #279, .T. ) ;
#97 = CIRCLE ( 'NONE', #273, 0.1562500000000000000 ) ;
#98 = CARTESIAN_POINT ( 'NONE',  ( 2.341031285748743172E-33, 0.0000000000000000000, 1.911597113044071073E-17 ) ) ;
#99 = ORIENTED_EDGE ( 'NONE', *, *, #52, .T. ) ;
#100 = ADVANCED_BREP_SHAPE_REPRESENTATION ( 'Micro_SHR-312-4X', ( #137, #33 ), #79 ) ;
#101 = ORIENTED_EDGE ( 'NONE', *, *, #284, .F. ) ;
#102 = CIRCLE ( 'NONE', #95, 0.1560937499999999478 ) ;
#103 = ORIENTED_EDGE ( 'NONE', *, *, #130, .F. ) ;
#104 = CYLINDRICAL_SURFACE ( 'NONE', #119, 0.1560937499999999478 ) ;
#105 =( NAMED_UNIT ( * ) PLANE_ANGLE_UNIT ( ) SI_UNIT ( $, .RADIAN. ) );
#106 = CARTESIAN_POINT ( 'NONE',  ( 9.956378477067980482E-17, 0.0000000000000000000, 0.8129999999999999449 ) ) ;
#107 = DIRECTION ( 'NONE',  ( 0.0000000000000000000, 0.0000000000000000000, 1.000000000000000000 ) ) ;
#108 = DIRECTION ( 'NONE',  ( 1.000000000000000000, 0.0000000000000000000, 0.0000000000000000000 ) ) ;
#109 = DIRECTION ( 'NONE',  ( 1.224646799147353207E-16, 0.0000000000000000000, 1.000000000000000000 ) ) ;
#110 = PRESENTATION_LAYER_ASSIGNMENT (  '', '', ( #229 ) ) ;
#111 = EDGE_LOOP ( 'NONE', ( #46, #283, #61, #187 ) ) ;
#112 = PRODUCT ( 'Micro_SHR-312-4X', 'Micro_SHR-312-4X', '', ( #113 ) ) ;
#113 = PRODUCT_CONTEXT ( 'NONE', #173, 'mechanical' ) ;
#114 = LINE ( 'NONE', #138, #179 ) ;
#115 = DIRECTION ( 'NONE',  ( 1.224646799147353207E-16, 0.0000000000000000000, 1.000000000000000000 ) ) ;
#116 = VERTEX_POINT ( 'NONE', #231 ) ;
#117 = CIRCLE ( 'NONE', #56, 0.1560937499999999478 ) ;
#118 = LINE ( 'NONE', #148, #40 ) ;
#119 = AXIS2_PLACEMENT_3D ( 'NONE', #203, #201, #14 ) ;
#120 = DIRECTION ( 'NONE',  ( 1.000000000000000000, 0.0000000000000000000, 0.0000000000000000000 ) ) ;
#121 = CYLINDRICAL_SURFACE ( 'NONE', #192, 0.1562500000000000000 ) ;
#122 = PRESENTATION_STYLE_ASSIGNMENT (( #239 ) ) ;
#123 = APPLICATION_PROTOCOL_DEFINITION ( 'draft international standard', 'automotive_design', 1998, #173 ) ;
#124 =( LENGTH_UNIT ( ) NAMED_UNIT ( * ) SI_UNIT ( $, .METRE. ) );
#125 = ORIENTED_EDGE ( 'NONE', *, *, #126, .T. ) ;
#126 = EDGE_CURVE ( 'NONE', #116, #246, #59, .T. ) ;
#127 = MECHANICAL_DESIGN_GEOMETRIC_PRESENTATION_REPRESENTATION (  '', ( #135 ), #159 ) ;
#128 = ORIENTED_EDGE ( 'NONE', *, *, #139, .F. ) ;
#129 = DIRECTION ( 'NONE',  ( 0.0000000000000000000, 0.0000000000000000000, -1.000000000000000000 ) ) ;
#130 = EDGE_CURVE ( 'NONE', #189, #64, #97, .T. ) ;
#131 = DIMENSIONAL_EXPONENTS ( 1.000000000000000000, 0.0000000000000000000, 0.0000000000000000000, 0.0000000000000000000, 0.0000000000000000000, 0.0000000000000000000, 0.0000000000000000000 ) ;
#132 =( NAMED_UNIT ( * ) PLANE_ANGLE_UNIT ( ) SI_UNIT ( $, .RADIAN. ) );
#133 = DIRECTION ( 'NONE',  ( 1.000000000000000000, 0.0000000000000000000, -0.0000000000000000000 ) ) ;
#134 = CONICAL_SURFACE ( 'NONE', #215, 0.1560937499999999478, 0.1745329251994338915 ) ;
#135 = STYLED_ITEM ( 'NONE', ( #122 ), #137 ) ;
#136 = CARTESIAN_POINT ( 'NONE',  ( -0.1412499999999994871, 0.0000000000000000000, 2.500000000000000000 ) ) ;
#137 = MANIFOLD_SOLID_BREP ( 'Cut-Revolve1', #153 ) ;
#138 = CARTESIAN_POINT ( 'NONE',  ( -0.1560937499999999478, 0.0000000000000000000, 1.911597113044071073E-17 ) ) ;
#139 = EDGE_CURVE ( 'NONE', #86, #15, #287, .T. ) ;
#140 =( NAMED_UNIT ( * ) SI_UNIT ( $, .STERADIAN. ) SOLID_ANGLE_UNIT ( ) );
#141 = CARTESIAN_POINT ( 'NONE',  ( 0.0000000000000000000, 0.0000000000000000000, 2.484999999999999432 ) ) ;
#142 = ORIENTED_EDGE ( 'NONE', *, *, #28, .T. ) ;
#143 = SHAPE_DEFINITION_REPRESENTATION ( #230, #100 ) ;
#144 = CIRCLE ( 'NONE', #252, 0.1412499999999994871 ) ;
#145 = CONICAL_SURFACE ( 'NONE', #216, 0.1412499999999994871, 0.7853981633974391752 ) ;
#146 = CARTESIAN_POINT ( 'NONE',  ( 0.0000000000000000000, 0.0000000000000000000, 2.500000000000000000 ) ) ;
#147 = CARTESIAN_POINT ( 'NONE',  ( 0.0000000000000000000, 0.0000000000000000000, 2.500000000000000000 ) ) ;
#148 = CARTESIAN_POINT ( 'NONE',  ( 0.1562500000000000000, 1.913510623667739463E-17, 2.500000000000000000 ) ) ;
#149 = DIRECTION ( 'NONE',  ( -0.0000000000000000000, -0.0000000000000000000, -1.000000000000000000 ) ) ;
#150 = AXIS2_PLACEMENT_3D ( 'NONE', #90, #27, #233 ) ;
#151 = FACE_OUTER_BOUND ( 'NONE', #19, .T. ) ;
#152 = EDGE_CURVE ( 'NONE', #189, #57, #5, .T. ) ;
#153 = CLOSED_SHELL ( 'NONE', ( #259, #1, #75, #220, #240, #18, #160, #225, #243, #84 ) ) ;
#154 =( NAMED_UNIT ( * ) SI_UNIT ( $, .STERADIAN. ) SOLID_ANGLE_UNIT ( ) );
#155 = ORIENTED_EDGE ( 'NONE', *, *, #62, .T. ) ;
#156 = SURFACE_STYLE_USAGE ( .BOTH. , #272 ) ;
#157 = FACE_OUTER_BOUND ( 'NONE', #83, .T. ) ;
#158 = DIMENSIONAL_EXPONENTS ( 1.000000000000000000, 0.0000000000000000000, 0.0000000000000000000, 0.0000000000000000000, 0.0000000000000000000, 0.0000000000000000000, 0.0000000000000000000 ) ;
#159 =( GEOMETRIC_REPRESENTATION_CONTEXT ( 3 ) GLOBAL_UNCERTAINTY_ASSIGNED_CONTEXT ( ( #232 ) ) GLOBAL_UNIT_ASSIGNED_CONTEXT ( ( #197, #195, #30 ) ) REPRESENTATION_CONTEXT ( 'NONE', 'WORKASPACE' ) );
#160 = ADVANCED_FACE ( 'NONE', ( #196 ), #180, .T. ) ;
#161 = ORIENTED_EDGE ( 'NONE', *, *, #42, .T. ) ;
#162 = DIMENSIONAL_EXPONENTS ( 1.000000000000000000, 0.0000000000000000000, 0.0000000000000000000, 0.0000000000000000000, 0.0000000000000000000, 0.0000000000000000000, 0.0000000000000000000 ) ;
#163 = CARTESIAN_POINT ( 'NONE',  ( 9.967230535079635412E-17, 0.0000000000000000000, 0.8138861377843153999 ) ) ;
#164 = VECTOR ( 'NONE', #206, 39.37007874015747433 ) ;
#165 = PRESENTATION_LAYER_ASSIGNMENT (  '', '', ( #135 ) ) ;
#166 = LINE ( 'NONE', #209, #164 ) ;
#167 = CARTESIAN_POINT ( 'NONE',  ( 0.1562500000000001110, 1.913510623667740388E-17, 0.8138861377843153999 ) ) ;
#168 = CARTESIAN_POINT ( 'NONE',  ( 0.0000000000000000000, 0.0000000000000000000, 0.0000000000000000000 ) ) ;
#169 = DIRECTION ( 'NONE',  ( 0.0000000000000000000, 0.0000000000000000000, 1.000000000000000000 ) ) ;
#170 = EDGE_CURVE ( 'NONE', #64, #35, #118, .T. ) ;
#171 = DIRECTION ( 'NONE',  ( 1.000000000000000000, 0.0000000000000000000, 0.0000000000000000000 ) ) ;
#172 = DIRECTION ( 'NONE',  ( 0.0000000000000000000, 0.0000000000000000000, -1.000000000000000000 ) ) ;
#173 = APPLICATION_CONTEXT ( 'automotive_design' ) ;
#174 = FACE_OUTER_BOUND ( 'NONE', #93, .T. ) ;
#175 = EDGE_CURVE ( 'NONE', #15, #253, #16, .T. ) ;
#176 = ORIENTED_EDGE ( 'NONE', *, *, #264, .T. ) ;
#177 = SURFACE_STYLE_FILL_AREA ( #82 ) ;
#178 = EDGE_LOOP ( 'NONE', ( #38, #161, #188, #261 ) ) ;
#179 = VECTOR ( 'NONE', #65, 39.37007874015748143 ) ;
#180 = CONICAL_SURFACE ( 'NONE', #224, 0.1412499999999994871, 0.7853981633974391752 ) ;
#181 = EDGE_LOOP ( 'NONE', ( #221, #176, #103, #223 ) ) ;
#182 = DIRECTION ( 'NONE',  ( -1.000000000000000000, 0.0000000000000000000, 0.0000000000000000000 ) ) ;
#183 = APPLICATION_CONTEXT ( 'automotive_design' ) ;
#184 = CARTESIAN_POINT ( 'NONE',  ( 0.0000000000000000000, 0.0000000000000000000, 2.500000000000000000 ) ) ;
#185 = AXIS2_PLACEMENT_3D ( 'NONE', #98, #194, #242 ) ;
#186 = DIRECTION ( 'NONE',  ( -1.224646799147353207E-16, -0.0000000000000000000, -1.000000000000000000 ) ) ;
#187 = ORIENTED_EDGE ( 'NONE', *, *, #71, .F. ) ;
#188 = ORIENTED_EDGE ( 'NONE', *, *, #96, .T. ) ;
#189 = VERTEX_POINT ( 'NONE', #32 ) ;
#190 = EDGE_CURVE ( 'NONE', #253, #15, #249, .T. ) ;
#191 = CARTESIAN_POINT ( 'NONE',  ( -0.1562499999999999167, 0.0000000000000000000, 0.8138861377843153999 ) ) ;
#192 = AXIS2_PLACEMENT_3D ( 'NONE', #219, #72, #265 ) ;
#193 = CARTESIAN_POINT ( 'NONE',  ( 0.1560937500000000588, 0.0000000000000000000, 0.8129999999999999449 ) ) ;
#194 = DIRECTION ( 'NONE',  ( -1.224646799147353207E-16, -0.0000000000000000000, -1.000000000000000000 ) ) ;
#195 =( NAMED_UNIT ( * ) PLANE_ANGLE_UNIT ( ) SI_UNIT ( $, .RADIAN. ) );
#196 = FACE_OUTER_BOUND ( 'NONE', #226, .T. ) ;
#197 =( CONVERSION_BASED_UNIT ( 'INCH', #29 ) LENGTH_UNIT ( ) NAMED_UNIT ( #131 ) );
#198 = FILL_AREA_STYLE_COLOUR ( '', #36 ) ;
#199 = EDGE_LOOP ( 'NONE', ( #125, #142 ) ) ;
#200 =( GEOMETRIC_REPRESENTATION_CONTEXT ( 3 ) GLOBAL_UNCERTAINTY_ASSIGNED_CONTEXT ( ( #210 ) ) GLOBAL_UNIT_ASSIGNED_CONTEXT ( ( #234, #132, #140 ) ) REPRESENTATION_CONTEXT ( 'NONE', 'WORKASPACE' ) );
#201 = DIRECTION ( 'NONE',  ( -1.224646799147353207E-16, -0.0000000000000000000, -1.000000000000000000 ) ) ;
#202 = VERTEX_POINT ( 'NONE', #286 ) ;
#203 = CARTESIAN_POINT ( 'NONE',  ( 0.0000000000000000000, 0.0000000000000000000, 0.0000000000000000000 ) ) ;
#204 = ORIENTED_EDGE ( 'NONE', *, *, #139, .T. ) ;
#205 = AXIS2_PLACEMENT_3D ( 'NONE', #89, #280, #44 ) ;
#206 = DIRECTION ( 'NONE',  ( -0.1736481776669311916, 2.126576849575783316E-17, 0.9848077530122080203 ) ) ;
#207 = DIRECTION ( 'NONE',  ( 0.0000000000000000000, 0.0000000000000000000, 1.000000000000000000 ) ) ;
#208 = DIRECTION ( 'NONE',  ( -1.000000000000000000, 0.0000000000000000000, 0.0000000000000000000 ) ) ;
#209 = CARTESIAN_POINT ( 'NONE',  ( -0.1560937499999998368, 1.911597113044071073E-17, 0.8129999999999999449 ) ) ;
#210 = UNCERTAINTY_MEASURE_WITH_UNIT (LENGTH_MEASURE( 1.000000000000000082E-05 ), #234, 'distance_accuracy_value', 'NONE');
#211 = AXIS2_PLACEMENT_3D ( 'NONE', #68, #257, #23 ) ;
#212 = DIRECTION ( 'NONE',  ( 1.000000000000000000, 0.0000000000000000000, 0.0000000000000000000 ) ) ;
#213 = DIRECTION ( 'NONE',  ( -0.7071067811865410224, 0.0000000000000000000, -0.7071067811865539010 ) ) ;
#214 = DIRECTION ( 'NONE',  ( -1.000000000000000000, 0.0000000000000000000, 1.224646799147353207E-16 ) ) ;
#215 = AXIS2_PLACEMENT_3D ( 'NONE', #106, #109, #43 ) ;
#216 = AXIS2_PLACEMENT_3D ( 'NONE', #299, #88, #182 ) ;
#217 = DIRECTION ( 'NONE',  ( -0.0000000000000000000, -0.0000000000000000000, -1.000000000000000000 ) ) ;
#218 = CYLINDRICAL_SURFACE ( 'NONE', #262, 0.1562500000000000000 ) ;
#219 = CARTESIAN_POINT ( 'NONE',  ( 0.0000000000000000000, 0.0000000000000000000, 2.500000000000000000 ) ) ;
#220 = ADVANCED_FACE ( 'NONE', ( #151 ), #121, .T. ) ;
#221 = ORIENTED_EDGE ( 'NONE', *, *, #28, .F. ) ;
#222 = CARTESIAN_POINT ( 'NONE',  ( -0.1560937499999999478, 0.0000000000000000000, 3.823194226088142147E-17 ) ) ;
#223 = ORIENTED_EDGE ( 'NONE', *, *, #62, .F. ) ;
#224 = AXIS2_PLACEMENT_3D ( 'NONE', #147, #172, #54 ) ;
#225 = ADVANCED_FACE ( 'NONE', ( #174 ), #26, .T. ) ;
#226 = EDGE_LOOP ( 'NONE', ( #3, #81, #155, #101 ) ) ;
#227 = LENGTH_MEASURE_WITH_UNIT ( LENGTH_MEASURE( 0.02539999999999999897 ), #124 );
#228 = ORIENTED_EDGE ( 'NONE', *, *, #96, .F. ) ;
#229 = STYLED_ITEM ( 'NONE', ( #58 ), #100 ) ;
#230 = PRODUCT_DEFINITION_SHAPE ( 'NONE', 'NONE',  #250 ) ;
#231 = CARTESIAN_POINT ( 'NONE',  ( -0.1412499999999994871, 0.0000000000000000000, 2.500000000000000000 ) ) ;
#232 = UNCERTAINTY_MEASURE_WITH_UNIT (LENGTH_MEASURE( 1.000000000000000082E-05 ), #197, 'distance_accuracy_value', 'NONE');
#233 = DIRECTION ( 'NONE',  ( 1.000000000000000000, 0.0000000000000000000, -0.0000000000000000000 ) ) ;
#234 =( CONVERSION_BASED_UNIT ( 'INCH', #274 ) LENGTH_UNIT ( ) NAMED_UNIT ( #158 ) );
#235 = DIRECTION ( 'NONE',  ( -1.224646799147353207E-16, -0.0000000000000000000, -1.000000000000000000 ) ) ;
#236 = CIRCLE ( 'NONE', #211, 0.1562500000000000000 ) ;
#237 = DIRECTION ( 'NONE',  ( -1.000000000000000000, 0.0000000000000000000, 0.0000000000000000000 ) ) ;
#238 = DIRECTION ( 'NONE',  ( -1.000000000000000000, 0.0000000000000000000, 1.224646799147353207E-16 ) ) ;
#239 = SURFACE_STYLE_USAGE ( .BOTH. , #263 ) ;
#240 = ADVANCED_FACE ( 'NONE', ( #267 ), #218, .T. ) ;
#241 = CARTESIAN_POINT ( 'NONE',  ( 2.341031285748743172E-33, 0.0000000000000000000, 1.911597113044071073E-17 ) ) ;
#242 = DIRECTION ( 'NONE',  ( -1.000000000000000000, 0.0000000000000000000, 1.224646799147353207E-16 ) ) ;
#243 = ADVANCED_FACE ( 'NONE', ( #76 ), #31, .T. ) ;
#244 = CIRCLE ( 'NONE', #266, 0.1562500000000000000 ) ;
#245 = EDGE_LOOP ( 'NONE', ( #275, #270 ) ) ;
#246 = VERTEX_POINT ( 'NONE', #7 ) ;
#247 = EDGE_CURVE ( 'NONE', #86, #35, #94, .T. ) ;
#248 = ORIENTED_EDGE ( 'NONE', *, *, #37, .F. ) ;
#249 = CIRCLE ( 'NONE', #185, 0.1560937499999999478 ) ;
#250 = PRODUCT_DEFINITION ( 'UNKNOWN', '', #288, #67 ) ;
#251 = FACE_OUTER_BOUND ( 'NONE', #178, .T. ) ;
#252 = AXIS2_PLACEMENT_3D ( 'NONE', #184, #107, #171 ) ;
#253 = VERTEX_POINT ( 'NONE', #222 ) ;
#254 = AXIS2_PLACEMENT_3D ( 'NONE', #290, #115, #120 ) ;
#255 = VECTOR ( 'NONE', #285, 39.37007874015748143 ) ;
#256 =( LENGTH_UNIT ( ) NAMED_UNIT ( * ) SI_UNIT ( $, .METRE. ) );
#257 = DIRECTION ( 'NONE',  ( -1.224646799147353207E-16, -0.0000000000000000000, -1.000000000000000000 ) ) ;
#258 = CARTESIAN_POINT ( 'NONE',  ( 9.956378477067980482E-17, 0.0000000000000000000, 0.8129999999999999449 ) ) ;
#259 = ADVANCED_FACE ( 'NONE', ( #157 ), #104, .T. ) ;
#260 = APPLICATION_PROTOCOL_DEFINITION ( 'draft international standard', 'automotive_design', 1998, #183 ) ;
#261 = ORIENTED_EDGE ( 'NONE', *, *, #247, .F. ) ;
#262 = AXIS2_PLACEMENT_3D ( 'NONE', #50, #9, #53 ) ;
#263 = SURFACE_SIDE_STYLE ('',( #69 ) ) ;
#264 = EDGE_CURVE ( 'NONE', #246, #64, #17, .T. ) ;
#265 = DIRECTION ( 'NONE',  ( -1.000000000000000000, 0.0000000000000000000, 0.0000000000000000000 ) ) ;
#266 = AXIS2_PLACEMENT_3D ( 'NONE', #271, #129, #34 ) ;
#267 = FACE_OUTER_BOUND ( 'NONE', #111, .T. ) ;
#268 = CARTESIAN_POINT ( 'NONE',  ( -0.1562500000000000000, 0.0000000000000000000, 2.500000000000000000 ) ) ;
#269 = AXIS2_PLACEMENT_3D ( 'NONE', #10, #48, #214 ) ;
#270 = ORIENTED_EDGE ( 'NONE', *, *, #175, .T. ) ;
#271 = CARTESIAN_POINT ( 'NONE',  ( 0.0000000000000000000, 0.0000000000000000000, 2.484999999999999432 ) ) ;
#272 = SURFACE_SIDE_STYLE ('',( #177 ) ) ;
#273 = AXIS2_PLACEMENT_3D ( 'NONE', #141, #25, #212 ) ;
#274 = LENGTH_MEASURE_WITH_UNIT ( LENGTH_MEASURE( 0.02539999999999999897 ), #256 );
#275 = ORIENTED_EDGE ( 'NONE', *, *, #190, .T. ) ;
#276 = PLANE ( 'NONE',  #150 ) ;
#277 = UNCERTAINTY_MEASURE_WITH_UNIT (LENGTH_MEASURE( 1.000000000000000082E-05 ), #80, 'distance_accuracy_value', 'NONE');
#278 = CARTESIAN_POINT ( 'NONE',  ( 0.1560937499999999478, 1.911597113044071073E-17, 0.0000000000000000000 ) ) ;
#279 = CIRCLE ( 'NONE', #73, 0.1562500000000000000 ) ;
#280 = DIRECTION ( 'NONE',  ( 0.0000000000000000000, 0.0000000000000000000, 1.000000000000000000 ) ) ;
#281 = FACE_OUTER_BOUND ( 'NONE', #245, .T. ) ;
#282 = FACE_OUTER_BOUND ( 'NONE', #181, .T. ) ;
#283 = ORIENTED_EDGE ( 'NONE', *, *, #284, .T. ) ;
#284 = EDGE_CURVE ( 'NONE', #64, #189, #244, .T. ) ;
#285 = DIRECTION ( 'NONE',  ( 0.1736481776669313859, 0.0000000000000000000, 0.9848077530122077983 ) ) ;
#286 = CARTESIAN_POINT ( 'NONE',  ( -0.1560937499999998368, 1.912553868355905422E-17, 0.8129999999999999449 ) ) ;
#287 = LINE ( 'NONE', #49, #22 ) ;
#288 = PRODUCT_DEFINITION_FORMATION_WITH_SPECIFIED_SOURCE ( 'ANY', '', #112, .NOT_KNOWN. ) ;
#289 =( LENGTH_UNIT ( ) NAMED_UNIT ( * ) SI_UNIT ( $, .METRE. ) );
#290 = CARTESIAN_POINT ( 'NONE',  ( 9.956378477067980482E-17, 0.0000000000000000000, 0.8129999999999999449 ) ) ;
#291 = CARTESIAN_POINT ( 'NONE',  ( 0.1412499999999994871, 1.729813603795630110E-17, 2.500000000000000000 ) ) ;
#292 = ORIENTED_EDGE ( 'NONE', *, *, #152, .F. ) ;
#293 = DIRECTION ( 'NONE',  ( 0.7071067811865410224, 8.659560562354852739E-17, -0.7071067811865539010 ) ) ;
#294 = ORIENTED_EDGE ( 'NONE', *, *, #42, .F. ) ;
#295 = ORIENTED_EDGE ( 'NONE', *, *, #71, .T. ) ;
#296 = VECTOR ( 'NONE', #213, 39.37007874015748854 ) ;
#297 = ORIENTED_EDGE ( 'NONE', *, *, #130, .T. ) ;
#298 = LINE ( 'NONE', #136, #296 ) ;
#299 = CARTESIAN_POINT ( 'NONE',  ( 0.0000000000000000000, 0.0000000000000000000, 2.500000000000000000 ) ) ;
ENDSEC;
END-ISO-10303-21;
