ISO-10303-21;
HEADER;
FILE_DESCRIPTION (( 'STEP AP214' ),
    '1' );
FILE_NAME ('03257.STEP',
    '2023-06-22T15:05:50',
    ( '' ),
    ( '' ),
    'SwSTEP 2.0',
    'SolidWorks 2023',
    '' );
FILE_SCHEMA (( 'AUTOMOTIVE_DESIGN' ));
ENDSEC;

DATA;
#1 = SURFACE_STYLE_FILL_AREA ( #122 ) ;
#2 = VERTEX_POINT ( 'NONE', #131 ) ;
#3 = EDGE_CURVE ( 'NONE', #225, #301, #152, .T. ) ;
#4 =( NAMED_UNIT ( * ) PLANE_ANGLE_UNIT ( ) SI_UNIT ( $, .RADIAN. ) );
#5 = PRODUCT ( '03257', '03257', '', ( #129 ) ) ;
#6 = FACE_OUTER_BOUND ( 'NONE', #191, .T. ) ;
#7 = AXIS2_PLACEMENT_3D ( 'NONE', #223, #15, #282 ) ;
#8 = CARTESIAN_POINT ( 'NONE',  ( 0.000000000000000000, 0.000000000000000000, -0.1562500000000000000 ) ) ;
#9 = ORIENTED_EDGE ( 'NONE', *, *, #92, .F. ) ;
#10 = PRESENTATION_STYLE_ASSIGNMENT (( #158 ) ) ;
#11 = FACE_OUTER_BOUND ( 'NONE', #294, .T. ) ;
#12 = EDGE_CURVE ( 'NONE', #203, #110, #292, .T. ) ;
#13 = STYLED_ITEM ( 'NONE', ( #26 ), #108 ) ;
#14 = AXIS2_PLACEMENT_3D ( 'NONE', #105, #253, #130 ) ;
#15 = DIRECTION ( 'NONE',  ( -0.000000000000000000, -1.000000000000000000, -0.000000000000000000 ) ) ;
#16 = SURFACE_STYLE_FILL_AREA ( #112 ) ;
#17 = UNCERTAINTY_MEASURE_WITH_UNIT (LENGTH_MEASURE( 1.000000000000000082E-05 ), #144, 'distance_accuracy_value', 'NONE');
#18 = APPLICATION_CONTEXT ( 'automotive_design' ) ;
#19 = AXIS2_PLACEMENT_3D ( 'NONE', #25, #169, #119 ) ;
#20 =( LENGTH_UNIT ( ) NAMED_UNIT ( * ) SI_UNIT ( $, .METRE. ) );
#21 = ADVANCED_FACE ( 'NONE', ( #103 ), #184, .F. ) ;
#22 = FILL_AREA_STYLE ('',( #149 ) ) ;
#23 = DIRECTION ( 'NONE',  ( -3.628583108584750472E-17, 1.000000000000000000, -0.000000000000000000 ) ) ;
#24 = AXIS2_PLACEMENT_3D ( 'NONE', #251, #278, #134 ) ;
#25 = CARTESIAN_POINT ( 'NONE',  ( -6.123233995736766036E-17, 2.500000000000000000, 0.000000000000000000 ) ) ;
#26 = PRESENTATION_STYLE_ASSIGNMENT (( #228 ) ) ;
#27 =( LENGTH_UNIT ( ) NAMED_UNIT ( * ) SI_UNIT ( $, .METRE. ) );
#28 = PRODUCT_RELATED_PRODUCT_CATEGORY ( 'part', '', ( #5 ) ) ;
#29 = VERTEX_POINT ( 'NONE', #241 ) ;
#30 = PRODUCT_DEFINITION_CONTEXT ( 'detailed design', #18, 'design' ) ;
#31 = STYLED_ITEM ( 'NONE', ( #10 ), #111 ) ;
#32 =( GEOMETRIC_REPRESENTATION_CONTEXT ( 3 ) GLOBAL_UNCERTAINTY_ASSIGNED_CONTEXT ( ( #173 ) ) GLOBAL_UNIT_ASSIGNED_CONTEXT ( ( #270, #4, #171 ) ) REPRESENTATION_CONTEXT ( 'NONE', 'WORKASPACE' ) );
#33 =( NAMED_UNIT ( * ) SI_UNIT ( $, .STERADIAN. ) SOLID_ANGLE_UNIT ( ) );
#34 = FILL_AREA_STYLE ('',( #296 ) ) ;
#35 = MECHANICAL_DESIGN_GEOMETRIC_PRESENTATION_REPRESENTATION (  '', ( #13 ), #83 ) ;
#36 =( NAMED_UNIT ( * ) PLANE_ANGLE_UNIT ( ) SI_UNIT ( $, .RADIAN. ) );
#37 = STYLED_ITEM ( 'NONE', ( #100 ), #86 ) ;
#38 = COLOUR_RGB ( '',0.7921568627450980005, 0.8196078431372548767, 0.9333333333333333481 ) ;
#39 = EDGE_CURVE ( 'NONE', #157, #301, #274, .T. ) ;
#40 = ORIENTED_EDGE ( 'NONE', *, *, #3, .T. ) ;
#41 = LINE ( 'NONE', #136, #300 ) ;
#42 =( CONVERSION_BASED_UNIT ( 'INCH', #74 ) LENGTH_UNIT ( ) NAMED_UNIT ( #179 ) );
#43 = ORIENTED_EDGE ( 'NONE', *, *, #3, .F. ) ;
#44 = FACE_OUTER_BOUND ( 'NONE', #67, .T. ) ;
#45 =( GEOMETRIC_REPRESENTATION_CONTEXT ( 3 ) GLOBAL_UNCERTAINTY_ASSIGNED_CONTEXT ( ( #291 ) ) GLOBAL_UNIT_ASSIGNED_CONTEXT ( ( #290, #153, #33 ) ) REPRESENTATION_CONTEXT ( 'NONE', 'WORKASPACE' ) );
#46 = MECHANICAL_DESIGN_GEOMETRIC_PRESENTATION_REPRESENTATION (  '', ( #189 ), #227 ) ;
#47 = VECTOR ( 'NONE', #280, 39.37007874015748143 ) ;
#48 = PLANE ( 'NONE',  #113 ) ;
#49 = CARTESIAN_POINT ( 'NONE',  ( -6.123233995736766036E-17, 2.500000000000000000, 0.000000000000000000 ) ) ;
#50 = PRODUCT_DEFINITION ( 'UNKNOWN', '', #304, #30 ) ;
#51 = DIRECTION ( 'NONE',  ( 0.000000000000000000, -0.000000000000000000, 1.000000000000000000 ) ) ;
#52 = FACE_OUTER_BOUND ( 'NONE', #264, .T. ) ;
#53 = AXIS2_PLACEMENT_3D ( 'NONE', #72, #302, #90 ) ;
#54 =( NAMED_UNIT ( * ) SI_UNIT ( $, .STERADIAN. ) SOLID_ANGLE_UNIT ( ) );
#55 = DIRECTION ( 'NONE',  ( -1.000000000000000000, 0.000000000000000000, 0.000000000000000000 ) ) ;
#56 = DIRECTION ( 'NONE',  ( 0.000000000000000000, 0.000000000000000000, -1.000000000000000000 ) ) ;
#57 = CARTESIAN_POINT ( 'NONE',  ( 0.000000000000000000, 0.000000000000000000, 0.000000000000000000 ) ) ;
#58 = COLOUR_RGB ( '',1.000000000000000000, 0.000000000000000000, 0.000000000000000000 ) ;
#59 = DIRECTION ( 'NONE',  ( -3.628583108584750472E-17, 1.000000000000000000, -0.000000000000000000 ) ) ;
#60 = ORIENTED_EDGE ( 'NONE', *, *, #12, .F. ) ;
#61 = EDGE_CURVE ( 'NONE', #301, #157, #246, .T. ) ;
#62 = COLOUR_RGB ( '',1.000000000000000000, 0.000000000000000000, 0.000000000000000000 ) ;
#63 = ORIENTED_EDGE ( 'NONE', *, *, #308, .T. ) ;
#64 = LENGTH_MEASURE_WITH_UNIT ( LENGTH_MEASURE( 0.02539999999999999897 ), #255 );
#65 = AXIS2_PLACEMENT_3D ( 'NONE', #145, #284, #56 ) ;
#66 = ADVANCED_FACE ( 'NONE', ( #44 ), #305, .T. ) ;
#67 = EDGE_LOOP ( 'NONE', ( #70, #40, #254, #238 ) ) ;
#68 = CARTESIAN_POINT ( 'NONE',  ( 1.028641826242700895E-34, 0.8125000000000000000, 0.000000000000000000 ) ) ;
#69 = DIRECTION ( 'NONE',  ( -0.000000000000000000, -1.000000000000000000, -0.000000000000000000 ) ) ;
#70 = ORIENTED_EDGE ( 'NONE', *, *, #261, .T. ) ;
#71 = SURFACE_STYLE_USAGE ( .BOTH. , #167 ) ;
#72 = CARTESIAN_POINT ( 'NONE',  ( 0.000000000000000000, 0.000000000000000000, 0.000000000000000000 ) ) ;
#73 = DIMENSIONAL_EXPONENTS ( 1.000000000000000000, 0.000000000000000000, 0.000000000000000000, 0.000000000000000000, 0.000000000000000000, 0.000000000000000000, 0.000000000000000000 ) ;
#74 = LENGTH_MEASURE_WITH_UNIT ( LENGTH_MEASURE( 0.02539999999999999897 ), #192 );
#75 =( NAMED_UNIT ( * ) PLANE_ANGLE_UNIT ( ) SI_UNIT ( $, .RADIAN. ) );
#76 = PRESENTATION_LAYER_ASSIGNMENT (  '', '', ( #299 ) ) ;
#77 = LENGTH_MEASURE_WITH_UNIT ( LENGTH_MEASURE( 0.02539999999999999897 ), #20 );
#78 = CIRCLE ( 'NONE', #19, 0.1562500000000000833 ) ;
#79 = PRESENTATION_LAYER_ASSIGNMENT (  '', '', ( #222 ) ) ;
#80 =( LENGTH_UNIT ( ) NAMED_UNIT ( * ) SI_UNIT ( $, .METRE. ) );
#81 = CARTESIAN_POINT ( 'NONE',  ( 0.1562499999999999722, 2.500000000000000000, 1.913510623667739771E-17 ) ) ;
#82 = ORIENTED_EDGE ( 'NONE', *, *, #92, .T. ) ;
#83 =( GEOMETRIC_REPRESENTATION_CONTEXT ( 3 ) GLOBAL_UNCERTAINTY_ASSIGNED_CONTEXT ( ( #126 ) ) GLOBAL_UNIT_ASSIGNED_CONTEXT ( ( #115, #98, #269 ) ) REPRESENTATION_CONTEXT ( 'NONE', 'WORKASPACE' ) );
#84 = CIRCLE ( 'NONE', #65, 0.1562500000000000000 ) ;
#85 = DIRECTION ( 'NONE',  ( -0.000000000000000000, -1.000000000000000000, -0.000000000000000000 ) ) ;
#86 = ADVANCED_FACE ( 'NONE', ( #121 ), #306, .T. ) ;
#87 = AXIS2_PLACEMENT_3D ( 'NONE', #147, #263, #247 ) ;
#88 = CARTESIAN_POINT ( 'NONE',  ( -0.1562500000000001110, 2.500000000000000000, 0.000000000000000000 ) ) ;
#89 = ORIENTED_EDGE ( 'NONE', *, *, #61, .T. ) ;
#90 = DIRECTION ( 'NONE',  ( 0.000000000000000000, 0.000000000000000000, -1.000000000000000000 ) ) ;
#91 =( GEOMETRIC_REPRESENTATION_CONTEXT ( 3 ) GLOBAL_UNCERTAINTY_ASSIGNED_CONTEXT ( ( #229 ) ) GLOBAL_UNIT_ASSIGNED_CONTEXT ( ( #42, #303, #54 ) ) REPRESENTATION_CONTEXT ( 'NONE', 'WORKASPACE' ) );
#92 = EDGE_CURVE ( 'NONE', #2, #271, #78, .T. ) ;
#93 = VECTOR ( 'NONE', #69, 39.37007874015748143 ) ;
#94 = AXIS2_PLACEMENT_3D ( 'NONE', #49, #177, #55 ) ;
#95 = FILL_AREA_STYLE_COLOUR ( '', #262 ) ;
#96 =( CONVERSION_BASED_UNIT ( 'INCH', #249 ) LENGTH_UNIT ( ) NAMED_UNIT ( #250 ) );
#97 = DIRECTION ( 'NONE',  ( 0.000000000000000000, 0.000000000000000000, -1.000000000000000000 ) ) ;
#98 =( NAMED_UNIT ( * ) PLANE_ANGLE_UNIT ( ) SI_UNIT ( $, .RADIAN. ) );
#99 = CARTESIAN_POINT ( 'NONE',  ( 0.000000000000000000, 0.8125000000000001110, 0.000000000000000000 ) ) ;
#100 = PRESENTATION_STYLE_ASSIGNMENT (( #309 ) ) ;
#101 =( CONVERSION_BASED_UNIT ( 'INCH', #64 ) LENGTH_UNIT ( ) NAMED_UNIT ( #234 ) );
#102 = ADVANCED_FACE ( 'NONE', ( #286 ), #230, .T. ) ;
#103 = FACE_OUTER_BOUND ( 'NONE', #127, .T. ) ;
#104 = PRESENTATION_LAYER_ASSIGNMENT (  '', '', ( #31 ) ) ;
#105 = CARTESIAN_POINT ( 'NONE',  ( 0.000000000000000000, 0.000000000000000000, 0.000000000000000000 ) ) ;
#106 = SURFACE_STYLE_FILL_AREA ( #34 ) ;
#107 = DIRECTION ( 'NONE',  ( 0.000000000000000000, -1.000000000000000000, -0.000000000000000000 ) ) ;
#108 = MANIFOLD_SOLID_BREP ( 'Revolve - Tool Body (Straight Shanked)', #215 ) ;
#109 = PRESENTATION_LAYER_ASSIGNMENT (  '', '', ( #37 ) ) ;
#110 = VERTEX_POINT ( 'NONE', #210 ) ;
#111 = ADVANCED_FACE ( 'NONE', ( #6 ), #48, .T. ) ;
#112 = FILL_AREA_STYLE ('',( #283 ) ) ;
#113 = AXIS2_PLACEMENT_3D ( 'NONE', #57, #107, #211 ) ;
#114 = EDGE_CURVE ( 'NONE', #271, #2, #259, .T. ) ;
#115 =( CONVERSION_BASED_UNIT ( 'INCH', #77 ) LENGTH_UNIT ( ) NAMED_UNIT ( #204 ) );
#116 = CARTESIAN_POINT ( 'NONE',  ( 1.913510623667739463E-17, 0.000000000000000000, 0.1562500000000000000 ) ) ;
#117 = SURFACE_SIDE_STYLE ('',( #198 ) ) ;
#118 =( NAMED_UNIT ( * ) SI_UNIT ( $, .STERADIAN. ) SOLID_ANGLE_UNIT ( ) );
#119 = DIRECTION ( 'NONE',  ( -1.000000000000000000, 0.000000000000000000, 0.000000000000000000 ) ) ;
#120 = CARTESIAN_POINT ( 'NONE',  ( 1.913510623667739463E-17, 0.8125000000000000000, 0.1562500000000000000 ) ) ;
#121 = FACE_OUTER_BOUND ( 'NONE', #185, .T. ) ;
#122 = FILL_AREA_STYLE ('',( #197 ) ) ;
#123 = DIRECTION ( 'NONE',  ( 0.000000000000000000, 0.000000000000000000, -1.000000000000000000 ) ) ;
#124 = APPLICATION_CONTEXT ( 'automotive_design' ) ;
#125 = SURFACE_STYLE_USAGE ( .BOTH. , #181 ) ;
#126 = UNCERTAINTY_MEASURE_WITH_UNIT (LENGTH_MEASURE( 1.000000000000000082E-05 ), #115, 'distance_accuracy_value', 'NONE');
#127 = EDGE_LOOP ( 'NONE', ( #82, #175 ) ) ;
#128 = FACE_OUTER_BOUND ( 'NONE', #212, .T. ) ;
#129 = PRODUCT_CONTEXT ( 'NONE', #124, 'mechanical' ) ;
#130 = DIRECTION ( 'NONE',  ( 1.000000000000000000, 0.000000000000000000, 0.000000000000000000 ) ) ;
#131 = CARTESIAN_POINT ( 'NONE',  ( -0.1562500000000001388, 2.500000000000000000, 0.000000000000000000 ) ) ;
#132 = AXIS2_PLACEMENT_3D ( 'NONE', #266, #232, #123 ) ;
#133 = CIRCLE ( 'NONE', #166, 0.1562500000000000000 ) ;
#134 = DIRECTION ( 'NONE',  ( -1.000000000000000000, 0.000000000000000000, 0.000000000000000000 ) ) ;
#135 = ORIENTED_EDGE ( 'NONE', *, *, #114, .F. ) ;
#136 = CARTESIAN_POINT ( 'NONE',  ( 0.000000000000000000, 0.000000000000000000, -0.1562500000000000000 ) ) ;
#137 = MECHANICAL_DESIGN_GEOMETRIC_PRESENTATION_REPRESENTATION (  '', ( #37 ), #220 ) ;
#138 = ORIENTED_EDGE ( 'NONE', *, *, #214, .F. ) ;
#139 = EDGE_CURVE ( 'NONE', #110, #271, #289, .T. ) ;
#140 = CLOSED_SHELL ( 'NONE', ( #66, #86, #151, #111 ) ) ;
#141 = DIMENSIONAL_EXPONENTS ( 1.000000000000000000, 0.000000000000000000, 0.000000000000000000, 0.000000000000000000, 0.000000000000000000, 0.000000000000000000, 0.000000000000000000 ) ;
#142 = SURFACE_SIDE_STYLE ('',( #244 ) ) ;
#143 = FILL_AREA_STYLE ('',( #95 ) ) ;
#144 =( CONVERSION_BASED_UNIT ( 'INCH', #196 ) LENGTH_UNIT ( ) NAMED_UNIT ( #243 ) );
#145 = CARTESIAN_POINT ( 'NONE',  ( 0.000000000000000000, 0.8125000000000000000, 0.000000000000000000 ) ) ;
#146 = AXIS2_PLACEMENT_3D ( 'NONE', #159, #162, #298 ) ;
#147 = CARTESIAN_POINT ( 'NONE',  ( -6.123233995736766036E-17, 2.500000000000000000, 0.000000000000000000 ) ) ;
#148 = SURFACE_SIDE_STYLE ('',( #1 ) ) ;
#149 = FILL_AREA_STYLE_COLOUR ( '', #160 ) ;
#150 = CYLINDRICAL_SURFACE ( 'NONE', #94, 0.1562500000000000278 ) ;
#151 = ADVANCED_FACE ( 'NONE', ( #128 ), #156, .T. ) ;
#152 = LINE ( 'NONE', #242, #93 ) ;
#153 =( NAMED_UNIT ( * ) PLANE_ANGLE_UNIT ( ) SI_UNIT ( $, .RADIAN. ) );
#154 = UNCERTAINTY_MEASURE_WITH_UNIT (LENGTH_MEASURE( 1.000000000000000082E-05 ), #101, 'distance_accuracy_value', 'NONE');
#155 = ORIENTED_EDGE ( 'NONE', *, *, #199, .T. ) ;
#156 = CYLINDRICAL_SURFACE ( 'NONE', #170, 0.1562500000000000000 ) ;
#157 = VERTEX_POINT ( 'NONE', #8 ) ;
#158 = SURFACE_STYLE_USAGE ( .BOTH. , #295 ) ;
#159 = CARTESIAN_POINT ( 'NONE',  ( 0.000000000000000000, 0.8125000000000001110, 0.000000000000000000 ) ) ;
#160 = COLOUR_RGB ( '',1.000000000000000000, 0.000000000000000000, 0.000000000000000000 ) ;
#161 = ORIENTED_EDGE ( 'NONE', *, *, #12, .T. ) ;
#162 = DIRECTION ( 'NONE',  ( -3.628583108584750472E-17, 1.000000000000000000, -0.000000000000000000 ) ) ;
#163 = LINE ( 'NONE', #88, #47 ) ;
#164 = EDGE_CURVE ( 'NONE', #29, #157, #41, .T. ) ;
#165 = MECHANICAL_DESIGN_GEOMETRIC_PRESENTATION_REPRESENTATION (  '', ( #31 ), #45 ) ;
#166 = AXIS2_PLACEMENT_3D ( 'NONE', #268, #287, #97 ) ;
#167 = SURFACE_SIDE_STYLE ('',( #16 ) ) ;
#168 = ORIENTED_EDGE ( 'NONE', *, *, #199, .F. ) ;
#169 = DIRECTION ( 'NONE',  ( -3.628583108584750472E-17, 1.000000000000000000, -0.000000000000000000 ) ) ;
#170 = AXIS2_PLACEMENT_3D ( 'NONE', #273, #85, #252 ) ;
#171 =( NAMED_UNIT ( * ) SI_UNIT ( $, .STERADIAN. ) SOLID_ANGLE_UNIT ( ) );
#172 =( NAMED_UNIT ( * ) SI_UNIT ( $, .STERADIAN. ) SOLID_ANGLE_UNIT ( ) );
#173 = UNCERTAINTY_MEASURE_WITH_UNIT (LENGTH_MEASURE( 1.000000000000000082E-05 ), #270, 'distance_accuracy_value', 'NONE');
#174 = APPLICATION_PROTOCOL_DEFINITION ( 'draft international standard', 'automotive_design', 1998, #124 ) ;
#175 = ORIENTED_EDGE ( 'NONE', *, *, #114, .T. ) ;
#176 = AXIS2_PLACEMENT_3D ( 'NONE', #265, #200, #51 ) ;
#177 = DIRECTION ( 'NONE',  ( -3.628583108584750472E-17, 1.000000000000000000, -0.000000000000000000 ) ) ;
#178 = ADVANCED_FACE ( 'NONE', ( #11 ), #213, .F. ) ;
#179 = DIMENSIONAL_EXPONENTS ( 1.000000000000000000, 0.000000000000000000, 0.000000000000000000, 0.000000000000000000, 0.000000000000000000, 0.000000000000000000, 0.000000000000000000 ) ;
#180 = ORIENTED_EDGE ( 'NONE', *, *, #164, .T. ) ;
#181 = SURFACE_SIDE_STYLE ('',( #277 ) ) ;
#182 = ADVANCED_BREP_SHAPE_REPRESENTATION ( '03257', ( #307, #108, #14 ), #32 ) ;
#183 = LENGTH_MEASURE_WITH_UNIT ( LENGTH_MEASURE( 0.02539999999999999897 ), #236 );
#184 = PLANE ( 'NONE',  #193 ) ;
#185 = EDGE_LOOP ( 'NONE', ( #206, #138 ) ) ;
#186 = PRESENTATION_STYLE_ASSIGNMENT (( #125 ) ) ;
#187 = PRODUCT_DEFINITION_SHAPE ( 'NONE', 'NONE',  #50 ) ;
#188 = FILL_AREA_STYLE_COLOUR ( '', #62 ) ;
#189 = STYLED_ITEM ( 'NONE', ( #186 ), #151 ) ;
#190 = CARTESIAN_POINT ( 'NONE',  ( -0.1562500000000000000, 0.8125000000000001110, 0.000000000000000000 ) ) ;
#191 = EDGE_LOOP ( 'NONE', ( #239, #89 ) ) ;
#192 =( LENGTH_UNIT ( ) NAMED_UNIT ( * ) SI_UNIT ( $, .METRE. ) );
#193 = AXIS2_PLACEMENT_3D ( 'NONE', #275, #194, #218 ) ;
#194 = DIRECTION ( 'NONE',  ( 3.628583108584750472E-17, -1.000000000000000000, 0.000000000000000000 ) ) ;
#195 = SURFACE_STYLE_USAGE ( .BOTH. , #148 ) ;
#196 = LENGTH_MEASURE_WITH_UNIT ( LENGTH_MEASURE( 0.02539999999999999897 ), #205 );
#197 = FILL_AREA_STYLE_COLOUR ( '', #38 ) ;
#198 = SURFACE_STYLE_FILL_AREA ( #22 ) ;
#199 = EDGE_CURVE ( 'NONE', #203, #2, #163, .T. ) ;
#200 = DIRECTION ( 'NONE',  ( 0.000000000000000000, 1.000000000000000000, 0.000000000000000000 ) ) ;
#201 = PRESENTATION_LAYER_ASSIGNMENT (  '', '', ( #13 ) ) ;
#202 = DIRECTION ( 'NONE',  ( -1.000000000000000000, 0.000000000000000000, 0.000000000000000000 ) ) ;
#203 = VERTEX_POINT ( 'NONE', #190 ) ;
#204 = DIMENSIONAL_EXPONENTS ( 1.000000000000000000, 0.000000000000000000, 0.000000000000000000, 0.000000000000000000, 0.000000000000000000, 0.000000000000000000, 0.000000000000000000 ) ;
#205 =( LENGTH_UNIT ( ) NAMED_UNIT ( * ) SI_UNIT ( $, .METRE. ) );
#206 = ORIENTED_EDGE ( 'NONE', *, *, #261, .F. ) ;
#207 =( NAMED_UNIT ( * ) SI_UNIT ( $, .STERADIAN. ) SOLID_ANGLE_UNIT ( ) );
#208 = PRESENTATION_LAYER_ASSIGNMENT (  '', '', ( #189 ) ) ;
#209 = ORIENTED_EDGE ( 'NONE', *, *, #139, .T. ) ;
#210 = CARTESIAN_POINT ( 'NONE',  ( 0.1562500000000000000, 0.8125000000000001110, 1.913510623667739771E-17 ) ) ;
#211 = DIRECTION ( 'NONE',  ( 0.000000000000000000, 0.000000000000000000, -1.000000000000000000 ) ) ;
#212 = EDGE_LOOP ( 'NONE', ( #43, #279, #180, #231 ) ) ;
#213 = PLANE ( 'NONE',  #267 ) ;
#214 = EDGE_CURVE ( 'NONE', #225, #29, #84, .T. ) ;
#215 = CLOSED_SHELL ( 'NONE', ( #102, #178, #272, #21 ) ) ;
#216 = CIRCLE ( 'NONE', #260, 0.1562500000000000000 ) ;
#217 = EDGE_LOOP ( 'NONE', ( #161, #209, #9, #168 ) ) ;
#218 = DIRECTION ( 'NONE',  ( 1.000000000000000000, 3.628583108584750472E-17, 0.000000000000000000 ) ) ;
#219 = PRESENTATION_STYLE_ASSIGNMENT (( #71 ) ) ;
#220 =( GEOMETRIC_REPRESENTATION_CONTEXT ( 3 ) GLOBAL_UNCERTAINTY_ASSIGNED_CONTEXT ( ( #17 ) ) GLOBAL_UNIT_ASSIGNED_CONTEXT ( ( #144, #75, #172 ) ) REPRESENTATION_CONTEXT ( 'NONE', 'WORKASPACE' ) );
#221 =( GEOMETRIC_REPRESENTATION_CONTEXT ( 3 ) GLOBAL_UNCERTAINTY_ASSIGNED_CONTEXT ( ( #224 ) ) GLOBAL_UNIT_ASSIGNED_CONTEXT ( ( #96, #233, #118 ) ) REPRESENTATION_CONTEXT ( 'NONE', 'WORKASPACE' ) );
#222 = STYLED_ITEM ( 'NONE', ( #248 ), #307 ) ;
#223 = CARTESIAN_POINT ( 'NONE',  ( 0.000000000000000000, 0.000000000000000000, 0.000000000000000000 ) ) ;
#224 = UNCERTAINTY_MEASURE_WITH_UNIT (LENGTH_MEASURE( 1.000000000000000082E-05 ), #96, 'distance_accuracy_value', 'NONE');
#225 = VERTEX_POINT ( 'NONE', #120 ) ;
#226 = MECHANICAL_DESIGN_GEOMETRIC_PRESENTATION_REPRESENTATION (  '', ( #299 ), #91 ) ;
#227 =( GEOMETRIC_REPRESENTATION_CONTEXT ( 3 ) GLOBAL_UNCERTAINTY_ASSIGNED_CONTEXT ( ( #154 ) ) GLOBAL_UNIT_ASSIGNED_CONTEXT ( ( #101, #36, #207 ) ) REPRESENTATION_CONTEXT ( 'NONE', 'WORKASPACE' ) );
#228 = SURFACE_STYLE_USAGE ( .BOTH. , #142 ) ;
#229 = UNCERTAINTY_MEASURE_WITH_UNIT (LENGTH_MEASURE( 1.000000000000000082E-05 ), #42, 'distance_accuracy_value', 'NONE');
#230 = CYLINDRICAL_SURFACE ( 'NONE', #87, 0.1562500000000000278 ) ;
#231 = ORIENTED_EDGE ( 'NONE', *, *, #61, .F. ) ;
#232 = DIRECTION ( 'NONE',  ( -0.000000000000000000, -1.000000000000000000, -0.000000000000000000 ) ) ;
#233 =( NAMED_UNIT ( * ) PLANE_ANGLE_UNIT ( ) SI_UNIT ( $, .RADIAN. ) );
#234 = DIMENSIONAL_EXPONENTS ( 1.000000000000000000, 0.000000000000000000, 0.000000000000000000, 0.000000000000000000, 0.000000000000000000, 0.000000000000000000, 0.000000000000000000 ) ;
#235 = FILL_AREA_STYLE ('',( #188 ) ) ;
#236 =( LENGTH_UNIT ( ) NAMED_UNIT ( * ) SI_UNIT ( $, .METRE. ) );
#237 = COLOUR_RGB ( '',1.000000000000000000, 0.000000000000000000, 0.000000000000000000 ) ;
#238 = ORIENTED_EDGE ( 'NONE', *, *, #164, .F. ) ;
#239 = ORIENTED_EDGE ( 'NONE', *, *, #39, .T. ) ;
#240 = DIRECTION ( 'NONE',  ( -0.000000000000000000, -1.000000000000000000, -0.000000000000000000 ) ) ;
#241 = CARTESIAN_POINT ( 'NONE',  ( 0.000000000000000000, 0.8125000000000000000, -0.1562500000000000000 ) ) ;
#242 = CARTESIAN_POINT ( 'NONE',  ( 1.913510623667739463E-17, 0.000000000000000000, 0.1562500000000000000 ) ) ;
#243 = DIMENSIONAL_EXPONENTS ( 1.000000000000000000, 0.000000000000000000, 0.000000000000000000, 0.000000000000000000, 0.000000000000000000, 0.000000000000000000, 0.000000000000000000 ) ;
#244 = SURFACE_STYLE_FILL_AREA ( #143 ) ;
#245 = CARTESIAN_POINT ( 'NONE',  ( 0.1562500000000000000, 2.500000000000000000, 1.913510623667739771E-17 ) ) ;
#246 = CIRCLE ( 'NONE', #53, 0.1562500000000000000 ) ;
#247 = DIRECTION ( 'NONE',  ( -1.000000000000000000, 0.000000000000000000, 0.000000000000000000 ) ) ;
#248 = PRESENTATION_STYLE_ASSIGNMENT (( #195 ) ) ;
#249 = LENGTH_MEASURE_WITH_UNIT ( LENGTH_MEASURE( 0.02539999999999999897 ), #27 );
#250 = DIMENSIONAL_EXPONENTS ( 1.000000000000000000, 0.000000000000000000, 0.000000000000000000, 0.000000000000000000, 0.000000000000000000, 0.000000000000000000, 0.000000000000000000 ) ;
#251 = CARTESIAN_POINT ( 'NONE',  ( -6.123233995736766036E-17, 2.500000000000000000, 0.000000000000000000 ) ) ;
#252 = DIRECTION ( 'NONE',  ( 0.000000000000000000, 0.000000000000000000, -1.000000000000000000 ) ) ;
#253 = DIRECTION ( 'NONE',  ( 0.000000000000000000, 0.000000000000000000, 1.000000000000000000 ) ) ;
#254 = ORIENTED_EDGE ( 'NONE', *, *, #39, .F. ) ;
#255 =( LENGTH_UNIT ( ) NAMED_UNIT ( * ) SI_UNIT ( $, .METRE. ) );
#256 = SHAPE_DEFINITION_REPRESENTATION ( #187, #182 ) ;
#257 = DIRECTION ( 'NONE',  ( -1.000000000000000000, -3.628583108584750472E-17, 0.000000000000000000 ) ) ;
#258 = ORIENTED_EDGE ( 'NONE', *, *, #308, .F. ) ;
#259 = CIRCLE ( 'NONE', #24, 0.1562500000000000833 ) ;
#260 = AXIS2_PLACEMENT_3D ( 'NONE', #99, #23, #202 ) ;
#261 = EDGE_CURVE ( 'NONE', #29, #225, #133, .T. ) ;
#262 = COLOUR_RGB ( '',0.7921568627450980005, 0.8196078431372548767, 0.9333333333333333481 ) ;
#263 = DIRECTION ( 'NONE',  ( -3.628583108584750472E-17, 1.000000000000000000, -0.000000000000000000 ) ) ;
#264 = EDGE_LOOP ( 'NONE', ( #281, #63, #155, #135 ) ) ;
#265 = CARTESIAN_POINT ( 'NONE',  ( 0.000000000000000000, 0.8125000000000000000, 0.000000000000000000 ) ) ;
#266 = CARTESIAN_POINT ( 'NONE',  ( 0.000000000000000000, 0.000000000000000000, 0.000000000000000000 ) ) ;
#267 = AXIS2_PLACEMENT_3D ( 'NONE', #68, #297, #257 ) ;
#268 = CARTESIAN_POINT ( 'NONE',  ( 0.000000000000000000, 0.8125000000000000000, 0.000000000000000000 ) ) ;
#269 =( NAMED_UNIT ( * ) SI_UNIT ( $, .STERADIAN. ) SOLID_ANGLE_UNIT ( ) );
#270 =( CONVERSION_BASED_UNIT ( 'INCH', #285 ) LENGTH_UNIT ( ) NAMED_UNIT ( #73 ) );
#271 = VERTEX_POINT ( 'NONE', #245 ) ;
#272 = ADVANCED_FACE ( 'NONE', ( #52 ), #150, .T. ) ;
#273 = CARTESIAN_POINT ( 'NONE',  ( 0.000000000000000000, 0.000000000000000000, 0.000000000000000000 ) ) ;
#274 = CIRCLE ( 'NONE', #7, 0.1562500000000000000 ) ;
#275 = CARTESIAN_POINT ( 'NONE',  ( 0.1562500000000000000, 2.500000000000000000, 0.000000000000000000 ) ) ;
#276 = MECHANICAL_DESIGN_GEOMETRIC_PRESENTATION_REPRESENTATION (  '', ( #222 ), #221 ) ;
#277 = SURFACE_STYLE_FILL_AREA ( #235 ) ;
#278 = DIRECTION ( 'NONE',  ( -3.628583108584750472E-17, 1.000000000000000000, -0.000000000000000000 ) ) ;
#279 = ORIENTED_EDGE ( 'NONE', *, *, #214, .T. ) ;
#280 = DIRECTION ( 'NONE',  ( -3.628583108584750472E-17, 1.000000000000000000, -0.000000000000000000 ) ) ;
#281 = ORIENTED_EDGE ( 'NONE', *, *, #139, .F. ) ;
#282 = DIRECTION ( 'NONE',  ( 0.000000000000000000, 0.000000000000000000, -1.000000000000000000 ) ) ;
#283 = FILL_AREA_STYLE_COLOUR ( '', #237 ) ;
#284 = DIRECTION ( 'NONE',  ( -0.000000000000000000, -1.000000000000000000, -0.000000000000000000 ) ) ;
#285 = LENGTH_MEASURE_WITH_UNIT ( LENGTH_MEASURE( 0.02539999999999999897 ), #80 );
#286 = FACE_OUTER_BOUND ( 'NONE', #217, .T. ) ;
#287 = DIRECTION ( 'NONE',  ( -0.000000000000000000, -1.000000000000000000, -0.000000000000000000 ) ) ;
#288 = VECTOR ( 'NONE', #59, 39.37007874015748143 ) ;
#289 = LINE ( 'NONE', #81, #288 ) ;
#290 =( CONVERSION_BASED_UNIT ( 'INCH', #183 ) LENGTH_UNIT ( ) NAMED_UNIT ( #141 ) );
#291 = UNCERTAINTY_MEASURE_WITH_UNIT (LENGTH_MEASURE( 1.000000000000000082E-05 ), #290, 'distance_accuracy_value', 'NONE');
#292 = CIRCLE ( 'NONE', #146, 0.1562500000000000000 ) ;
#293 = APPLICATION_PROTOCOL_DEFINITION ( 'draft international standard', 'automotive_design', 1998, #18 ) ;
#294 = EDGE_LOOP ( 'NONE', ( #60, #258 ) ) ;
#295 = SURFACE_SIDE_STYLE ('',( #106 ) ) ;
#296 = FILL_AREA_STYLE_COLOUR ( '', #58 ) ;
#297 = DIRECTION ( 'NONE',  ( -3.628583108584750472E-17, 1.000000000000000000, 0.000000000000000000 ) ) ;
#298 = DIRECTION ( 'NONE',  ( -1.000000000000000000, 0.000000000000000000, 0.000000000000000000 ) ) ;
#299 = STYLED_ITEM ( 'NONE', ( #219 ), #66 ) ;
#300 = VECTOR ( 'NONE', #240, 39.37007874015748143 ) ;
#301 = VERTEX_POINT ( 'NONE', #116 ) ;
#302 = DIRECTION ( 'NONE',  ( -0.000000000000000000, -1.000000000000000000, -0.000000000000000000 ) ) ;
#303 =( NAMED_UNIT ( * ) PLANE_ANGLE_UNIT ( ) SI_UNIT ( $, .RADIAN. ) );
#304 = PRODUCT_DEFINITION_FORMATION_WITH_SPECIFIED_SOURCE ( 'ANY', '', #5, .NOT_KNOWN. ) ;
#305 = CYLINDRICAL_SURFACE ( 'NONE', #132, 0.1562500000000000000 ) ;
#306 = PLANE ( 'NONE',  #176 ) ;
#307 = MANIFOLD_SOLID_BREP ( 'Revolve - Cutting Edge', #140 ) ;
#308 = EDGE_CURVE ( 'NONE', #110, #203, #216, .T. ) ;
#309 = SURFACE_STYLE_USAGE ( .BOTH. , #117 ) ;
ENDSEC;
END-ISO-10303-21;
