ISO-10303-21;
HEADER;
FILE_DESCRIPTION (( 'STEP AP214' ),
    '1' );
FILE_NAME ('Micro_DM-500-490.STEP',
    '2021-09-02T16:08:04',
    ( '' ),
    ( '' ),
    'SwSTEP 2.0',
    'SolidWorks 2020',
    '' );
FILE_SCHEMA (( 'AUTOMOTIVE_DESIGN' ));
ENDSEC;

DATA;
#1 = CARTESIAN_POINT ( 'NONE',  ( 0.2499500000000001165, 0.0000000000000000000, 1.000000000000000000 ) ) ;
#2 = PRODUCT_DEFINITION_CONTEXT ( 'detailed design', #241, 'design' ) ;
#3 = CARTESIAN_POINT ( 'NONE',  ( 0.2499500000000000888, 3.061004674468810760E-17, 0.0000000000000000000 ) ) ;
#4 = DIRECTION ( 'NONE',  ( 1.000000000000000000, 0.0000000000000000000, -0.0000000000000000000 ) ) ;
#5 = LINE ( 'NONE', #308, #172 ) ;
#6 = CARTESIAN_POINT ( 'NONE',  ( 0.0000000000000000000, 0.0000000000000000000, 1.000000000000000000 ) ) ;
#7 = CARTESIAN_POINT ( 'NONE',  ( -0.2500000000000000000, 0.0000000000000000000, 1.000000000000000000 ) ) ;
#8 = DIRECTION ( 'NONE',  ( -1.000000000000000000, 0.0000000000000000000, 0.0000000000000000000 ) ) ;
#9 = DIRECTION ( 'NONE',  ( -0.0000000000000000000, -0.0000000000000000000, -1.000000000000000000 ) ) ;
#10 = VECTOR ( 'NONE', #177, 39.37007874015748143 ) ;
#11 = PRESENTATION_LAYER_ASSIGNMENT (  '', '', ( #148 ) ) ;
#12 = ADVANCED_FACE ( 'NONE', ( #102 ), #63, .T. ) ;
#13 = DIRECTION ( 'NONE',  ( -0.0000000000000000000, -0.0000000000000000000, -1.000000000000000000 ) ) ;
#14 = CARTESIAN_POINT ( 'NONE',  ( 0.2500000000000000000, 3.061616997868382402E-17, 3.000000000000000444 ) ) ;
#15 = EDGE_LOOP ( 'NONE', ( #65, #85, #116, #165 ) ) ;
#16 = SURFACE_STYLE_FILL_AREA ( #252 ) ;
#17 = ORIENTED_EDGE ( 'NONE', *, *, #192, .F. ) ;
#18 = EDGE_CURVE ( 'NONE', #221, #46, #105, .T. ) ;
#19 = APPLICATION_PROTOCOL_DEFINITION ( 'draft international standard', 'automotive_design', 1998, #137 ) ;
#20 = DIRECTION ( 'NONE',  ( -1.000000000000000000, 0.0000000000000000000, 0.0000000000000000000 ) ) ;
#21 = CIRCLE ( 'NONE', #294, 0.2500000000000000000 ) ;
#22 = VERTEX_POINT ( 'NONE', #26 ) ;
#23 = FACE_OUTER_BOUND ( 'NONE', #40, .T. ) ;
#24 = ORIENTED_EDGE ( 'NONE', *, *, #247, .T. ) ;
#25 = CARTESIAN_POINT ( 'NONE',  ( -0.2500000000000000000, 0.0000000000000000000, 3.000000000000000444 ) ) ;
#26 = CARTESIAN_POINT ( 'NONE',  ( 0.2500000000000000000, 3.061616997868382402E-17, 1.000000000000000000 ) ) ;
#27 = CARTESIAN_POINT ( 'NONE',  ( 0.007499999999999999722, 0.0000000000000000000, 1.707404996040164512E-17 ) ) ;
#28 =( NAMED_UNIT ( * ) SI_UNIT ( $, .STERADIAN. ) SOLID_ANGLE_UNIT ( ) );
#29 = CARTESIAN_POINT ( 'NONE',  ( 0.0000000000000000000, 0.0000000000000000000, 1.707404996040164512E-17 ) ) ;
#30 = AXIS2_PLACEMENT_3D ( 'NONE', #42, #307, #140 ) ;
#31 = DIRECTION ( 'NONE',  ( -0.0000000000000000000, -0.0000000000000000000, -1.000000000000000000 ) ) ;
#32 = FACE_OUTER_BOUND ( 'NONE', #304, .T. ) ;
#33 = DIRECTION ( 'NONE',  ( -0.0000000000000000000, -0.0000000000000000000, -1.000000000000000000 ) ) ;
#34 = EDGE_LOOP ( 'NONE', ( #67, #292 ) ) ;
#35 = FACE_OUTER_BOUND ( 'NONE', #15, .T. ) ;
#36 = AXIS2_PLACEMENT_3D ( 'NONE', #29, #103, #123 ) ;
#37 = AXIS2_PLACEMENT_3D ( 'NONE', #206, #9, #135 ) ;
#38 = CARTESIAN_POINT ( 'NONE',  ( 0.007499999999999999722, 0.0000000000000000000, 1.707404996040164512E-17 ) ) ;
#39 = FACE_OUTER_BOUND ( 'NONE', #253, .T. ) ;
#40 = EDGE_LOOP ( 'NONE', ( #17, #195, #229, #200 ) ) ;
#41 = AXIS2_PLACEMENT_3D ( 'NONE', #88, #291, #8 ) ;
#42 = CARTESIAN_POINT ( 'NONE',  ( 0.0000000000000000000, 0.0000000000000000000, 0.0000000000000000000 ) ) ;
#43 = DIRECTION ( 'NONE',  ( 0.0000000000000000000, 0.0000000000000000000, 1.000000000000000000 ) ) ;
#44 = VERTEX_POINT ( 'NONE', #314 ) ;
#45 =( CONVERSION_BASED_UNIT ( 'INCH', #68 ) LENGTH_UNIT ( ) NAMED_UNIT ( #79 ) );
#46 = VERTEX_POINT ( 'NONE', #130 ) ;
#47 = MECHANICAL_DESIGN_GEOMETRIC_PRESENTATION_REPRESENTATION (  '', ( #148 ), #233 ) ;
#48 = LINE ( 'NONE', #25, #133 ) ;
#49 = EDGE_CURVE ( 'NONE', #187, #275, #76, .T. ) ;
#50 = PLANE ( 'NONE',  #94 ) ;
#51 = AXIS2_PLACEMENT_3D ( 'NONE', #254, #126, #4 ) ;
#52 = AXIS2_PLACEMENT_3D ( 'NONE', #92, #43, #213 ) ;
#53 = CARTESIAN_POINT ( 'NONE',  ( 0.0000000000000000000, 0.0000000000000000000, 3.000000000000000444 ) ) ;
#54 = PLANE ( 'NONE',  #173 ) ;
#55 = DIRECTION ( 'NONE',  ( 0.0000000000000000000, 0.0000000000000000000, -1.000000000000000000 ) ) ;
#56 = ADVANCED_FACE ( 'NONE', ( #153 ), #235, .T. ) ;
#57 = VERTEX_POINT ( 'NONE', #7 ) ;
#58 = UNCERTAINTY_MEASURE_WITH_UNIT (LENGTH_MEASURE( 1.000000000000000082E-05 ), #301, 'distance_accuracy_value', 'NONE');
#59 = DIRECTION ( 'NONE',  ( -1.000000000000000000, 0.0000000000000000000, 0.0000000000000000000 ) ) ;
#60 = EDGE_CURVE ( 'NONE', #44, #316, #204, .T. ) ;
#61 = DIRECTION ( 'NONE',  ( -1.000000000000000000, 0.0000000000000000000, 0.0000000000000000000 ) ) ;
#62 = DIRECTION ( 'NONE',  ( -0.0000000000000000000, -0.0000000000000000000, -1.000000000000000000 ) ) ;
#63 = CONICAL_SURFACE ( 'NONE', #36, 0.007499999999999999722, 0.7853981633974501664 ) ;
#64 = AXIS2_PLACEMENT_3D ( 'NONE', #118, #98, #20 ) ;
#65 = ORIENTED_EDGE ( 'NONE', *, *, #122, .T. ) ;
#66 = FILL_AREA_STYLE_COLOUR ( '', #329 ) ;
#67 = ORIENTED_EDGE ( 'NONE', *, *, #310, .F. ) ;
#68 = LENGTH_MEASURE_WITH_UNIT ( LENGTH_MEASURE( 0.02539999999999999897 ), #299 );
#69 = ORIENTED_EDGE ( 'NONE', *, *, #305, .T. ) ;
#70 = SURFACE_STYLE_USAGE ( .BOTH. , #274 ) ;
#71 = EDGE_LOOP ( 'NONE', ( #227, #327, #211, #220 ) ) ;
#72 = CARTESIAN_POINT ( 'NONE',  ( 0.0000000000000000000, 0.0000000000000000000, 1.000000000000000000 ) ) ;
#73 = EDGE_LOOP ( 'NONE', ( #193, #277, #100, #109 ) ) ;
#74 = CARTESIAN_POINT ( 'NONE',  ( 0.0000000000000000000, 0.0000000000000000000, 2.985000000000001208 ) ) ;
#75 = SHAPE_DEFINITION_REPRESENTATION ( #234, #303 ) ;
#76 = LINE ( 'NONE', #27, #10 ) ;
#77 = VECTOR ( 'NONE', #114, 39.37007874015748143 ) ;
#78 = DIRECTION ( 'NONE',  ( -0.7071067811865402453, 0.0000000000000000000, -0.7071067811865546782 ) ) ;
#79 = DIMENSIONAL_EXPONENTS ( 1.000000000000000000, 0.0000000000000000000, 0.0000000000000000000, 0.0000000000000000000, 0.0000000000000000000, 0.0000000000000000000, 0.0000000000000000000 ) ;
#80 = CARTESIAN_POINT ( 'NONE',  ( -0.007499999999999999722, 9.184850993605147975E-19, 1.707404996040164512E-17 ) ) ;
#81 = LINE ( 'NONE', #155, #202 ) ;
#82 = DIMENSIONAL_EXPONENTS ( 1.000000000000000000, 0.0000000000000000000, 0.0000000000000000000, 0.0000000000000000000, 0.0000000000000000000, 0.0000000000000000000, 0.0000000000000000000 ) ;
#83 = ORIENTED_EDGE ( 'NONE', *, *, #18, .T. ) ;
#84 = DIRECTION ( 'NONE',  ( -1.000000000000000000, 0.0000000000000000000, 0.0000000000000000000 ) ) ;
#85 = ORIENTED_EDGE ( 'NONE', *, *, #279, .T. ) ;
#86 = ADVANCED_FACE ( 'NONE', ( #111 ), #311, .T. ) ;
#87 = DIRECTION ( 'NONE',  ( 0.0000000000000000000, 0.0000000000000000000, -1.000000000000000000 ) ) ;
#88 = CARTESIAN_POINT ( 'NONE',  ( 0.0000000000000000000, 0.0000000000000000000, 0.2424499999999991384 ) ) ;
#89 = AXIS2_PLACEMENT_3D ( 'NONE', #248, #215, #302 ) ;
#90 = ADVANCED_FACE ( 'NONE', ( #284, #280 ), #50, .T. ) ;
#91 = ORIENTED_EDGE ( 'NONE', *, *, #320, .F. ) ;
#92 = CARTESIAN_POINT ( 'NONE',  ( 0.0000000000000000000, 0.0000000000000000000, 1.707404996040164512E-17 ) ) ;
#93 = EDGE_CURVE ( 'NONE', #46, #57, #48, .T. ) ;
#94 = AXIS2_PLACEMENT_3D ( 'NONE', #1, #199, #171 ) ;
#95 = ORIENTED_EDGE ( 'NONE', *, *, #230, .T. ) ;
#96 = AXIS2_PLACEMENT_3D ( 'NONE', #268, #179, #157 ) ;
#97 = EDGE_LOOP ( 'NONE', ( #24, #95 ) ) ;
#98 = DIRECTION ( 'NONE',  ( -0.0000000000000000000, -0.0000000000000000000, -1.000000000000000000 ) ) ;
#99 = ORIENTED_EDGE ( 'NONE', *, *, #145, .T. ) ;
#100 = ORIENTED_EDGE ( 'NONE', *, *, #122, .F. ) ;
#101 = VECTOR ( 'NONE', #183, 39.37007874015748854 ) ;
#102 = FACE_OUTER_BOUND ( 'NONE', #71, .T. ) ;
#103 = DIRECTION ( 'NONE',  ( 0.0000000000000000000, 0.0000000000000000000, 1.000000000000000000 ) ) ;
#104 = CARTESIAN_POINT ( 'NONE',  ( 0.0000000000000000000, 0.0000000000000000000, 3.000000000000000444 ) ) ;
#105 = CIRCLE ( 'NONE', #154, 0.2500000000000000000 ) ;
#106 = SURFACE_STYLE_FILL_AREA ( #150 ) ;
#107 = CIRCLE ( 'NONE', #264, 0.2499500000000001165 ) ;
#108 = PRODUCT_RELATED_PRODUCT_CATEGORY ( 'part', '', ( #257 ) ) ;
#109 = ORIENTED_EDGE ( 'NONE', *, *, #117, .F. ) ;
#110 = FACE_OUTER_BOUND ( 'NONE', #207, .T. ) ;
#111 = FACE_OUTER_BOUND ( 'NONE', #244, .T. ) ;
#112 = AXIS2_PLACEMENT_3D ( 'NONE', #175, #222, #309 ) ;
#113 = LINE ( 'NONE', #270, #101 ) ;
#114 = DIRECTION ( 'NONE',  ( -0.0000000000000000000, -0.0000000000000000000, -1.000000000000000000 ) ) ;
#115 = VECTOR ( 'NONE', #201, 39.37007874015748143 ) ;
#116 = ORIENTED_EDGE ( 'NONE', *, *, #247, .F. ) ;
#117 = EDGE_CURVE ( 'NONE', #324, #46, #5, .T. ) ;
#118 = CARTESIAN_POINT ( 'NONE',  ( 0.0000000000000000000, 0.0000000000000000000, 1.707404996040164512E-17 ) ) ;
#119 = ORIENTED_EDGE ( 'NONE', *, *, #310, .T. ) ;
#120 = AXIS2_PLACEMENT_3D ( 'NONE', #104, #147, #151 ) ;
#121 = EDGE_LOOP ( 'NONE', ( #219, #91, #249, #300 ) ) ;
#122 = EDGE_CURVE ( 'NONE', #46, #221, #21, .T. ) ;
#123 = DIRECTION ( 'NONE',  ( 1.000000000000000000, 0.0000000000000000000, 0.0000000000000000000 ) ) ;
#124 = COLOUR_RGB ( '',0.7921568627450980005, 0.8196078431372548767, 0.9333333333333333481 ) ;
#125 = LINE ( 'NONE', #3, #115 ) ;
#126 = DIRECTION ( 'NONE',  ( 0.0000000000000000000, 0.0000000000000000000, 1.000000000000000000 ) ) ;
#127 = APPLICATION_PROTOCOL_DEFINITION ( 'draft international standard', 'automotive_design', 1998, #241 ) ;
#128 = CARTESIAN_POINT ( 'NONE',  ( 0.0000000000000000000, 0.0000000000000000000, 2.985000000000001208 ) ) ;
#129 = AXIS2_PLACEMENT_3D ( 'NONE', #321, #13, #236 ) ;
#130 = CARTESIAN_POINT ( 'NONE',  ( -0.2500000000000000000, 0.0000000000000000000, 2.985000000000001208 ) ) ;
#131 = DIRECTION ( 'NONE',  ( -0.0000000000000000000, -0.0000000000000000000, -1.000000000000000000 ) ) ;
#132 = EDGE_LOOP ( 'NONE', ( #297, #318 ) ) ;
#133 = VECTOR ( 'NONE', #223, 39.37007874015748143 ) ;
#134 = AXIS2_PLACEMENT_3D ( 'NONE', #265, #33, #84 ) ;
#135 = DIRECTION ( 'NONE',  ( -1.000000000000000000, 0.0000000000000000000, 0.0000000000000000000 ) ) ;
#136 = CYLINDRICAL_SURFACE ( 'NONE', #30, 0.2499500000000000888 ) ;
#137 = APPLICATION_CONTEXT ( 'automotive_design' ) ;
#138 = PRESENTATION_STYLE_ASSIGNMENT (( #70 ) ) ;
#139 = EDGE_CURVE ( 'NONE', #176, #324, #143, .T. ) ;
#140 = DIRECTION ( 'NONE',  ( -1.000000000000000000, 0.0000000000000000000, 0.0000000000000000000 ) ) ;
#141 = DIRECTION ( 'NONE',  ( -1.000000000000000000, 0.0000000000000000000, 0.0000000000000000000 ) ) ;
#142 = VERTEX_POINT ( 'NONE', #256 ) ;
#143 = CIRCLE ( 'NONE', #120, 0.2350000000000011524 ) ;
#144 =( NAMED_UNIT ( * ) SI_UNIT ( $, .STERADIAN. ) SOLID_ANGLE_UNIT ( ) );
#145 = EDGE_CURVE ( 'NONE', #251, #275, #125, .T. ) ;
#146 = ORIENTED_EDGE ( 'NONE', *, *, #192, .T. ) ;
#147 = DIRECTION ( 'NONE',  ( 0.0000000000000000000, 0.0000000000000000000, 1.000000000000000000 ) ) ;
#148 = STYLED_ITEM ( 'NONE', ( #138 ), #295 ) ;
#149 = DIRECTION ( 'NONE',  ( 1.000000000000000000, 0.0000000000000000000, 0.0000000000000000000 ) ) ;
#150 = FILL_AREA_STYLE ('',( #66 ) ) ;
#151 = DIRECTION ( 'NONE',  ( 1.000000000000000000, 0.0000000000000000000, 0.0000000000000000000 ) ) ;
#152 = PRODUCT_CONTEXT ( 'NONE', #137, 'mechanical' ) ;
#153 = FACE_OUTER_BOUND ( 'NONE', #132, .T. ) ;
#154 = AXIS2_PLACEMENT_3D ( 'NONE', #128, #55, #149 ) ;
#155 = CARTESIAN_POINT ( 'NONE',  ( -0.2499500000000000888, 0.0000000000000000000, 0.0000000000000000000 ) ) ;
#156 = CARTESIAN_POINT ( 'NONE',  ( 0.0000000000000000000, 0.0000000000000000000, 0.0000000000000000000 ) ) ;
#157 = DIRECTION ( 'NONE',  ( -1.000000000000000000, 0.0000000000000000000, 0.0000000000000000000 ) ) ;
#158 = CIRCLE ( 'NONE', #64, 0.007499999999999999722 ) ;
#159 = CYLINDRICAL_SURFACE ( 'NONE', #162, 0.2499500000000000888 ) ;
#160 = ORIENTED_EDGE ( 'NONE', *, *, #269, .T. ) ;
#161 = DIRECTION ( 'NONE',  ( 1.000000000000000000, 0.0000000000000000000, -0.0000000000000000000 ) ) ;
#162 = AXIS2_PLACEMENT_3D ( 'NONE', #156, #266, #59 ) ;
#163 = CARTESIAN_POINT ( 'NONE',  ( -0.2499500000000000333, 3.061004674468809528E-17, 0.2424499999999991384 ) ) ;
#164 = DIRECTION ( 'NONE',  ( -1.000000000000000000, 0.0000000000000000000, 0.0000000000000000000 ) ) ;
#165 = ORIENTED_EDGE ( 'NONE', *, *, #93, .F. ) ;
#166 = ADVANCED_FACE ( 'NONE', ( #261 ), #312, .T. ) ;
#167 = ORIENTED_EDGE ( 'NONE', *, *, #269, .F. ) ;
#168 = CIRCLE ( 'NONE', #89, 0.2350000000000011524 ) ;
#169 = ORIENTED_EDGE ( 'NONE', *, *, #279, .F. ) ;
#170 = DIRECTION ( 'NONE',  ( 0.0000000000000000000, 0.0000000000000000000, -1.000000000000000000 ) ) ;
#171 = DIRECTION ( 'NONE',  ( -1.000000000000000000, 0.0000000000000000000, 0.0000000000000000000 ) ) ;
#172 = VECTOR ( 'NONE', #78, 39.37007874015748854 ) ;
#173 = AXIS2_PLACEMENT_3D ( 'NONE', #197, #290, #161 ) ;
#174 = UNCERTAINTY_MEASURE_WITH_UNIT (LENGTH_MEASURE( 1.000000000000000082E-05 ), #45, 'distance_accuracy_value', 'NONE');
#175 = CARTESIAN_POINT ( 'NONE',  ( 0.0000000000000000000, 0.0000000000000000000, 0.0000000000000000000 ) ) ;
#176 = VERTEX_POINT ( 'NONE', #184 ) ;
#177 = DIRECTION ( 'NONE',  ( 0.7071067811865487940, 0.0000000000000000000, 0.7071067811865462405 ) ) ;
#178 = ADVANCED_FACE ( 'NONE', ( #39 ), #54, .F. ) ;
#179 = DIRECTION ( 'NONE',  ( -0.0000000000000000000, -0.0000000000000000000, -1.000000000000000000 ) ) ;
#180 = STYLED_ITEM ( 'NONE', ( #228 ), #303 ) ;
#181 = PRODUCT_DEFINITION ( 'UNKNOWN', '', #306, #2 ) ;
#182 = DIRECTION ( 'NONE',  ( -1.000000000000000000, 0.0000000000000000000, 0.0000000000000000000 ) ) ;
#183 = DIRECTION ( 'NONE',  ( 0.7071067811865402453, 8.659560562354845344E-17, -0.7071067811865546782 ) ) ;
#184 = CARTESIAN_POINT ( 'NONE',  ( 0.2350000000000011524, 2.969768487932338510E-17, 3.000000000000000444 ) ) ;
#185 = AXIS2_PLACEMENT_3D ( 'NONE', #296, #315, #61 ) ;
#186 = CARTESIAN_POINT ( 'NONE',  ( 0.2500000000000000000, 3.061616997868382402E-17, 2.985000000000001208 ) ) ;
#187 = VERTEX_POINT ( 'NONE', #38 ) ;
#188 = EDGE_CURVE ( 'NONE', #275, #316, #276, .T. ) ;
#189 =( NAMED_UNIT ( * ) PLANE_ANGLE_UNIT ( ) SI_UNIT ( $, .RADIAN. ) );
#190 = CONICAL_SURFACE ( 'NONE', #52, 0.007499999999999999722, 0.7853981633974501664 ) ;
#191 = CARTESIAN_POINT ( 'NONE',  ( -0.2350000000000011524, 0.0000000000000000000, 3.000000000000000444 ) ) ;
#192 = EDGE_CURVE ( 'NONE', #44, #187, #208, .T. ) ;
#193 = ORIENTED_EDGE ( 'NONE', *, *, #139, .F. ) ;
#194 =( NAMED_UNIT ( * ) PLANE_ANGLE_UNIT ( ) SI_UNIT ( $, .RADIAN. ) );
#195 = ORIENTED_EDGE ( 'NONE', *, *, #60, .T. ) ;
#196 =( NAMED_UNIT ( * ) SI_UNIT ( $, .STERADIAN. ) SOLID_ANGLE_UNIT ( ) );
#197 = CARTESIAN_POINT ( 'NONE',  ( 0.0000000000000000000, 0.0000000000000000000, 0.0000000000000000000 ) ) ;
#198 =( GEOMETRIC_REPRESENTATION_CONTEXT ( 3 ) GLOBAL_UNCERTAINTY_ASSIGNED_CONTEXT ( ( #58 ) ) GLOBAL_UNIT_ASSIGNED_CONTEXT ( ( #301, #194, #144 ) ) REPRESENTATION_CONTEXT ( 'NONE', 'WORKASPACE' ) );
#199 = DIRECTION ( 'NONE',  ( -0.0000000000000000000, 0.0000000000000000000, -1.000000000000000000 ) ) ;
#200 = ORIENTED_EDGE ( 'NONE', *, *, #49, .F. ) ;
#201 = DIRECTION ( 'NONE',  ( -0.0000000000000000000, -0.0000000000000000000, -1.000000000000000000 ) ) ;
#202 = VECTOR ( 'NONE', #131, 39.37007874015748143 ) ;
#203 =( CONVERSION_BASED_UNIT ( 'INCH', #286 ) LENGTH_UNIT ( ) NAMED_UNIT ( #82 ) );
#204 = LINE ( 'NONE', #80, #238 ) ;
#205 = EDGE_CURVE ( 'NONE', #176, #221, #113, .T. ) ;
#206 = CARTESIAN_POINT ( 'NONE',  ( 0.0000000000000000000, 0.0000000000000000000, 0.2424499999999991384 ) ) ;
#207 = EDGE_LOOP ( 'NONE', ( #119, #99, #216, #167 ) ) ;
#208 = CIRCLE ( 'NONE', #129, 0.007499999999999999722 ) ;
#209 = EDGE_CURVE ( 'NONE', #316, #275, #267, .T. ) ;
#210 = DIRECTION ( 'NONE',  ( -1.000000000000000000, 0.0000000000000000000, 0.0000000000000000000 ) ) ;
#211 = ORIENTED_EDGE ( 'NONE', *, *, #49, .T. ) ;
#212 = AXIS2_PLACEMENT_3D ( 'NONE', #273, #325, #141 ) ;
#213 = DIRECTION ( 'NONE',  ( 1.000000000000000000, 0.0000000000000000000, 0.0000000000000000000 ) ) ;
#214 = ORIENTED_EDGE ( 'NONE', *, *, #225, .T. ) ;
#215 = DIRECTION ( 'NONE',  ( 0.0000000000000000000, 0.0000000000000000000, 1.000000000000000000 ) ) ;
#216 = ORIENTED_EDGE ( 'NONE', *, *, #209, .F. ) ;
#217 = DIRECTION ( 'NONE',  ( -0.0000000000000000000, -0.0000000000000000000, -1.000000000000000000 ) ) ;
#218 = CIRCLE ( 'NONE', #239, 0.2500000000000000000 ) ;
#219 = ORIENTED_EDGE ( 'NONE', *, *, #205, .F. ) ;
#220 = ORIENTED_EDGE ( 'NONE', *, *, #188, .T. ) ;
#221 = VERTEX_POINT ( 'NONE', #186 ) ;
#222 = DIRECTION ( 'NONE',  ( 0.0000000000000000000, 0.0000000000000000000, 1.000000000000000000 ) ) ;
#223 = DIRECTION ( 'NONE',  ( -0.0000000000000000000, -0.0000000000000000000, -1.000000000000000000 ) ) ;
#224 = PRESENTATION_LAYER_ASSIGNMENT (  '', '', ( #180 ) ) ;
#225 = EDGE_CURVE ( 'NONE', #251, #142, #283, .T. ) ;
#226 = SURFACE_SIDE_STYLE ('',( #106 ) ) ;
#227 = ORIENTED_EDGE ( 'NONE', *, *, #60, .F. ) ;
#228 = PRESENTATION_STYLE_ASSIGNMENT (( #259 ) ) ;
#229 = ORIENTED_EDGE ( 'NONE', *, *, #209, .T. ) ;
#230 = EDGE_CURVE ( 'NONE', #22, #57, #218, .T. ) ;
#231 = DIRECTION ( 'NONE',  ( -1.000000000000000000, 0.0000000000000000000, 0.0000000000000000000 ) ) ;
#232 = CLOSED_SHELL ( 'NONE', ( #242, #322, #326, #272, #86, #56, #166, #90, #12, #293, #178 ) ) ;
#233 =( GEOMETRIC_REPRESENTATION_CONTEXT ( 3 ) GLOBAL_UNCERTAINTY_ASSIGNED_CONTEXT ( ( #174 ) ) GLOBAL_UNIT_ASSIGNED_CONTEXT ( ( #45, #189, #196 ) ) REPRESENTATION_CONTEXT ( 'NONE', 'WORKASPACE' ) );
#234 = PRODUCT_DEFINITION_SHAPE ( 'NONE', 'NONE',  #181 ) ;
#235 = PLANE ( 'NONE',  #51 ) ;
#236 = DIRECTION ( 'NONE',  ( -1.000000000000000000, 0.0000000000000000000, 0.0000000000000000000 ) ) ;
#237 = CYLINDRICAL_SURFACE ( 'NONE', #96, 0.2500000000000000000 ) ;
#238 = VECTOR ( 'NONE', #287, 39.37007874015748143 ) ;
#239 = AXIS2_PLACEMENT_3D ( 'NONE', #6, #62, #210 ) ;
#240 = CARTESIAN_POINT ( 'NONE',  ( 0.2499500000000000333, 0.0000000000000000000, 0.2424499999999991384 ) ) ;
#241 = APPLICATION_CONTEXT ( 'automotive_design' ) ;
#242 = ADVANCED_FACE ( 'NONE', ( #110 ), #159, .T. ) ;
#243 = CONICAL_SURFACE ( 'NONE', #212, 0.2350000000000011524, 0.7853981633974380649 ) ;
#244 = EDGE_LOOP ( 'NONE', ( #169, #83, #258, #246 ) ) ;
#245 = FACE_OUTER_BOUND ( 'NONE', #73, .T. ) ;
#246 = ORIENTED_EDGE ( 'NONE', *, *, #230, .F. ) ;
#247 = EDGE_CURVE ( 'NONE', #57, #22, #271, .T. ) ;
#248 = CARTESIAN_POINT ( 'NONE',  ( 0.0000000000000000000, 0.0000000000000000000, 3.000000000000000444 ) ) ;
#249 = ORIENTED_EDGE ( 'NONE', *, *, #117, .T. ) ;
#250 = LENGTH_MEASURE_WITH_UNIT ( LENGTH_MEASURE( 0.02539999999999999897 ), #323 );
#251 = VERTEX_POINT ( 'NONE', #319 ) ;
#252 = FILL_AREA_STYLE ('',( #278 ) ) ;
#253 = EDGE_LOOP ( 'NONE', ( #69, #146 ) ) ;
#254 = CARTESIAN_POINT ( 'NONE',  ( 0.0000000000000000000, 0.0000000000000000000, 3.000000000000000444 ) ) ;
#255 =( GEOMETRIC_REPRESENTATION_CONTEXT ( 3 ) GLOBAL_UNCERTAINTY_ASSIGNED_CONTEXT ( ( #289 ) ) GLOBAL_UNIT_ASSIGNED_CONTEXT ( ( #203, #262, #28 ) ) REPRESENTATION_CONTEXT ( 'NONE', 'WORKASPACE' ) );
#256 = CARTESIAN_POINT ( 'NONE',  ( -0.2499500000000001165, 0.0000000000000000000, 1.000000000000000000 ) ) ;
#257 = PRODUCT ( 'Micro_DM-500-490', 'Micro_DM-500-490', '', ( #152 ) ) ;
#258 = ORIENTED_EDGE ( 'NONE', *, *, #93, .T. ) ;
#259 = SURFACE_STYLE_USAGE ( .BOTH. , #226 ) ;
#260 = DIMENSIONAL_EXPONENTS ( 1.000000000000000000, 0.0000000000000000000, 0.0000000000000000000, 0.0000000000000000000, 0.0000000000000000000, 0.0000000000000000000, 0.0000000000000000000 ) ;
#261 = FACE_OUTER_BOUND ( 'NONE', #121, .T. ) ;
#262 =( NAMED_UNIT ( * ) PLANE_ANGLE_UNIT ( ) SI_UNIT ( $, .RADIAN. ) );
#263 = CARTESIAN_POINT ( 'NONE',  ( 0.0000000000000000000, 0.0000000000000000000, 3.000000000000000444 ) ) ;
#264 = AXIS2_PLACEMENT_3D ( 'NONE', #72, #217, #164 ) ;
#265 = CARTESIAN_POINT ( 'NONE',  ( 0.0000000000000000000, 0.0000000000000000000, 1.000000000000000000 ) ) ;
#266 = DIRECTION ( 'NONE',  ( -0.0000000000000000000, -0.0000000000000000000, -1.000000000000000000 ) ) ;
#267 = CIRCLE ( 'NONE', #41, 0.2499500000000000333 ) ;
#268 = CARTESIAN_POINT ( 'NONE',  ( 0.0000000000000000000, 0.0000000000000000000, 3.000000000000000444 ) ) ;
#269 = EDGE_CURVE ( 'NONE', #142, #316, #81, .T. ) ;
#270 = CARTESIAN_POINT ( 'NONE',  ( 0.2350000000000011524, 2.877919977996294002E-17, 3.000000000000000444 ) ) ;
#271 = CIRCLE ( 'NONE', #185, 0.2500000000000000000 ) ;
#272 = ADVANCED_FACE ( 'NONE', ( #35 ), #237, .T. ) ;
#273 = CARTESIAN_POINT ( 'NONE',  ( 0.0000000000000000000, 0.0000000000000000000, 3.000000000000000444 ) ) ;
#274 = SURFACE_SIDE_STYLE ('',( #16 ) ) ;
#275 = VERTEX_POINT ( 'NONE', #240 ) ;
#276 = CIRCLE ( 'NONE', #37, 0.2499500000000000333 ) ;
#277 = ORIENTED_EDGE ( 'NONE', *, *, #205, .T. ) ;
#278 = FILL_AREA_STYLE_COLOUR ( '', #124 ) ;
#279 = EDGE_CURVE ( 'NONE', #221, #22, #288, .T. ) ;
#280 = FACE_OUTER_BOUND ( 'NONE', #97, .T. ) ;
#281 = DIRECTION ( 'NONE',  ( 1.000000000000000000, 0.0000000000000000000, 0.0000000000000000000 ) ) ;
#282 = AXIS2_PLACEMENT_3D ( 'NONE', #263, #31, #231 ) ;
#283 = CIRCLE ( 'NONE', #134, 0.2499500000000001165 ) ;
#284 = FACE_BOUND ( 'NONE', #34, .T. ) ;
#285 = ORIENTED_EDGE ( 'NONE', *, *, #145, .F. ) ;
#286 = LENGTH_MEASURE_WITH_UNIT ( LENGTH_MEASURE( 0.02539999999999999897 ), #313 );
#287 = DIRECTION ( 'NONE',  ( -0.7071067811865487940, 8.659560562354948882E-17, 0.7071067811865462405 ) ) ;
#288 = LINE ( 'NONE', #14, #77 ) ;
#289 = UNCERTAINTY_MEASURE_WITH_UNIT (LENGTH_MEASURE( 1.000000000000000082E-05 ), #203, 'distance_accuracy_value', 'NONE');
#290 = DIRECTION ( 'NONE',  ( 0.0000000000000000000, 0.0000000000000000000, 1.000000000000000000 ) ) ;
#291 = DIRECTION ( 'NONE',  ( -0.0000000000000000000, -0.0000000000000000000, -1.000000000000000000 ) ) ;
#292 = ORIENTED_EDGE ( 'NONE', *, *, #225, .F. ) ;
#293 = ADVANCED_FACE ( 'NONE', ( #32 ), #136, .T. ) ;
#294 = AXIS2_PLACEMENT_3D ( 'NONE', #74, #170, #281 ) ;
#295 = MANIFOLD_SOLID_BREP ( 'Cut-Revolve4', #232 ) ;
#296 = CARTESIAN_POINT ( 'NONE',  ( 0.0000000000000000000, 0.0000000000000000000, 1.000000000000000000 ) ) ;
#297 = ORIENTED_EDGE ( 'NONE', *, *, #320, .T. ) ;
#298 = AXIS2_PLACEMENT_3D ( 'NONE', #53, #87, #182 ) ;
#299 =( LENGTH_UNIT ( ) NAMED_UNIT ( * ) SI_UNIT ( $, .METRE. ) );
#300 = ORIENTED_EDGE ( 'NONE', *, *, #18, .F. ) ;
#301 =( CONVERSION_BASED_UNIT ( 'INCH', #250 ) LENGTH_UNIT ( ) NAMED_UNIT ( #260 ) );
#302 = DIRECTION ( 'NONE',  ( 1.000000000000000000, 0.0000000000000000000, 0.0000000000000000000 ) ) ;
#303 = ADVANCED_BREP_SHAPE_REPRESENTATION ( 'Micro_DM-500-490', ( #295, #112 ), #198 ) ;
#304 = EDGE_LOOP ( 'NONE', ( #285, #214, #160, #328 ) ) ;
#305 = EDGE_CURVE ( 'NONE', #187, #44, #158, .T. ) ;
#306 = PRODUCT_DEFINITION_FORMATION_WITH_SPECIFIED_SOURCE ( 'ANY', '', #257, .NOT_KNOWN. ) ;
#307 = DIRECTION ( 'NONE',  ( -0.0000000000000000000, -0.0000000000000000000, -1.000000000000000000 ) ) ;
#308 = CARTESIAN_POINT ( 'NONE',  ( -0.2350000000000011524, 0.0000000000000000000, 3.000000000000000444 ) ) ;
#309 = DIRECTION ( 'NONE',  ( 1.000000000000000000, 0.0000000000000000000, 0.0000000000000000000 ) ) ;
#310 = EDGE_CURVE ( 'NONE', #142, #251, #107, .T. ) ;
#311 = CYLINDRICAL_SURFACE ( 'NONE', #282, 0.2500000000000000000 ) ;
#312 = CONICAL_SURFACE ( 'NONE', #298, 0.2350000000000011524, 0.7853981633974380649 ) ;
#313 =( LENGTH_UNIT ( ) NAMED_UNIT ( * ) SI_UNIT ( $, .METRE. ) );
#314 = CARTESIAN_POINT ( 'NONE',  ( -0.007499999999999999722, 1.576426592202430407E-17, 1.707404996040164512E-17 ) ) ;
#315 = DIRECTION ( 'NONE',  ( -0.0000000000000000000, -0.0000000000000000000, -1.000000000000000000 ) ) ;
#316 = VERTEX_POINT ( 'NONE', #163 ) ;
#317 = MECHANICAL_DESIGN_GEOMETRIC_PRESENTATION_REPRESENTATION (  '', ( #180 ), #255 ) ;
#318 = ORIENTED_EDGE ( 'NONE', *, *, #139, .T. ) ;
#319 = CARTESIAN_POINT ( 'NONE',  ( 0.2499500000000001443, 3.061004674468811376E-17, 1.000000000000000000 ) ) ;
#320 = EDGE_CURVE ( 'NONE', #324, #176, #168, .T. ) ;
#321 = CARTESIAN_POINT ( 'NONE',  ( 0.0000000000000000000, 0.0000000000000000000, 1.707404996040164512E-17 ) ) ;
#322 = ADVANCED_FACE ( 'NONE', ( #23 ), #190, .T. ) ;
#323 =( LENGTH_UNIT ( ) NAMED_UNIT ( * ) SI_UNIT ( $, .METRE. ) );
#324 = VERTEX_POINT ( 'NONE', #191 ) ;
#325 = DIRECTION ( 'NONE',  ( 0.0000000000000000000, 0.0000000000000000000, -1.000000000000000000 ) ) ;
#326 = ADVANCED_FACE ( 'NONE', ( #245 ), #243, .T. ) ;
#327 = ORIENTED_EDGE ( 'NONE', *, *, #305, .F. ) ;
#328 = ORIENTED_EDGE ( 'NONE', *, *, #188, .F. ) ;
#329 = COLOUR_RGB ( '',0.7921568627450980005, 0.8196078431372548767, 0.9333333333333333481 ) ;
ENDSEC;
END-ISO-10303-21;
