ISO-10303-21;
HEADER;
FILE_DESCRIPTION (( 'STEP AP214' ),
    '1' );
FILE_NAME ('Micro_KC-125-190-093X.STEP',
    '2021-09-03T19:10:39',
    ( '' ),
    ( '' ),
    'SwSTEP 2.0',
    'SolidWorks 2020',
    '' );
FILE_SCHEMA (( 'AUTOMOTIVE_DESIGN' ));
ENDSEC;

DATA;
#1 =( NAMED_UNIT ( * ) SI_UNIT ( $, .STERADIAN. ) SOLID_ANGLE_UNIT ( ) );
#2 = CIRCLE ( 'NONE', #42, 0.03100000000000001713 ) ;
#3 = PRODUCT_DEFINITION_CONTEXT ( 'detailed design', #145, 'design' ) ;
#4 = CARTESIAN_POINT ( 'NONE',  ( -0.04750000000000064587, 0.0000000000000000000, 1.500000000000000222 ) ) ;
#5 = EDGE_CURVE ( 'NONE', #40, #163, #335, .T. ) ;
#6 = PLANE ( 'NONE',  #345 ) ;
#7 = CARTESIAN_POINT ( 'NONE',  ( 0.04750000000000064587, 6.735557395310482421E-18, 1.500000000000000222 ) ) ;
#8 = CIRCLE ( 'NONE', #339, 0.06250000000000000000 ) ;
#9 = CYLINDRICAL_SURFACE ( 'NONE', #353, 0.06250000000000000000 ) ;
#10 = AXIS2_PLACEMENT_3D ( 'NONE', #364, #178, #117 ) ;
#11 = EDGE_CURVE ( 'NONE', #104, #139, #307, .T. ) ;
#12 = DIRECTION ( 'NONE',  ( 0.0000000000000000000, 0.0000000000000000000, -1.000000000000000000 ) ) ;
#13 = CARTESIAN_POINT ( 'NONE',  ( 0.06250000000000000000, 7.654042494670956004E-18, 1.500000000000000222 ) ) ;
#14 = ORIENTED_EDGE ( 'NONE', *, *, #11, .F. ) ;
#15 = PRESENTATION_LAYER_ASSIGNMENT (  '', '', ( #164 ) ) ;
#16 = CIRCLE ( 'NONE', #108, 0.06250000000000000000 ) ;
#17 = ORIENTED_EDGE ( 'NONE', *, *, #222, .F. ) ;
#18 = ORIENTED_EDGE ( 'NONE', *, *, #254, .F. ) ;
#19 = AXIS2_PLACEMENT_3D ( 'NONE', #209, #356, #215 ) ;
#20 =( NAMED_UNIT ( * ) PLANE_ANGLE_UNIT ( ) SI_UNIT ( $, .RADIAN. ) );
#21 = EDGE_CURVE ( 'NONE', #139, #104, #308, .T. ) ;
#22 = ORIENTED_EDGE ( 'NONE', *, *, #330, .T. ) ;
#23 = CARTESIAN_POINT ( 'NONE',  ( 0.0000000000000000000, 0.0000000000000000000, 0.2214999999999998359 ) ) ;
#24 = EDGE_LOOP ( 'NONE', ( #342, #39, #276, #43 ) ) ;
#25 = ADVANCED_FACE ( 'NONE', ( #83 ), #264, .T. ) ;
#26 =( GEOMETRIC_REPRESENTATION_CONTEXT ( 3 ) GLOBAL_UNCERTAINTY_ASSIGNED_CONTEXT ( ( #65 ) ) GLOBAL_UNIT_ASSIGNED_CONTEXT ( ( #181, #151, #1 ) ) REPRESENTATION_CONTEXT ( 'NONE', 'WORKASPACE' ) );
#27 = CARTESIAN_POINT ( 'NONE',  ( -0.06250000000000001388, 0.0000000000000000000, 0.09299999999999999933 ) ) ;
#28 = DIRECTION ( 'NONE',  ( -0.0000000000000000000, -0.0000000000000000000, -1.000000000000000000 ) ) ;
#29 = DIRECTION ( 'NONE',  ( -1.000000000000000000, 0.0000000000000000000, 0.0000000000000000000 ) ) ;
#30 = CARTESIAN_POINT ( 'NONE',  ( 0.0000000000000000000, 0.0000000000000000000, 1.500000000000000222 ) ) ;
#31 = CIRCLE ( 'NONE', #352, 0.06250000000000000000 ) ;
#32 = DIRECTION ( 'NONE',  ( 0.7071067811865489050, 0.0000000000000000000, 0.7071067811865461294 ) ) ;
#33 = CARTESIAN_POINT ( 'NONE',  ( -0.06250000000000000000, 0.0000000000000000000, 0.2214999999999998359 ) ) ;
#34 = ORIENTED_EDGE ( 'NONE', *, *, #142, .T. ) ;
#35 = CARTESIAN_POINT ( 'NONE',  ( 0.06250000000000000000, 7.654042494670956004E-18, 1.485000000000000764 ) ) ;
#36 = CARTESIAN_POINT ( 'NONE',  ( 0.0000000000000000000, 0.0000000000000000000, 0.0000000000000000000 ) ) ;
#37 = AXIS2_PLACEMENT_3D ( 'NONE', #378, #76, #200 ) ;
#38 = CARTESIAN_POINT ( 'NONE',  ( 0.0000000000000000000, 0.0000000000000000000, 1.500000000000000222 ) ) ;
#39 = ORIENTED_EDGE ( 'NONE', *, *, #336, .F. ) ;
#40 = VERTEX_POINT ( 'NONE', #372 ) ;
#41 = ADVANCED_FACE ( 'NONE', ( #298 ), #355, .T. ) ;
#42 = AXIS2_PLACEMENT_3D ( 'NONE', #96, #93, #300 ) ;
#43 = ORIENTED_EDGE ( 'NONE', *, *, #73, .T. ) ;
#44 = ORIENTED_EDGE ( 'NONE', *, *, #199, .T. ) ;
#45 = ADVANCED_FACE ( 'NONE', ( #88 ), #180, .T. ) ;
#46 = PRODUCT_CONTEXT ( 'NONE', #290, 'mechanical' ) ;
#47 = AXIS2_PLACEMENT_3D ( 'NONE', #69, #278, #162 ) ;
#48 = ORIENTED_EDGE ( 'NONE', *, *, #113, .F. ) ;
#49 = APPLICATION_PROTOCOL_DEFINITION ( 'draft international standard', 'automotive_design', 1998, #145 ) ;
#50 = CARTESIAN_POINT ( 'NONE',  ( 0.0000000000000000000, 0.0000000000000000000, 1.500000000000000222 ) ) ;
#51 = SURFACE_STYLE_USAGE ( .BOTH. , #85 ) ;
#52 = LENGTH_MEASURE_WITH_UNIT ( LENGTH_MEASURE( 0.02539999999999999897 ), #211 );
#53 = AXIS2_PLACEMENT_3D ( 'NONE', #213, #328, #267 ) ;
#54 = DIRECTION ( 'NONE',  ( 0.0000000000000000000, 0.0000000000000000000, 1.000000000000000000 ) ) ;
#55 = CARTESIAN_POINT ( 'NONE',  ( 0.0000000000000000000, 0.0000000000000000000, 1.500000000000000222 ) ) ;
#56 = DIRECTION ( 'NONE',  ( -1.000000000000000000, 0.0000000000000000000, 0.0000000000000000000 ) ) ;
#57 = LINE ( 'NONE', #4, #78 ) ;
#58 = DIRECTION ( 'NONE',  ( 0.0000000000000000000, 0.0000000000000000000, -1.000000000000000000 ) ) ;
#59 = FACE_OUTER_BOUND ( 'NONE', #165, .T. ) ;
#60 = DIRECTION ( 'NONE',  ( 1.000000000000000000, 0.0000000000000000000, 0.0000000000000000000 ) ) ;
#61 = DIRECTION ( 'NONE',  ( 0.0000000000000000000, 0.0000000000000000000, -1.000000000000000000 ) ) ;
#62 = VERTEX_POINT ( 'NONE', #350 ) ;
#63 = ADVANCED_FACE ( 'NONE', ( #326 ), #177, .F. ) ;
#64 = LINE ( 'NONE', #13, #229 ) ;
#65 = UNCERTAINTY_MEASURE_WITH_UNIT (LENGTH_MEASURE( 1.000000000000000082E-05 ), #181, 'distance_accuracy_value', 'NONE');
#66 = FACE_OUTER_BOUND ( 'NONE', #224, .T. ) ;
#67 = CLOSED_SHELL ( 'NONE', ( #293, #103, #106, #70, #25, #258, #41, #246, #368, #45, #282, #63, #338 ) ) ;
#68 = COLOUR_RGB ( '',0.7921568627450980005, 0.8196078431372548767, 0.9333333333333333481 ) ;
#69 = CARTESIAN_POINT ( 'NONE',  ( 0.0000000000000000000, 0.0000000000000000000, 0.09299999999999999933 ) ) ;
#70 = ADVANCED_FACE ( 'NONE', ( #375 ), #253, .T. ) ;
#71 = ORIENTED_EDGE ( 'NONE', *, *, #173, .T. ) ;
#72 = VECTOR ( 'NONE', #198, 39.37007874015748143 ) ;
#73 = EDGE_CURVE ( 'NONE', #373, #313, #8, .T. ) ;
#74 =( LENGTH_UNIT ( ) NAMED_UNIT ( * ) SI_UNIT ( $, .METRE. ) );
#75 = ORIENTED_EDGE ( 'NONE', *, *, #376, .T. ) ;
#76 = DIRECTION ( 'NONE',  ( 0.0000000000000000000, 0.0000000000000000000, 1.000000000000000000 ) ) ;
#77 = CARTESIAN_POINT ( 'NONE',  ( 0.03100000000000001713, 0.0000000000000000000, 0.1899999999999999745 ) ) ;
#78 = VECTOR ( 'NONE', #243, 39.37007874015748143 ) ;
#79 = MANIFOLD_SOLID_BREP ( 'Cut-Revolve1', #67 ) ;
#80 = ORIENTED_EDGE ( 'NONE', *, *, #216, .F. ) ;
#81 =( NAMED_UNIT ( * ) SI_UNIT ( $, .STERADIAN. ) SOLID_ANGLE_UNIT ( ) );
#82 = EDGE_CURVE ( 'NONE', #163, #166, #324, .T. ) ;
#83 = FACE_OUTER_BOUND ( 'NONE', #236, .T. ) ;
#84 = DIRECTION ( 'NONE',  ( 1.000000000000000000, 0.0000000000000000000, 0.0000000000000000000 ) ) ;
#85 = SURFACE_SIDE_STYLE ('',( #116 ) ) ;
#86 = MECHANICAL_DESIGN_GEOMETRIC_PRESENTATION_REPRESENTATION (  '', ( #164 ), #26 ) ;
#87 = AXIS2_PLACEMENT_3D ( 'NONE', #55, #295, #121 ) ;
#88 = FACE_OUTER_BOUND ( 'NONE', #226, .T. ) ;
#89 = STYLED_ITEM ( 'NONE', ( #266 ), #286 ) ;
#90 = DIRECTION ( 'NONE',  ( -0.0000000000000000000, -0.0000000000000000000, -1.000000000000000000 ) ) ;
#91 = DIRECTION ( 'NONE',  ( 1.000000000000000000, 0.0000000000000000000, 0.0000000000000000000 ) ) ;
#92 = LINE ( 'NONE', #214, #235 ) ;
#93 = DIRECTION ( 'NONE',  ( -0.0000000000000000000, -0.0000000000000000000, -1.000000000000000000 ) ) ;
#94 = VERTEX_POINT ( 'NONE', #27 ) ;
#95 = AXIS2_PLACEMENT_3D ( 'NONE', #379, #28, #29 ) ;
#96 = CARTESIAN_POINT ( 'NONE',  ( 0.0000000000000000000, 0.0000000000000000000, 0.1899999999999999745 ) ) ;
#97 = DIRECTION ( 'NONE',  ( -1.000000000000000000, 0.0000000000000000000, 0.0000000000000000000 ) ) ;
#98 = DIRECTION ( 'NONE',  ( 0.0000000000000000000, 0.0000000000000000000, 1.000000000000000000 ) ) ;
#99 = DIRECTION ( 'NONE',  ( 0.7071067811865456854, 8.659560562354911904E-17, -0.7071067811865493491 ) ) ;
#100 = ORIENTED_EDGE ( 'NONE', *, *, #321, .F. ) ;
#101 = ORIENTED_EDGE ( 'NONE', *, *, #222, .T. ) ;
#102 = CIRCLE ( 'NONE', #190, 0.06250000000000000000 ) ;
#103 = ADVANCED_FACE ( 'NONE', ( #144 ), #238, .T. ) ;
#104 = VERTEX_POINT ( 'NONE', #306 ) ;
#105 = ORIENTED_EDGE ( 'NONE', *, *, #376, .F. ) ;
#106 = ADVANCED_FACE ( 'NONE', ( #270 ), #260, .T. ) ;
#107 = VECTOR ( 'NONE', #112, 39.37007874015748143 ) ;
#108 = AXIS2_PLACEMENT_3D ( 'NONE', #36, #359, #156 ) ;
#109 = VERTEX_POINT ( 'NONE', #35 ) ;
#110 = ORIENTED_EDGE ( 'NONE', *, *, #216, .T. ) ;
#111 = DIRECTION ( 'NONE',  ( -0.0000000000000000000, -0.0000000000000000000, -1.000000000000000000 ) ) ;
#112 = DIRECTION ( 'NONE',  ( -0.0000000000000000000, -0.0000000000000000000, -1.000000000000000000 ) ) ;
#113 = EDGE_CURVE ( 'NONE', #40, #176, #305, .T. ) ;
#114 = AXIS2_PLACEMENT_3D ( 'NONE', #141, #54, #91 ) ;
#115 = CIRCLE ( 'NONE', #265, 0.06250000000000001388 ) ;
#116 = SURFACE_STYLE_FILL_AREA ( #322 ) ;
#117 = DIRECTION ( 'NONE',  ( 1.000000000000000000, 0.0000000000000000000, 0.0000000000000000000 ) ) ;
#118 = CARTESIAN_POINT ( 'NONE',  ( 0.0000000000000000000, 0.0000000000000000000, 0.0000000000000000000 ) ) ;
#119 = APPLICATION_PROTOCOL_DEFINITION ( 'draft international standard', 'automotive_design', 1998, #290 ) ;
#120 = DIRECTION ( 'NONE',  ( -0.0000000000000000000, -0.0000000000000000000, -1.000000000000000000 ) ) ;
#121 = DIRECTION ( 'NONE',  ( -1.000000000000000000, 0.0000000000000000000, 0.0000000000000000000 ) ) ;
#122 = CARTESIAN_POINT ( 'NONE',  ( 0.0000000000000000000, 0.0000000000000000000, 1.500000000000000222 ) ) ;
#123 = FACE_OUTER_BOUND ( 'NONE', #291, .T. ) ;
#124 = DIRECTION ( 'NONE',  ( -0.7071067811865489050, 8.659560562354950115E-17, 0.7071067811865461294 ) ) ;
#125 = ORIENTED_EDGE ( 'NONE', *, *, #21, .T. ) ;
#126 = ORIENTED_EDGE ( 'NONE', *, *, #21, .F. ) ;
#127 = MECHANICAL_DESIGN_GEOMETRIC_PRESENTATION_REPRESENTATION (  '', ( #89 ), #366 ) ;
#128 = UNCERTAINTY_MEASURE_WITH_UNIT (LENGTH_MEASURE( 1.000000000000000082E-05 ), #371, 'distance_accuracy_value', 'NONE');
#129 = CARTESIAN_POINT ( 'NONE',  ( -0.03100000000000001713, 3.796405077356796551E-18, 0.1899999999999999745 ) ) ;
#130 = CARTESIAN_POINT ( 'NONE',  ( 0.03100000000000001019, 3.796405077356796551E-18, 0.09299999999999999933 ) ) ;
#131 = ORIENTED_EDGE ( 'NONE', *, *, #113, .T. ) ;
#132 = DIRECTION ( 'NONE',  ( -0.0000000000000000000, -0.0000000000000000000, -1.000000000000000000 ) ) ;
#133 = PRESENTATION_LAYER_ASSIGNMENT (  '', '', ( #89 ) ) ;
#134 = ORIENTED_EDGE ( 'NONE', *, *, #254, .T. ) ;
#135 = ORIENTED_EDGE ( 'NONE', *, *, #377, .F. ) ;
#136 = ORIENTED_EDGE ( 'NONE', *, *, #358, .F. ) ;
#137 = AXIS2_PLACEMENT_3D ( 'NONE', #186, #241, #310 ) ;
#138 = VECTOR ( 'NONE', #99, 39.37007874015748143 ) ;
#139 = VERTEX_POINT ( 'NONE', #7 ) ;
#140 = DIRECTION ( 'NONE',  ( -0.0000000000000000000, -0.0000000000000000000, -1.000000000000000000 ) ) ;
#141 = CARTESIAN_POINT ( 'NONE',  ( 0.0000000000000000000, 0.0000000000000000000, 1.500000000000000222 ) ) ;
#142 = EDGE_CURVE ( 'NONE', #109, #274, #171, .T. ) ;
#143 = ORIENTED_EDGE ( 'NONE', *, *, #287, .F. ) ;
#144 = FACE_OUTER_BOUND ( 'NONE', #197, .T. ) ;
#145 = APPLICATION_CONTEXT ( 'automotive_design' ) ;
#146 = EDGE_LOOP ( 'NONE', ( #101, #110 ) ) ;
#147 =( NAMED_UNIT ( * ) PLANE_ANGLE_UNIT ( ) SI_UNIT ( $, .RADIAN. ) );
#148 = CARTESIAN_POINT ( 'NONE',  ( 0.0000000000000000000, 0.0000000000000000000, 1.500000000000000222 ) ) ;
#149 = EDGE_CURVE ( 'NONE', #274, #109, #102, .T. ) ;
#150 = CARTESIAN_POINT ( 'NONE',  ( 0.0000000000000000000, 0.0000000000000000000, 1.500000000000000222 ) ) ;
#151 =( NAMED_UNIT ( * ) PLANE_ANGLE_UNIT ( ) SI_UNIT ( $, .RADIAN. ) );
#152 = DIRECTION ( 'NONE',  ( -0.0000000000000000000, -0.0000000000000000000, -1.000000000000000000 ) ) ;
#153 = DIRECTION ( 'NONE',  ( -0.0000000000000000000, -0.0000000000000000000, -1.000000000000000000 ) ) ;
#154 = AXIS2_PLACEMENT_3D ( 'NONE', #38, #132, #285 ) ;
#155 = CARTESIAN_POINT ( 'NONE',  ( 0.06250000000000001388, 0.0000000000000000000, 0.09299999999999999933 ) ) ;
#156 = DIRECTION ( 'NONE',  ( 1.000000000000000000, 0.0000000000000000000, 0.0000000000000000000 ) ) ;
#157 = ORIENTED_EDGE ( 'NONE', *, *, #11, .T. ) ;
#158 = CIRCLE ( 'NONE', #19, 0.06250000000000000000 ) ;
#159 = DIRECTION ( 'NONE',  ( -0.0000000000000000000, -0.0000000000000000000, -1.000000000000000000 ) ) ;
#160 = UNCERTAINTY_MEASURE_WITH_UNIT (LENGTH_MEASURE( 1.000000000000000082E-05 ), #325, 'distance_accuracy_value', 'NONE');
#161 = DIRECTION ( 'NONE',  ( -0.0000000000000000000, -0.0000000000000000000, -1.000000000000000000 ) ) ;
#162 = DIRECTION ( 'NONE',  ( -1.000000000000000000, 0.0000000000000000000, 0.0000000000000000000 ) ) ;
#163 = VERTEX_POINT ( 'NONE', #196 ) ;
#164 = STYLED_ITEM ( 'NONE', ( #233 ), #79 ) ;
#165 = EDGE_LOOP ( 'NONE', ( #172, #135 ) ) ;
#166 = VERTEX_POINT ( 'NONE', #130 ) ;
#167 = FACE_OUTER_BOUND ( 'NONE', #24, .T. ) ;
#168 = DIRECTION ( 'NONE',  ( -1.000000000000000000, 0.0000000000000000000, 0.0000000000000000000 ) ) ;
#169 = EDGE_LOOP ( 'NONE', ( #126, #134, #333, #340 ) ) ;
#170 = FILL_AREA_STYLE_COLOUR ( '', #314 ) ;
#171 = CIRCLE ( 'NONE', #301, 0.06250000000000000000 ) ;
#172 = ORIENTED_EDGE ( 'NONE', *, *, #259, .F. ) ;
#173 = EDGE_CURVE ( 'NONE', #313, #373, #31, .T. ) ;
#174 = DIRECTION ( 'NONE',  ( 0.0000000000000000000, 0.0000000000000000000, 1.000000000000000000 ) ) ;
#175 = SURFACE_STYLE_FILL_AREA ( #294 ) ;
#176 = VERTEX_POINT ( 'NONE', #205 ) ;
#177 = PLANE ( 'NONE',  #53 ) ;
#178 = DIRECTION ( 'NONE',  ( 0.0000000000000000000, 0.0000000000000000000, 1.000000000000000000 ) ) ;
#179 = CONICAL_SURFACE ( 'NONE', #10, 0.03100000000000001713, 0.7853981633974502774 ) ;
#180 = CYLINDRICAL_SURFACE ( 'NONE', #95, 0.03100000000000001713 ) ;
#181 =( CONVERSION_BASED_UNIT ( 'INCH', #52 ) LENGTH_UNIT ( ) NAMED_UNIT ( #201 ) );
#182 = DIRECTION ( 'NONE',  ( 1.000000000000000000, 0.0000000000000000000, 0.0000000000000000000 ) ) ;
#183 = AXIS2_PLACEMENT_3D ( 'NONE', #227, #315, #168 ) ;
#184 = ORIENTED_EDGE ( 'NONE', *, *, #377, .T. ) ;
#185 = FACE_OUTER_BOUND ( 'NONE', #195, .T. ) ;
#186 = CARTESIAN_POINT ( 'NONE',  ( 0.0000000000000000000, 0.0000000000000000000, 0.1899999999999999745 ) ) ;
#187 = DIRECTION ( 'NONE',  ( 1.000000000000000000, 0.0000000000000000000, -0.0000000000000000000 ) ) ;
#188 = CARTESIAN_POINT ( 'NONE',  ( -0.06250000000000000000, 0.0000000000000000000, 1.485000000000000764 ) ) ;
#189 = ORIENTED_EDGE ( 'NONE', *, *, #199, .F. ) ;
#190 = AXIS2_PLACEMENT_3D ( 'NONE', #362, #334, #252 ) ;
#191 =( GEOMETRIC_REPRESENTATION_CONTEXT ( 3 ) GLOBAL_UNCERTAINTY_ASSIGNED_CONTEXT ( ( #128 ) ) GLOBAL_UNIT_ASSIGNED_CONTEXT ( ( #371, #20, #343 ) ) REPRESENTATION_CONTEXT ( 'NONE', 'WORKASPACE' ) );
#192 = CARTESIAN_POINT ( 'NONE',  ( 0.0000000000000000000, 0.0000000000000000000, 0.09299999999999999933 ) ) ;
#193 = ORIENTED_EDGE ( 'NONE', *, *, #321, .T. ) ;
#194 = LINE ( 'NONE', #77, #245 ) ;
#195 = EDGE_LOOP ( 'NONE', ( #263, #184, #206, #44 ) ) ;
#196 = CARTESIAN_POINT ( 'NONE',  ( 0.03100000000000001713, 0.0000000000000000000, 0.1899999999999999745 ) ) ;
#197 = EDGE_LOOP ( 'NONE', ( #228, #262, #17, #48 ) ) ;
#198 = DIRECTION ( 'NONE',  ( -0.0000000000000000000, -0.0000000000000000000, -1.000000000000000000 ) ) ;
#199 = EDGE_CURVE ( 'NONE', #316, #62, #158, .T. ) ;
#200 = DIRECTION ( 'NONE',  ( 1.000000000000000000, 0.0000000000000000000, 0.0000000000000000000 ) ) ;
#201 = DIMENSIONAL_EXPONENTS ( 1.000000000000000000, 0.0000000000000000000, 0.0000000000000000000, 0.0000000000000000000, 0.0000000000000000000, 0.0000000000000000000, 0.0000000000000000000 ) ;
#202 = VECTOR ( 'NONE', #159, 39.37007874015748143 ) ;
#203 = PRODUCT_DEFINITION_FORMATION_WITH_SPECIFIED_SOURCE ( 'ANY', '', #256, .NOT_KNOWN. ) ;
#204 = ORIENTED_EDGE ( 'NONE', *, *, #173, .F. ) ;
#205 = CARTESIAN_POINT ( 'NONE',  ( -0.03100000000000001019, 0.0000000000000000000, 0.09299999999999999933 ) ) ;
#206 = ORIENTED_EDGE ( 'NONE', *, *, #358, .T. ) ;
#207 = CARTESIAN_POINT ( 'NONE',  ( -0.06250000000000000000, 0.0000000000000000000, 1.500000000000000222 ) ) ;
#208 = DIRECTION ( 'NONE',  ( -0.0000000000000000000, -0.0000000000000000000, -1.000000000000000000 ) ) ;
#209 = CARTESIAN_POINT ( 'NONE',  ( 0.0000000000000000000, 0.0000000000000000000, 0.0000000000000000000 ) ) ;
#210 =( LENGTH_UNIT ( ) NAMED_UNIT ( * ) SI_UNIT ( $, .METRE. ) );
#211 =( LENGTH_UNIT ( ) NAMED_UNIT ( * ) SI_UNIT ( $, .METRE. ) );
#212 = AXIS2_PLACEMENT_3D ( 'NONE', #30, #152, #331 ) ;
#213 = CARTESIAN_POINT ( 'NONE',  ( 0.0000000000000000000, 0.0000000000000000000, 0.0000000000000000000 ) ) ;
#214 = CARTESIAN_POINT ( 'NONE',  ( 0.06250000000000000000, 7.654042494670956004E-18, 1.500000000000000222 ) ) ;
#215 = DIRECTION ( 'NONE',  ( 1.000000000000000000, 0.0000000000000000000, 0.0000000000000000000 ) ) ;
#216 = EDGE_CURVE ( 'NONE', #166, #176, #225, .T. ) ;
#217 = DIRECTION ( 'NONE',  ( -1.000000000000000000, 0.0000000000000000000, 0.0000000000000000000 ) ) ;
#218 = AXIS2_PLACEMENT_3D ( 'NONE', #220, #61, #217 ) ;
#219 = CYLINDRICAL_SURFACE ( 'NONE', #212, 0.06250000000000000000 ) ;
#220 = CARTESIAN_POINT ( 'NONE',  ( 0.0000000000000000000, 0.0000000000000000000, 1.500000000000000222 ) ) ;
#221 = ORIENTED_EDGE ( 'NONE', *, *, #269, .F. ) ;
#222 = EDGE_CURVE ( 'NONE', #176, #166, #271, .T. ) ;
#223 = FACE_OUTER_BOUND ( 'NONE', #317, .T. ) ;
#224 = EDGE_LOOP ( 'NONE', ( #347, #370, #360, #136 ) ) ;
#225 = CIRCLE ( 'NONE', #47, 0.03100000000000001019 ) ;
#226 = EDGE_LOOP ( 'NONE', ( #369, #247, #131, #80 ) ) ;
#227 = CARTESIAN_POINT ( 'NONE',  ( 0.0000000000000000000, 0.0000000000000000000, 0.09299999999999999933 ) ) ;
#228 = ORIENTED_EDGE ( 'NONE', *, *, #5, .T. ) ;
#229 = VECTOR ( 'NONE', #90, 39.37007874015748143 ) ;
#230 = PRODUCT_DEFINITION ( 'UNKNOWN', '', #203, #3 ) ;
#231 = DIMENSIONAL_EXPONENTS ( 1.000000000000000000, 0.0000000000000000000, 0.0000000000000000000, 0.0000000000000000000, 0.0000000000000000000, 0.0000000000000000000, 0.0000000000000000000 ) ;
#232 = DIRECTION ( 'NONE',  ( -1.000000000000000000, 0.0000000000000000000, 0.0000000000000000000 ) ) ;
#233 = PRESENTATION_STYLE_ASSIGNMENT (( #51 ) ) ;
#234 = AXIS2_PLACEMENT_3D ( 'NONE', #192, #153, #97 ) ;
#235 = VECTOR ( 'NONE', #367, 39.37007874015748143 ) ;
#236 = EDGE_LOOP ( 'NONE', ( #257, #193, #204, #105 ) ) ;
#237 = SURFACE_SIDE_STYLE ('',( #175 ) ) ;
#238 = CYLINDRICAL_SURFACE ( 'NONE', #337, 0.03100000000000001713 ) ;
#239 = LINE ( 'NONE', #207, #72 ) ;
#240 = DIRECTION ( 'NONE',  ( 1.000000000000000000, 0.0000000000000000000, 0.0000000000000000000 ) ) ;
#241 = DIRECTION ( 'NONE',  ( 0.0000000000000000000, 0.0000000000000000000, 1.000000000000000000 ) ) ;
#242 = DIRECTION ( 'NONE',  ( -1.000000000000000000, 0.0000000000000000000, 0.0000000000000000000 ) ) ;
#243 = DIRECTION ( 'NONE',  ( -0.7071067811865456854, 0.0000000000000000000, -0.7071067811865493491 ) ) ;
#244 = LINE ( 'NONE', #129, #261 ) ;
#245 = VECTOR ( 'NONE', #32, 39.37007874015748143 ) ;
#246 = ADVANCED_FACE ( 'NONE', ( #123 ), #284, .T. ) ;
#247 = ORIENTED_EDGE ( 'NONE', *, *, #336, .T. ) ;
#248 = LINE ( 'NONE', #361, #138 ) ;
#249 = PRODUCT_DEFINITION_SHAPE ( 'NONE', 'NONE',  #230 ) ;
#250 = EDGE_LOOP ( 'NONE', ( #288, #304, #71, #221 ) ) ;
#251 = FACE_BOUND ( 'NONE', #146, .T. ) ;
#252 = DIRECTION ( 'NONE',  ( 1.000000000000000000, 0.0000000000000000000, 0.0000000000000000000 ) ) ;
#253 = CONICAL_SURFACE ( 'NONE', #365, 0.04750000000000064587, 0.7853981633974457255 ) ;
#254 = EDGE_CURVE ( 'NONE', #139, #109, #248, .T. ) ;
#255 = DIMENSIONAL_EXPONENTS ( 1.000000000000000000, 0.0000000000000000000, 0.0000000000000000000, 0.0000000000000000000, 0.0000000000000000000, 0.0000000000000000000, 0.0000000000000000000 ) ;
#256 = PRODUCT ( 'Micro_KC-125-190-093X', 'Micro_KC-125-190-093X', '', ( #46 ) ) ;
#257 = ORIENTED_EDGE ( 'NONE', *, *, #149, .T. ) ;
#258 = ADVANCED_FACE ( 'NONE', ( #223 ), #332, .T. ) ;
#259 = EDGE_CURVE ( 'NONE', #94, #323, #354, .T. ) ;
#260 = CONICAL_SURFACE ( 'NONE', #137, 0.03100000000000001713, 0.7853981633974502774 ) ;
#261 = VECTOR ( 'NONE', #124, 39.37007874015748143 ) ;
#262 = ORIENTED_EDGE ( 'NONE', *, *, #82, .T. ) ;
#263 = ORIENTED_EDGE ( 'NONE', *, *, #363, .F. ) ;
#264 = CYLINDRICAL_SURFACE ( 'NONE', #87, 0.06250000000000000000 ) ;
#265 = AXIS2_PLACEMENT_3D ( 'NONE', #292, #111, #289 ) ;
#266 = PRESENTATION_STYLE_ASSIGNMENT (( #349 ) ) ;
#267 = DIRECTION ( 'NONE',  ( 1.000000000000000000, 0.0000000000000000000, -0.0000000000000000000 ) ) ;
#268 = DIRECTION ( 'NONE',  ( 0.0000000000000000000, 0.0000000000000000000, 1.000000000000000000 ) ) ;
#269 = EDGE_CURVE ( 'NONE', #163, #373, #194, .T. ) ;
#270 = FACE_OUTER_BOUND ( 'NONE', #250, .T. ) ;
#271 = CIRCLE ( 'NONE', #234, 0.03100000000000001019 ) ;
#272 = DIRECTION ( 'NONE',  ( -0.0000000000000000000, -0.0000000000000000000, -1.000000000000000000 ) ) ;
#273 = DIRECTION ( 'NONE',  ( -1.000000000000000000, 0.0000000000000000000, 0.0000000000000000000 ) ) ;
#274 = VERTEX_POINT ( 'NONE', #188 ) ;
#275 = LINE ( 'NONE', #277, #302 ) ;
#276 = ORIENTED_EDGE ( 'NONE', *, *, #269, .T. ) ;
#277 = CARTESIAN_POINT ( 'NONE',  ( -0.06250000000000000000, 0.0000000000000000000, 1.500000000000000222 ) ) ;
#278 = DIRECTION ( 'NONE',  ( -0.0000000000000000000, -0.0000000000000000000, -1.000000000000000000 ) ) ;
#279 = AXIS2_PLACEMENT_3D ( 'NONE', #50, #174, #182 ) ;
#280 = ORIENTED_EDGE ( 'NONE', *, *, #73, .F. ) ;
#281 = CARTESIAN_POINT ( 'NONE',  ( 0.0000000000000000000, 0.0000000000000000000, 1.485000000000000764 ) ) ;
#282 = ADVANCED_FACE ( 'NONE', ( #251, #59 ), #6, .T. ) ;
#283 = ORIENTED_EDGE ( 'NONE', *, *, #142, .F. ) ;
#284 = CONICAL_SURFACE ( 'NONE', #218, 0.04750000000000064587, 0.7853981633974457255 ) ;
#285 = DIRECTION ( 'NONE',  ( -1.000000000000000000, 0.0000000000000000000, 0.0000000000000000000 ) ) ;
#286 = ADVANCED_BREP_SHAPE_REPRESENTATION ( 'Micro_KC-125-190-093X', ( #79, #37 ), #191 ) ;
#287 = EDGE_CURVE ( 'NONE', #62, #316, #16, .T. ) ;
#288 = ORIENTED_EDGE ( 'NONE', *, *, #5, .F. ) ;
#289 = DIRECTION ( 'NONE',  ( -1.000000000000000000, 0.0000000000000000000, 0.0000000000000000000 ) ) ;
#290 = APPLICATION_CONTEXT ( 'automotive_design' ) ;
#291 = EDGE_LOOP ( 'NONE', ( #18, #14, #22, #283 ) ) ;
#292 = CARTESIAN_POINT ( 'NONE',  ( 0.0000000000000000000, 0.0000000000000000000, 0.09299999999999999933 ) ) ;
#293 = ADVANCED_FACE ( 'NONE', ( #66 ), #9, .T. ) ;
#294 = FILL_AREA_STYLE ('',( #170 ) ) ;
#295 = DIRECTION ( 'NONE',  ( -0.0000000000000000000, -0.0000000000000000000, -1.000000000000000000 ) ) ;
#296 = AXIS2_PLACEMENT_3D ( 'NONE', #319, #140, #232 ) ;
#297 = CARTESIAN_POINT ( 'NONE',  ( 0.06250000000000000000, 7.654042494670956004E-18, 0.2214999999999998359 ) ) ;
#298 = FACE_OUTER_BOUND ( 'NONE', #309, .T. ) ;
#299 = PRODUCT_RELATED_PRODUCT_CATEGORY ( 'part', '', ( #256 ) ) ;
#300 = DIRECTION ( 'NONE',  ( -1.000000000000000000, 0.0000000000000000000, 0.0000000000000000000 ) ) ;
#301 = AXIS2_PLACEMENT_3D ( 'NONE', #281, #12, #60 ) ;
#302 = VECTOR ( 'NONE', #272, 39.37007874015748143 ) ;
#303 = EDGE_LOOP ( 'NONE', ( #189, #143 ) ) ;
#304 = ORIENTED_EDGE ( 'NONE', *, *, #311, .T. ) ;
#305 = LINE ( 'NONE', #312, #202 ) ;
#306 = CARTESIAN_POINT ( 'NONE',  ( -0.04750000000000064587, 0.0000000000000000000, 1.500000000000000222 ) ) ;
#307 = CIRCLE ( 'NONE', #279, 0.04750000000000064587 ) ;
#308 = CIRCLE ( 'NONE', #114, 0.04750000000000064587 ) ;
#309 = EDGE_LOOP ( 'NONE', ( #157, #125 ) ) ;
#310 = DIRECTION ( 'NONE',  ( 1.000000000000000000, 0.0000000000000000000, 0.0000000000000000000 ) ) ;
#311 = EDGE_CURVE ( 'NONE', #40, #313, #244, .T. ) ;
#312 = CARTESIAN_POINT ( 'NONE',  ( -0.03100000000000001713, 0.0000000000000000000, 0.0000000000000000000 ) ) ;
#313 = VERTEX_POINT ( 'NONE', #33 ) ;
#314 = COLOUR_RGB ( '',0.7921568627450980005, 0.8196078431372548767, 0.9333333333333333481 ) ;
#315 = DIRECTION ( 'NONE',  ( -0.0000000000000000000, -0.0000000000000000000, -1.000000000000000000 ) ) ;
#316 = VERTEX_POINT ( 'NONE', #357 ) ;
#317 = EDGE_LOOP ( 'NONE', ( #100, #34, #75, #280 ) ) ;
#318 = SHAPE_DEFINITION_REPRESENTATION ( #249, #286 ) ;
#319 = CARTESIAN_POINT ( 'NONE',  ( 0.0000000000000000000, 0.0000000000000000000, 0.1899999999999999745 ) ) ;
#320 = LENGTH_MEASURE_WITH_UNIT ( LENGTH_MEASURE( 0.02539999999999999897 ), #74 );
#321 = EDGE_CURVE ( 'NONE', #109, #373, #64, .T. ) ;
#322 = FILL_AREA_STYLE ('',( #351 ) ) ;
#323 = VERTEX_POINT ( 'NONE', #327 ) ;
#324 = LINE ( 'NONE', #348, #107 ) ;
#325 =( CONVERSION_BASED_UNIT ( 'INCH', #374 ) LENGTH_UNIT ( ) NAMED_UNIT ( #231 ) );
#326 = FACE_OUTER_BOUND ( 'NONE', #303, .T. ) ;
#327 = CARTESIAN_POINT ( 'NONE',  ( 0.06250000000000001388, 7.654042494670957545E-18, 0.09299999999999999933 ) ) ;
#328 = DIRECTION ( 'NONE',  ( 0.0000000000000000000, 0.0000000000000000000, 1.000000000000000000 ) ) ;
#329 = AXIS2_PLACEMENT_3D ( 'NONE', #148, #268, #344 ) ;
#330 = EDGE_CURVE ( 'NONE', #104, #274, #57, .T. ) ;
#331 = DIRECTION ( 'NONE',  ( -1.000000000000000000, 0.0000000000000000000, 0.0000000000000000000 ) ) ;
#332 = CYLINDRICAL_SURFACE ( 'NONE', #154, 0.06250000000000000000 ) ;
#333 = ORIENTED_EDGE ( 'NONE', *, *, #149, .F. ) ;
#334 = DIRECTION ( 'NONE',  ( 0.0000000000000000000, 0.0000000000000000000, -1.000000000000000000 ) ) ;
#335 = CIRCLE ( 'NONE', #296, 0.03100000000000001713 ) ;
#336 = EDGE_CURVE ( 'NONE', #163, #40, #2, .T. ) ;
#337 = AXIS2_PLACEMENT_3D ( 'NONE', #118, #208, #56 ) ;
#338 = ADVANCED_FACE ( 'NONE', ( #185 ), #219, .T. ) ;
#339 = AXIS2_PLACEMENT_3D ( 'NONE', #23, #120, #240 ) ;
#340 = ORIENTED_EDGE ( 'NONE', *, *, #330, .F. ) ;
#341 = CARTESIAN_POINT ( 'NONE',  ( 0.0000000000000000000, 0.0000000000000000000, 0.2214999999999998359 ) ) ;
#342 = ORIENTED_EDGE ( 'NONE', *, *, #311, .F. ) ;
#343 =( NAMED_UNIT ( * ) SI_UNIT ( $, .STERADIAN. ) SOLID_ANGLE_UNIT ( ) );
#344 = DIRECTION ( 'NONE',  ( 1.000000000000000000, 0.0000000000000000000, -0.0000000000000000000 ) ) ;
#345 = AXIS2_PLACEMENT_3D ( 'NONE', #155, #98, #187 ) ;
#346 = DIRECTION ( 'NONE',  ( -0.0000000000000000000, -0.0000000000000000000, -1.000000000000000000 ) ) ;
#347 = ORIENTED_EDGE ( 'NONE', *, *, #259, .T. ) ;
#348 = CARTESIAN_POINT ( 'NONE',  ( 0.03100000000000001713, 3.796405077356796551E-18, 0.0000000000000000000 ) ) ;
#349 = SURFACE_STYLE_USAGE ( .BOTH. , #237 ) ;
#350 = CARTESIAN_POINT ( 'NONE',  ( 0.06250000000000000000, 7.654042494670956004E-18, 0.0000000000000000000 ) ) ;
#351 = FILL_AREA_STYLE_COLOUR ( '', #68 ) ;
#352 = AXIS2_PLACEMENT_3D ( 'NONE', #341, #346, #84 ) ;
#353 = AXIS2_PLACEMENT_3D ( 'NONE', #122, #161, #273 ) ;
#354 = CIRCLE ( 'NONE', #183, 0.06250000000000001388 ) ;
#355 = PLANE ( 'NONE',  #329 ) ;
#356 = DIRECTION ( 'NONE',  ( 0.0000000000000000000, 0.0000000000000000000, 1.000000000000000000 ) ) ;
#357 = CARTESIAN_POINT ( 'NONE',  ( -0.06250000000000000000, 0.0000000000000000000, 0.0000000000000000000 ) ) ;
#358 = EDGE_CURVE ( 'NONE', #94, #316, #275, .T. ) ;
#359 = DIRECTION ( 'NONE',  ( 0.0000000000000000000, 0.0000000000000000000, 1.000000000000000000 ) ) ;
#360 = ORIENTED_EDGE ( 'NONE', *, *, #287, .T. ) ;
#361 = CARTESIAN_POINT ( 'NONE',  ( 0.04750000000000064587, 5.817072295950006528E-18, 1.500000000000000222 ) ) ;
#362 = CARTESIAN_POINT ( 'NONE',  ( 0.0000000000000000000, 0.0000000000000000000, 1.485000000000000764 ) ) ;
#363 = EDGE_CURVE ( 'NONE', #323, #62, #92, .T. ) ;
#364 = CARTESIAN_POINT ( 'NONE',  ( 0.0000000000000000000, 0.0000000000000000000, 0.1899999999999999745 ) ) ;
#365 = AXIS2_PLACEMENT_3D ( 'NONE', #150, #58, #242 ) ;
#366 =( GEOMETRIC_REPRESENTATION_CONTEXT ( 3 ) GLOBAL_UNCERTAINTY_ASSIGNED_CONTEXT ( ( #160 ) ) GLOBAL_UNIT_ASSIGNED_CONTEXT ( ( #325, #147, #81 ) ) REPRESENTATION_CONTEXT ( 'NONE', 'WORKASPACE' ) );
#367 = DIRECTION ( 'NONE',  ( -0.0000000000000000000, -0.0000000000000000000, -1.000000000000000000 ) ) ;
#368 = ADVANCED_FACE ( 'NONE', ( #167 ), #179, .T. ) ;
#369 = ORIENTED_EDGE ( 'NONE', *, *, #82, .F. ) ;
#370 = ORIENTED_EDGE ( 'NONE', *, *, #363, .T. ) ;
#371 =( CONVERSION_BASED_UNIT ( 'INCH', #320 ) LENGTH_UNIT ( ) NAMED_UNIT ( #255 ) );
#372 = CARTESIAN_POINT ( 'NONE',  ( -0.03100000000000001713, 5.725223786013877433E-18, 0.1899999999999999745 ) ) ;
#373 = VERTEX_POINT ( 'NONE', #297 ) ;
#374 = LENGTH_MEASURE_WITH_UNIT ( LENGTH_MEASURE( 0.02539999999999999897 ), #210 );
#375 = FACE_OUTER_BOUND ( 'NONE', #169, .T. ) ;
#376 = EDGE_CURVE ( 'NONE', #274, #313, #239, .T. ) ;
#377 = EDGE_CURVE ( 'NONE', #323, #94, #115, .T. ) ;
#378 = CARTESIAN_POINT ( 'NONE',  ( 0.0000000000000000000, 0.0000000000000000000, 0.0000000000000000000 ) ) ;
#379 = CARTESIAN_POINT ( 'NONE',  ( 0.0000000000000000000, 0.0000000000000000000, 0.0000000000000000000 ) ) ;
ENDSEC;
END-ISO-10303-21;
