ISO-10303-21;
HEADER;
FILE_DESCRIPTION (( 'STEP AP214' ),
    '1' );
FILE_NAME ('Micro_CREM-060-200X.STEP',
    '2021-09-02T15:22:24',
    ( '' ),
    ( '' ),
    'SwSTEP 2.0',
    'SolidWorks 2020',
    '' );
FILE_SCHEMA (( 'AUTOMOTIVE_DESIGN' ));
ENDSEC;

DATA;
#1 =( NAMED_UNIT ( * ) PLANE_ANGLE_UNIT ( ) SI_UNIT ( $, .RADIAN. ) );
#2 = DIRECTION ( 'NONE',  ( -1.250499981774462892E-16, -0.0000000000000000000, -1.000000000000000000 ) ) ;
#3 = SURFACE_SIDE_STYLE ('',( #201 ) ) ;
#4 = CARTESIAN_POINT ( 'NONE',  ( 0.1031100000000002709, 1.354581824536889030E-17, 2.244094000000000033 ) ) ;
#5 = CYLINDRICAL_SURFACE ( 'NONE', #88, 0.1181100000000000344 ) ;
#6 = EDGE_CURVE ( 'NONE', #113, #143, #28, .T. ) ;
#7 =( CONVERSION_BASED_UNIT ( 'INCH', #193 ) LENGTH_UNIT ( ) NAMED_UNIT ( #255 ) );
#8 =( NAMED_UNIT ( * ) SI_UNIT ( $, .STERADIAN. ) SOLID_ANGLE_UNIT ( ) );
#9 = AXIS2_PLACEMENT_3D ( 'NONE', #280, #224, #102 ) ;
#10 = ORIENTED_EDGE ( 'NONE', *, *, #240, .T. ) ;
#11 =( CONVERSION_BASED_UNIT ( 'INCH', #85 ) LENGTH_UNIT ( ) NAMED_UNIT ( #284 ) );
#12 = CONICAL_SURFACE ( 'NONE', #190, 0.1031100000000002709, 0.7853981633974318477 ) ;
#13 = AXIS2_PLACEMENT_3D ( 'NONE', #79, #27, #179 ) ;
#14 = MECHANICAL_DESIGN_GEOMETRIC_PRESENTATION_REPRESENTATION (  '', ( #83 ), #239 ) ;
#15 = DIRECTION ( 'NONE',  ( -1.250499981774462892E-16, -0.0000000000000000000, -1.000000000000000000 ) ) ;
#16 = ORIENTED_EDGE ( 'NONE', *, *, #103, .T. ) ;
#17 = CARTESIAN_POINT ( 'NONE',  ( 0.0000000000000000000, 0.0000000000000000000, 2.244094000000000033 ) ) ;
#18 = ORIENTED_EDGE ( 'NONE', *, *, #68, .F. ) ;
#19 = EDGE_CURVE ( 'NONE', #218, #260, #268, .T. ) ;
#20 = TOROIDAL_SURFACE ( 'NONE', #69, 0.1082639832375812544, 0.07874000000000000443 ) ;
#21 = CARTESIAN_POINT ( 'NONE',  ( 0.1181100000000000344, 1.446430334472939084E-17, 0.08385799879175276361 ) ) ;
#22 = FACE_OUTER_BOUND ( 'NONE', #71, .T. ) ;
#23 = ORIENTED_EDGE ( 'NONE', *, *, #68, .T. ) ;
#24 = DIRECTION ( 'NONE',  ( -1.250499981774462892E-16, 0.0000000000000000000, -1.000000000000000000 ) ) ;
#25 = DIRECTION ( 'NONE',  ( -1.250499981774462892E-16, -0.0000000000000000000, -1.000000000000000000 ) ) ;
#26 = EDGE_LOOP ( 'NONE', ( #233, #221 ) ) ;
#27 = DIRECTION ( 'NONE',  ( -1.250499981774462892E-16, -0.0000000000000000000, -1.000000000000000000 ) ) ;
#28 = CIRCLE ( 'NONE', #212, 0.1181100000000000344 ) ;
#29 = CARTESIAN_POINT ( 'NONE',  ( 0.02952398323758127080, 3.615645156998400008E-18, 0.0000000000000000000 ) ) ;
#30 = SURFACE_STYLE_USAGE ( .BOTH. , #3 ) ;
#31 = CARTESIAN_POINT ( 'NONE',  ( 0.0000000000000000000, 0.0000000000000000000, 2.244094000000000033 ) ) ;
#32 = CARTESIAN_POINT ( 'NONE',  ( -0.1082639832375812544, 0.0000000000000000000, 0.08385799879175270810 ) ) ;
#33 = SURFACE_SIDE_STYLE ('',( #60 ) ) ;
#34 =( CONVERSION_BASED_UNIT ( 'INCH', #161 ) LENGTH_UNIT ( ) NAMED_UNIT ( #231 ) );
#35 = SURFACE_STYLE_USAGE ( .BOTH. , #33 ) ;
#36 = ORIENTED_EDGE ( 'NONE', *, *, #186, .T. ) ;
#37 = ORIENTED_EDGE ( 'NONE', *, *, #285, .F. ) ;
#38 = EDGE_LOOP ( 'NONE', ( #37, #271 ) ) ;
#39 = CARTESIAN_POINT ( 'NONE',  ( -0.1082639832375812405, 0.0000000000000000000, 0.08385799879175270810 ) ) ;
#40 = ADVANCED_FACE ( 'NONE', ( #331 ), #56, .T. ) ;
#41 = VERTEX_POINT ( 'NONE', #182 ) ;
#42 = AXIS2_PLACEMENT_3D ( 'NONE', #149, #80, #175 ) ;
#43 = ORIENTED_EDGE ( 'NONE', *, *, #269, .T. ) ;
#44 = AXIS2_PLACEMENT_3D ( 'NONE', #273, #251, #287 ) ;
#45 = UNCERTAINTY_MEASURE_WITH_UNIT (LENGTH_MEASURE( 1.000000000000000082E-05 ), #11, 'distance_accuracy_value', 'NONE');
#46 = EDGE_LOOP ( 'NONE', ( #10, #75, #323, #247 ) ) ;
#47 = DIRECTION ( 'NONE',  ( -1.250499981774462892E-16, -0.0000000000000000000, -1.000000000000000000 ) ) ;
#48 = AXIS2_PLACEMENT_3D ( 'NONE', #226, #229, #281 ) ;
#49 = PRODUCT_RELATED_PRODUCT_CATEGORY ( 'part', '', ( #135 ) ) ;
#50 =( LENGTH_UNIT ( ) NAMED_UNIT ( * ) SI_UNIT ( $, .METRE. ) );
#51 = DIRECTION ( 'NONE',  ( -0.7071067811865358044, 0.0000000000000000000, -0.7071067811865590080 ) ) ;
#52 = DIRECTION ( 'NONE',  ( -1.000000000000000000, 0.0000000000000000000, 1.084333486377355109E-16 ) ) ;
#53 = DIRECTION ( 'NONE',  ( -1.000000000000000000, 0.0000000000000000000, 0.0000000000000000000 ) ) ;
#54 = EDGE_CURVE ( 'NONE', #260, #218, #145, .T. ) ;
#55 = DIRECTION ( 'NONE',  ( -1.250499981774462892E-16, -0.0000000000000000000, -1.000000000000000000 ) ) ;
#56 = CONICAL_SURFACE ( 'NONE', #63, 0.1031100000000002709, 0.7853981633974318477 ) ;
#57 = FILL_AREA_STYLE_COLOUR ( '', #264 ) ;
#58 = AXIS2_PLACEMENT_3D ( 'NONE', #77, #289, #324 ) ;
#59 = FACE_OUTER_BOUND ( 'NONE', #276, .T. ) ;
#60 = SURFACE_STYLE_FILL_AREA ( #160 ) ;
#61 = CARTESIAN_POINT ( 'NONE',  ( -0.02952398323758125345, 0.0000000000000000000, 0.005117998791752718414 ) ) ;
#62 = DIRECTION ( 'NONE',  ( -1.000000000000000000, -1.224646799147352961E-16, 0.0000000000000000000 ) ) ;
#63 = AXIS2_PLACEMENT_3D ( 'NONE', #180, #173, #104 ) ;
#64 = PRODUCT_DEFINITION_FORMATION_WITH_SPECIFIED_SOURCE ( 'ANY', '', #135, .NOT_KNOWN. ) ;
#65 = FACE_OUTER_BOUND ( 'NONE', #38, .T. ) ;
#66 = DIRECTION ( 'NONE',  ( 1.000000000000000000, 0.0000000000000000000, 0.0000000000000000000 ) ) ;
#67 = CARTESIAN_POINT ( 'NONE',  ( 0.0000000000000000000, 0.0000000000000000000, 0.0000000000000000000 ) ) ;
#68 = EDGE_CURVE ( 'NONE', #274, #272, #210, .T. ) ;
#69 = AXIS2_PLACEMENT_3D ( 'NONE', #316, #263, #234 ) ;
#70 = ORIENTED_EDGE ( 'NONE', *, *, #164, .F. ) ;
#71 = EDGE_LOOP ( 'NONE', ( #95, #120, #73, #70 ) ) ;
#72 = ORIENTED_EDGE ( 'NONE', *, *, #96, .F. ) ;
#73 = ORIENTED_EDGE ( 'NONE', *, *, #259, .T. ) ;
#74 = CYLINDRICAL_SURFACE ( 'NONE', #329, 0.02952398323758126386 ) ;
#75 = ORIENTED_EDGE ( 'NONE', *, *, #163, .T. ) ;
#76 = DIRECTION ( 'NONE',  ( -1.000000000000000000, 0.0000000000000000000, 1.084333486377355109E-16 ) ) ;
#77 = CARTESIAN_POINT ( 'NONE',  ( -0.1082639832375812544, 0.0000000000000000000, 0.005117998791752713210 ) ) ;
#78 = DIRECTION ( 'NONE',  ( -1.250499981774462892E-16, -0.0000000000000000000, -1.000000000000000000 ) ) ;
#79 = CARTESIAN_POINT ( 'NONE',  ( 0.0000000000000000000, 0.0000000000000000000, 0.08385799879175277749 ) ) ;
#80 = DIRECTION ( 'NONE',  ( 0.0000000000000000000, 0.0000000000000000000, 1.000000000000000000 ) ) ;
#81 = FACE_BOUND ( 'NONE', #114, .T. ) ;
#82 = ADVANCED_FACE ( 'NONE', ( #204 ), #5, .T. ) ;
#83 = STYLED_ITEM ( 'NONE', ( #129 ), #279 ) ;
#84 = ADVANCED_BREP_SHAPE_REPRESENTATION ( 'Micro_CREM-060-200X', ( #279, #202 ), #291 ) ;
#85 = LENGTH_MEASURE_WITH_UNIT ( LENGTH_MEASURE( 0.02539999999999999897 ), #294 );
#86 = FACE_OUTER_BOUND ( 'NONE', #26, .T. ) ;
#87 = FACE_OUTER_BOUND ( 'NONE', #119, .T. ) ;
#88 = AXIS2_PLACEMENT_3D ( 'NONE', #308, #146, #330 ) ;
#89 = SHAPE_DEFINITION_REPRESENTATION ( #326, #84 ) ;
#90 = EDGE_LOOP ( 'NONE', ( #248, #23, #320, #277 ) ) ;
#91 = VECTOR ( 'NONE', #51, 39.37007874015748854 ) ;
#92 = CIRCLE ( 'NONE', #58, 0.07874000000000000443 ) ;
#93 = CARTESIAN_POINT ( 'NONE',  ( 0.0000000000000000000, 0.0000000000000000000, 0.08385799879175277749 ) ) ;
#94 = ORIENTED_EDGE ( 'NONE', *, *, #240, .F. ) ;
#95 = ORIENTED_EDGE ( 'NONE', *, *, #159, .T. ) ;
#96 = EDGE_CURVE ( 'NONE', #141, #305, #238, .T. ) ;
#97 = CARTESIAN_POINT ( 'NONE',  ( 8.537024980200822558E-18, 0.0000000000000000000, 0.0000000000000000000 ) ) ;
#98 = VERTEX_POINT ( 'NONE', #29 ) ;
#99 = AXIS2_PLACEMENT_3D ( 'NONE', #153, #283, #252 ) ;
#100 = DIRECTION ( 'NONE',  ( -1.000000000000000000, 0.0000000000000000000, 1.250499981774462892E-16 ) ) ;
#101 = DIRECTION ( 'NONE',  ( 1.000000000000000000, 0.0000000000000000000, 0.0000000000000000000 ) ) ;
#102 = DIRECTION ( 'NONE',  ( 1.000000000000000000, 0.0000000000000000000, 0.0000000000000000000 ) ) ;
#103 = EDGE_CURVE ( 'NONE', #260, #274, #312, .T. ) ;
#104 = DIRECTION ( 'NONE',  ( -1.000000000000000000, 0.0000000000000000000, 0.0000000000000000000 ) ) ;
#105 = ADVANCED_FACE ( 'NONE', ( #22 ), #74, .T. ) ;
#106 = CARTESIAN_POINT ( 'NONE',  ( 0.0000000000000000000, 0.0000000000000000000, 2.244094000000000033 ) ) ;
#107 = CARTESIAN_POINT ( 'NONE',  ( 0.0000000000000000000, 0.0000000000000000000, 0.005117998791752699332 ) ) ;
#108 = EDGE_LOOP ( 'NONE', ( #278, #36, #172, #138 ) ) ;
#109 = CIRCLE ( 'NONE', #155, 0.02952398323758126386 ) ;
#110 = VECTOR ( 'NONE', #15, 39.37007874015748143 ) ;
#111 = PRODUCT_DEFINITION ( 'UNKNOWN', '', #64, #122 ) ;
#112 = APPLICATION_CONTEXT ( 'automotive_design' ) ;
#113 = VERTEX_POINT ( 'NONE', #21 ) ;
#114 = EDGE_LOOP ( 'NONE', ( #220, #72 ) ) ;
#115 = AXIS2_PLACEMENT_3D ( 'NONE', #107, #55, #100 ) ;
#116 = PRESENTATION_LAYER_ASSIGNMENT (  '', '', ( #258 ) ) ;
#117 = CARTESIAN_POINT ( 'NONE',  ( -0.1031100000000002709, 0.0000000000000000000, 2.244094000000000033 ) ) ;
#118 = ORIENTED_EDGE ( 'NONE', *, *, #164, .T. ) ;
#119 = EDGE_LOOP ( 'NONE', ( #222, #213, #43, #167 ) ) ;
#120 = ORIENTED_EDGE ( 'NONE', *, *, #327, .T. ) ;
#121 = AXIS2_PLACEMENT_3D ( 'NONE', #152, #139, #217 ) ;
#122 = PRODUCT_DEFINITION_CONTEXT ( 'detailed design', #112, 'design' ) ;
#123 = CARTESIAN_POINT ( 'NONE',  ( 0.1082639832375812960, 1.325851405348466160E-17, 0.08385799879175268035 ) ) ;
#124 = CARTESIAN_POINT ( 'NONE',  ( 8.537024980200822558E-18, 0.0000000000000000000, -5.510910596163092637E-18 ) ) ;
#125 = DIRECTION ( 'NONE',  ( -1.250499981774462892E-16, -0.0000000000000000000, -1.000000000000000000 ) ) ;
#126 = DIRECTION ( 'NONE',  ( -0.0000000000000000000, -0.0000000000000000000, -1.000000000000000000 ) ) ;
#127 = TOROIDAL_SURFACE ( 'NONE', #115, 0.1082639832375812544, 0.07874000000000000443 ) ;
#128 = CIRCLE ( 'NONE', #121, 0.02952398323758126386 ) ;
#129 = PRESENTATION_STYLE_ASSIGNMENT (( #30 ) ) ;
#130 = DIRECTION ( 'NONE',  ( 0.0000000000000000000, 0.0000000000000000000, -1.000000000000000000 ) ) ;
#131 = FACE_OUTER_BOUND ( 'NONE', #46, .T. ) ;
#132 = AXIS2_PLACEMENT_3D ( 'NONE', #39, #24, #261 ) ;
#133 = PRESENTATION_STYLE_ASSIGNMENT (( #35 ) ) ;
#134 =( NAMED_UNIT ( * ) PLANE_ANGLE_UNIT ( ) SI_UNIT ( $, .RADIAN. ) );
#135 = PRODUCT ( 'Micro_CREM-060-200X', 'Micro_CREM-060-200X', '', ( #214 ) ) ;
#136 = DIRECTION ( 'NONE',  ( 1.000000000000000000, 0.0000000000000000000, -0.0000000000000000000 ) ) ;
#137 = APPLICATION_PROTOCOL_DEFINITION ( 'draft international standard', 'automotive_design', 1998, #112 ) ;
#138 = ORIENTED_EDGE ( 'NONE', *, *, #269, .F. ) ;
#139 = DIRECTION ( 'NONE',  ( 0.0000000000000000000, 0.0000000000000000000, 1.000000000000000000 ) ) ;
#140 = EDGE_LOOP ( 'NONE', ( #325, #243 ) ) ;
#141 = VERTEX_POINT ( 'NONE', #123 ) ;
#142 = ADVANCED_FACE ( 'NONE', ( #198 ), #127, .F. ) ;
#143 = VERTEX_POINT ( 'NONE', #311 ) ;
#144 = ADVANCED_FACE ( 'NONE', ( #59 ), #250, .T. ) ;
#145 = CIRCLE ( 'NONE', #42, 0.1031100000000002709 ) ;
#146 = DIRECTION ( 'NONE',  ( -0.0000000000000000000, -0.0000000000000000000, -1.000000000000000000 ) ) ;
#147 =( GEOMETRIC_REPRESENTATION_CONTEXT ( 3 ) GLOBAL_UNCERTAINTY_ASSIGNED_CONTEXT ( ( #246 ) ) GLOBAL_UNIT_ASSIGNED_CONTEXT ( ( #34, #134, #318 ) ) REPRESENTATION_CONTEXT ( 'NONE', 'WORKASPACE' ) );
#148 = CYLINDRICAL_SURFACE ( 'NONE', #156, 0.1181100000000000344 ) ;
#149 = CARTESIAN_POINT ( 'NONE',  ( 0.0000000000000000000, 0.0000000000000000000, 2.244094000000000033 ) ) ;
#150 = CARTESIAN_POINT ( 'NONE',  ( -0.1181100000000000344, 0.0000000000000000000, 2.244094000000000033 ) ) ;
#151 = LINE ( 'NONE', #158, #154 ) ;
#152 = CARTESIAN_POINT ( 'NONE',  ( 8.537024980200822558E-18, 0.0000000000000000000, 0.0000000000000000000 ) ) ;
#153 = CARTESIAN_POINT ( 'NONE',  ( 1.902346757627379015E-17, 0.0000000000000000000, 0.08385799879175269422 ) ) ;
#154 = VECTOR ( 'NONE', #126, 39.37007874015748143 ) ;
#155 = AXIS2_PLACEMENT_3D ( 'NONE', #225, #2, #52 ) ;
#156 = AXIS2_PLACEMENT_3D ( 'NONE', #106, #181, #53 ) ;
#157 = FILL_AREA_STYLE ('',( #57 ) ) ;
#158 = CARTESIAN_POINT ( 'NONE',  ( 0.1181100000000000344, 1.446430334472939084E-17, 2.244094000000000033 ) ) ;
#159 = EDGE_CURVE ( 'NONE', #304, #41, #109, .T. ) ;
#160 = FILL_AREA_STYLE ('',( #319 ) ) ;
#161 = LENGTH_MEASURE_WITH_UNIT ( LENGTH_MEASURE( 0.02539999999999999897 ), #165 );
#162 = CIRCLE ( 'NONE', #176, 0.02952398323758126386 ) ;
#163 = EDGE_CURVE ( 'NONE', #274, #113, #151, .T. ) ;
#164 = EDGE_CURVE ( 'NONE', #304, #200, #262, .T. ) ;
#165 =( LENGTH_UNIT ( ) NAMED_UNIT ( * ) SI_UNIT ( $, .METRE. ) );
#166 = PLANE ( 'NONE',  #195 ) ;
#167 = ORIENTED_EDGE ( 'NONE', *, *, #236, .T. ) ;
#168 = ADVANCED_FACE ( 'NONE', ( #257 ), #12, .T. ) ;
#169 = UNCERTAINTY_MEASURE_WITH_UNIT (LENGTH_MEASURE( 1.000000000000000082E-05 ), #7, 'distance_accuracy_value', 'NONE');
#170 = APPLICATION_CONTEXT ( 'automotive_design' ) ;
#171 = LINE ( 'NONE', #117, #91 ) ;
#172 = ORIENTED_EDGE ( 'NONE', *, *, #96, .T. ) ;
#173 = DIRECTION ( 'NONE',  ( 0.0000000000000000000, 0.0000000000000000000, -1.000000000000000000 ) ) ;
#174 = CIRCLE ( 'NONE', #298, 0.07874000000000000443 ) ;
#175 = DIRECTION ( 'NONE',  ( 1.000000000000000000, 0.0000000000000000000, 0.0000000000000000000 ) ) ;
#176 = AXIS2_PLACEMENT_3D ( 'NONE', #97, #256, #101 ) ;
#177 = CARTESIAN_POINT ( 'NONE',  ( -0.1031100000000002709, 0.0000000000000000000, 2.244094000000000033 ) ) ;
#178 = DIRECTION ( 'NONE',  ( -1.000000000000000000, 0.0000000000000000000, 1.250499981774462892E-16 ) ) ;
#179 = DIRECTION ( 'NONE',  ( -1.000000000000000000, 0.0000000000000000000, 1.445605787858914658E-16 ) ) ;
#180 = CARTESIAN_POINT ( 'NONE',  ( 0.0000000000000000000, 0.0000000000000000000, 2.244094000000000033 ) ) ;
#181 = DIRECTION ( 'NONE',  ( -0.0000000000000000000, -0.0000000000000000000, -1.000000000000000000 ) ) ;
#182 = CARTESIAN_POINT ( 'NONE',  ( 0.02952398323758127080, 3.615645156998400008E-18, 0.005117998791752712343 ) ) ;
#183 = VECTOR ( 'NONE', #25, 39.37007874015748143 ) ;
#184 =( NAMED_UNIT ( * ) PLANE_ANGLE_UNIT ( ) SI_UNIT ( $, .RADIAN. ) );
#185 = DIRECTION ( 'NONE',  ( -1.224646799147353207E-16, 1.000000000000000000, 1.531420800013919374E-32 ) ) ;
#186 = EDGE_CURVE ( 'NONE', #41, #141, #174, .T. ) ;
#187 = CLOSED_SHELL ( 'NONE', ( #142, #105, #168, #228, #82, #295, #40, #219, #144, #301, #205 ) ) ;
#188 = DIRECTION ( 'NONE',  ( 1.000000000000000000, 0.0000000000000000000, -0.0000000000000000000 ) ) ;
#189 = CARTESIAN_POINT ( 'NONE',  ( 0.0000000000000000000, 0.0000000000000000000, 0.0000000000000000000 ) ) ;
#190 = AXIS2_PLACEMENT_3D ( 'NONE', #31, #130, #230 ) ;
#191 = DIRECTION ( 'NONE',  ( -1.250499981774462892E-16, -0.0000000000000000000, -1.000000000000000000 ) ) ;
#192 = ORIENTED_EDGE ( 'NONE', *, *, #207, .T. ) ;
#193 = LENGTH_MEASURE_WITH_UNIT ( LENGTH_MEASURE( 0.02539999999999999897 ), #50 );
#194 = ORIENTED_EDGE ( 'NONE', *, *, #223, .T. ) ;
#195 = AXIS2_PLACEMENT_3D ( 'NONE', #67, #266, #136 ) ;
#196 = AXIS2_PLACEMENT_3D ( 'NONE', #317, #265, #188 ) ;
#197 = EDGE_LOOP ( 'NONE', ( #322, #275, #192, #18 ) ) ;
#198 = FACE_OUTER_BOUND ( 'NONE', #108, .T. ) ;
#199 = CARTESIAN_POINT ( 'NONE',  ( 8.537024980200822558E-18, 0.0000000000000000000, -5.510910596163092637E-18 ) ) ;
#200 = VERTEX_POINT ( 'NONE', #296 ) ;
#201 = SURFACE_STYLE_FILL_AREA ( #157 ) ;
#202 = AXIS2_PLACEMENT_3D ( 'NONE', #189, #297, #66 ) ;
#203 =( NAMED_UNIT ( * ) SI_UNIT ( $, .STERADIAN. ) SOLID_ANGLE_UNIT ( ) );
#204 = FACE_OUTER_BOUND ( 'NONE', #90, .T. ) ;
#205 = ADVANCED_FACE ( 'NONE', ( #65 ), #166, .F. ) ;
#206 = CARTESIAN_POINT ( 'NONE',  ( 0.1181100000000000344, 1.446430334472939084E-17, 2.229093999999999465 ) ) ;
#207 = EDGE_CURVE ( 'NONE', #218, #272, #171, .T. ) ;
#208 = CARTESIAN_POINT ( 'NONE',  ( 0.1082639832375812544, 1.325851405348465852E-17, 0.005117998791752685454 ) ) ;
#209 = CARTESIAN_POINT ( 'NONE',  ( -0.1181100000000000344, 0.0000000000000000000, 2.229093999999999465 ) ) ;
#210 = CIRCLE ( 'NONE', #9, 0.1181100000000000344 ) ;
#211 = CIRCLE ( 'NONE', #44, 0.1082639832375812683 ) ;
#212 = AXIS2_PLACEMENT_3D ( 'NONE', #93, #191, #300 ) ;
#213 = ORIENTED_EDGE ( 'NONE', *, *, #159, .F. ) ;
#214 = PRODUCT_CONTEXT ( 'NONE', #170, 'mechanical' ) ;
#215 = DIRECTION ( 'NONE',  ( 0.0000000000000000000, 0.0000000000000000000, 1.000000000000000000 ) ) ;
#216 = EDGE_CURVE ( 'NONE', #272, #143, #313, .T. ) ;
#217 = DIRECTION ( 'NONE',  ( 1.000000000000000000, 0.0000000000000000000, 0.0000000000000000000 ) ) ;
#218 = VERTEX_POINT ( 'NONE', #177 ) ;
#219 = ADVANCED_FACE ( 'NONE', ( #81, #244 ), #232, .T. ) ;
#220 = ORIENTED_EDGE ( 'NONE', *, *, #236, .F. ) ;
#221 = ORIENTED_EDGE ( 'NONE', *, *, #54, .T. ) ;
#222 = ORIENTED_EDGE ( 'NONE', *, *, #186, .F. ) ;
#223 = EDGE_CURVE ( 'NONE', #41, #304, #270, .T. ) ;
#224 = DIRECTION ( 'NONE',  ( 0.0000000000000000000, 0.0000000000000000000, -1.000000000000000000 ) ) ;
#225 = CARTESIAN_POINT ( 'NONE',  ( 9.177030719781672087E-18, 0.0000000000000000000, 0.005117998791752715812 ) ) ;
#226 = CARTESIAN_POINT ( 'NONE',  ( 0.0000000000000000000, 0.0000000000000000000, 2.229093999999999465 ) ) ;
#227 = DIRECTION ( 'NONE',  ( 0.7071067811865358044, 8.659560562354788645E-17, -0.7071067811865590080 ) ) ;
#228 = ADVANCED_FACE ( 'NONE', ( #131 ), #148, .T. ) ;
#229 = DIRECTION ( 'NONE',  ( 0.0000000000000000000, 0.0000000000000000000, -1.000000000000000000 ) ) ;
#230 = DIRECTION ( 'NONE',  ( -1.000000000000000000, 0.0000000000000000000, 0.0000000000000000000 ) ) ;
#231 = DIMENSIONAL_EXPONENTS ( 1.000000000000000000, 0.0000000000000000000, 0.0000000000000000000, 0.0000000000000000000, 0.0000000000000000000, 0.0000000000000000000, 0.0000000000000000000 ) ;
#232 = PLANE ( 'NONE',  #132 ) ;
#233 = ORIENTED_EDGE ( 'NONE', *, *, #19, .T. ) ;
#234 = DIRECTION ( 'NONE',  ( -1.000000000000000000, 0.0000000000000000000, 1.250499981774462892E-16 ) ) ;
#235 = AXIS2_PLACEMENT_3D ( 'NONE', #253, #125, #76 ) ;
#236 = EDGE_CURVE ( 'NONE', #305, #141, #211, .T. ) ;
#237 = CARTESIAN_POINT ( 'NONE',  ( 0.02952398323758127080, 3.615645156998400008E-18, -9.202884646213584237E-18 ) ) ;
#238 = CIRCLE ( 'NONE', #99, 0.1082639832375812683 ) ;
#239 =( GEOMETRIC_REPRESENTATION_CONTEXT ( 3 ) GLOBAL_UNCERTAINTY_ASSIGNED_CONTEXT ( ( #169 ) ) GLOBAL_UNIT_ASSIGNED_CONTEXT ( ( #7, #1, #203 ) ) REPRESENTATION_CONTEXT ( 'NONE', 'WORKASPACE' ) );
#240 = EDGE_CURVE ( 'NONE', #272, #274, #321, .T. ) ;
#241 = APPLICATION_PROTOCOL_DEFINITION ( 'draft international standard', 'automotive_design', 1998, #170 ) ;
#242 = EDGE_LOOP ( 'NONE', ( #302, #16, #94, #307 ) ) ;
#243 = ORIENTED_EDGE ( 'NONE', *, *, #6, .T. ) ;
#244 = FACE_OUTER_BOUND ( 'NONE', #140, .T. ) ;
#245 = ORIENTED_EDGE ( 'NONE', *, *, #285, .T. ) ;
#246 = UNCERTAINTY_MEASURE_WITH_UNIT (LENGTH_MEASURE( 1.000000000000000082E-05 ), #34, 'distance_accuracy_value', 'NONE');
#247 = ORIENTED_EDGE ( 'NONE', *, *, #216, .F. ) ;
#248 = ORIENTED_EDGE ( 'NONE', *, *, #163, .F. ) ;
#249 = COLOUR_RGB ( '',0.7921568627450980005, 0.8196078431372548767, 0.9333333333333333481 ) ;
#250 = CYLINDRICAL_SURFACE ( 'NONE', #306, 0.02952398323758126386 ) ;
#251 = DIRECTION ( 'NONE',  ( -1.250499981774462892E-16, -0.0000000000000000000, -1.000000000000000000 ) ) ;
#252 = DIRECTION ( 'NONE',  ( -1.000000000000000000, 0.0000000000000000000, 1.577075722674389449E-16 ) ) ;
#253 = CARTESIAN_POINT ( 'NONE',  ( 9.177030719781672087E-18, 0.0000000000000000000, 0.005117998791752715812 ) ) ;
#254 = CARTESIAN_POINT ( 'NONE',  ( -0.02952398323758125345, 0.0000000000000000000, -1.818936546112600652E-18 ) ) ;
#255 = DIMENSIONAL_EXPONENTS ( 1.000000000000000000, 0.0000000000000000000, 0.0000000000000000000, 0.0000000000000000000, 0.0000000000000000000, 0.0000000000000000000, 0.0000000000000000000 ) ;
#256 = DIRECTION ( 'NONE',  ( 0.0000000000000000000, 0.0000000000000000000, 1.000000000000000000 ) ) ;
#257 = FACE_OUTER_BOUND ( 'NONE', #242, .T. ) ;
#258 = STYLED_ITEM ( 'NONE', ( #133 ), #84 ) ;
#259 = EDGE_CURVE ( 'NONE', #98, #200, #128, .T. ) ;
#260 = VERTEX_POINT ( 'NONE', #4 ) ;
#261 = DIRECTION ( 'NONE',  ( -1.000000000000000000, 0.0000000000000000000, 1.250499981774462892E-16 ) ) ;
#262 = LINE ( 'NONE', #254, #183 ) ;
#263 = DIRECTION ( 'NONE',  ( -1.250499981774462892E-16, -0.0000000000000000000, -1.000000000000000000 ) ) ;
#264 = COLOUR_RGB ( '',0.7921568627450980005, 0.8196078431372548767, 0.9333333333333333481 ) ;
#265 = DIRECTION ( 'NONE',  ( 0.0000000000000000000, 0.0000000000000000000, 1.000000000000000000 ) ) ;
#266 = DIRECTION ( 'NONE',  ( 0.0000000000000000000, 0.0000000000000000000, 1.000000000000000000 ) ) ;
#267 = LINE ( 'NONE', #237, #110 ) ;
#268 = CIRCLE ( 'NONE', #314, 0.1031100000000002709 ) ;
#269 = EDGE_CURVE ( 'NONE', #304, #305, #92, .T. ) ;
#270 = CIRCLE ( 'NONE', #235, 0.02952398323758126386 ) ;
#271 = ORIENTED_EDGE ( 'NONE', *, *, #259, .F. ) ;
#272 = VERTEX_POINT ( 'NONE', #209 ) ;
#273 = CARTESIAN_POINT ( 'NONE',  ( 1.902346757627379015E-17, 0.0000000000000000000, 0.08385799879175269422 ) ) ;
#274 = VERTEX_POINT ( 'NONE', #206 ) ;
#275 = ORIENTED_EDGE ( 'NONE', *, *, #19, .F. ) ;
#276 = EDGE_LOOP ( 'NONE', ( #328, #194, #118, #245 ) ) ;
#277 = ORIENTED_EDGE ( 'NONE', *, *, #6, .F. ) ;
#278 = ORIENTED_EDGE ( 'NONE', *, *, #223, .F. ) ;
#279 = MANIFOLD_SOLID_BREP ( 'Cut-Revolve1', #187 ) ;
#280 = CARTESIAN_POINT ( 'NONE',  ( 0.0000000000000000000, 0.0000000000000000000, 2.229093999999999465 ) ) ;
#281 = DIRECTION ( 'NONE',  ( 1.000000000000000000, 0.0000000000000000000, 0.0000000000000000000 ) ) ;
#282 = VECTOR ( 'NONE', #303, 39.37007874015748143 ) ;
#283 = DIRECTION ( 'NONE',  ( -1.250499981774462892E-16, -0.0000000000000000000, -1.000000000000000000 ) ) ;
#284 = DIMENSIONAL_EXPONENTS ( 1.000000000000000000, 0.0000000000000000000, 0.0000000000000000000, 0.0000000000000000000, 0.0000000000000000000, 0.0000000000000000000, 0.0000000000000000000 ) ;
#285 = EDGE_CURVE ( 'NONE', #200, #98, #162, .T. ) ;
#286 = DIRECTION ( 'NONE',  ( -1.000000000000000000, 0.0000000000000000000, 1.250499981774462892E-16 ) ) ;
#287 = DIRECTION ( 'NONE',  ( -1.000000000000000000, 0.0000000000000000000, 1.577075722674389449E-16 ) ) ;
#288 = CARTESIAN_POINT ( 'NONE',  ( 0.1031100000000002709, 1.262733314600839129E-17, 2.244094000000000033 ) ) ;
#289 = DIRECTION ( 'NONE',  ( 0.0000000000000000000, -1.000000000000000000, 0.0000000000000000000 ) ) ;
#290 = VECTOR ( 'NONE', #227, 39.37007874015748854 ) ;
#291 =( GEOMETRIC_REPRESENTATION_CONTEXT ( 3 ) GLOBAL_UNCERTAINTY_ASSIGNED_CONTEXT ( ( #45 ) ) GLOBAL_UNIT_ASSIGNED_CONTEXT ( ( #11, #184, #8 ) ) REPRESENTATION_CONTEXT ( 'NONE', 'WORKASPACE' ) );
#292 = EDGE_CURVE ( 'NONE', #143, #113, #310, .T. ) ;
#293 = PLANE ( 'NONE',  #196 ) ;
#294 =( LENGTH_UNIT ( ) NAMED_UNIT ( * ) SI_UNIT ( $, .METRE. ) );
#295 = ADVANCED_FACE ( 'NONE', ( #86 ), #293, .T. ) ;
#296 = CARTESIAN_POINT ( 'NONE',  ( -0.02952398323758125345, 0.0000000000000000000, 0.0000000000000000000 ) ) ;
#297 = DIRECTION ( 'NONE',  ( 0.0000000000000000000, 0.0000000000000000000, 1.000000000000000000 ) ) ;
#298 = AXIS2_PLACEMENT_3D ( 'NONE', #208, #185, #62 ) ;
#299 = MECHANICAL_DESIGN_GEOMETRIC_PRESENTATION_REPRESENTATION (  '', ( #258 ), #147 ) ;
#300 = DIRECTION ( 'NONE',  ( -1.000000000000000000, 0.0000000000000000000, 1.445605787858914658E-16 ) ) ;
#301 = ADVANCED_FACE ( 'NONE', ( #87 ), #20, .F. ) ;
#302 = ORIENTED_EDGE ( 'NONE', *, *, #54, .F. ) ;
#303 = DIRECTION ( 'NONE',  ( -0.0000000000000000000, -0.0000000000000000000, -1.000000000000000000 ) ) ;
#304 = VERTEX_POINT ( 'NONE', #61 ) ;
#305 = VERTEX_POINT ( 'NONE', #32 ) ;
#306 = AXIS2_PLACEMENT_3D ( 'NONE', #199, #78, #286 ) ;
#307 = ORIENTED_EDGE ( 'NONE', *, *, #207, .F. ) ;
#308 = CARTESIAN_POINT ( 'NONE',  ( 0.0000000000000000000, 0.0000000000000000000, 2.244094000000000033 ) ) ;
#309 = DIRECTION ( 'NONE',  ( 1.000000000000000000, 0.0000000000000000000, 0.0000000000000000000 ) ) ;
#310 = CIRCLE ( 'NONE', #13, 0.1181100000000000344 ) ;
#311 = CARTESIAN_POINT ( 'NONE',  ( -0.1181100000000000344, 0.0000000000000000000, 0.08385799879175280525 ) ) ;
#312 = LINE ( 'NONE', #288, #290 ) ;
#313 = LINE ( 'NONE', #150, #282 ) ;
#314 = AXIS2_PLACEMENT_3D ( 'NONE', #17, #215, #309 ) ;
#315 = PRESENTATION_LAYER_ASSIGNMENT (  '', '', ( #83 ) ) ;
#316 = CARTESIAN_POINT ( 'NONE',  ( 0.0000000000000000000, 0.0000000000000000000, 0.005117998791752699332 ) ) ;
#317 = CARTESIAN_POINT ( 'NONE',  ( 0.0000000000000000000, 0.0000000000000000000, 2.244094000000000033 ) ) ;
#318 =( NAMED_UNIT ( * ) SI_UNIT ( $, .STERADIAN. ) SOLID_ANGLE_UNIT ( ) );
#319 = FILL_AREA_STYLE_COLOUR ( '', #249 ) ;
#320 = ORIENTED_EDGE ( 'NONE', *, *, #216, .T. ) ;
#321 = CIRCLE ( 'NONE', #48, 0.1181100000000000344 ) ;
#322 = ORIENTED_EDGE ( 'NONE', *, *, #103, .F. ) ;
#323 = ORIENTED_EDGE ( 'NONE', *, *, #292, .F. ) ;
#324 = DIRECTION ( 'NONE',  ( 0.0000000000000000000, 0.0000000000000000000, -1.000000000000000000 ) ) ;
#325 = ORIENTED_EDGE ( 'NONE', *, *, #292, .T. ) ;
#326 = PRODUCT_DEFINITION_SHAPE ( 'NONE', 'NONE',  #111 ) ;
#327 = EDGE_CURVE ( 'NONE', #41, #98, #267, .T. ) ;
#328 = ORIENTED_EDGE ( 'NONE', *, *, #327, .F. ) ;
#329 = AXIS2_PLACEMENT_3D ( 'NONE', #124, #47, #178 ) ;
#330 = DIRECTION ( 'NONE',  ( -1.000000000000000000, 0.0000000000000000000, 0.0000000000000000000 ) ) ;
#331 = FACE_OUTER_BOUND ( 'NONE', #197, .T. ) ;
ENDSEC;
END-ISO-10303-21;
