ISO-10303-21;
HEADER;
FILE_DESCRIPTION (( 'STEP AP214' ),
    '1' );
FILE_NAME ('59845.STEP',
    '2023-06-22T23:18:04',
    ( '' ),
    ( '' ),
    'SwSTEP 2.0',
    'SolidWorks 2023',
    '' );
FILE_SCHEMA (( 'AUTOMOTIVE_DESIGN' ));
ENDSEC;

DATA;
#1 = DIRECTION ( 'NONE',  ( -1.000000000000000000, 0.000000000000000000, 0.000000000000000000 ) ) ;
#2 = DIRECTION ( 'NONE',  ( 3.265724797726278260E-17, 1.000000000000000000, -0.000000000000000000 ) ) ;
#3 = EDGE_CURVE ( 'NONE', #10, #227, #266, .T. ) ;
#4 = ORIENTED_EDGE ( 'NONE', *, *, #3, .F. ) ;
#5 = MECHANICAL_DESIGN_GEOMETRIC_PRESENTATION_REPRESENTATION (  '', ( #69 ), #182 ) ;
#6 = AXIS2_PLACEMENT_3D ( 'NONE', #271, #253, #83 ) ;
#7 = ADVANCED_FACE ( 'NONE', ( #30 ), #245, .F. ) ;
#8 = LENGTH_MEASURE_WITH_UNIT ( LENGTH_MEASURE( 0.02539999999999999897 ), #172 );
#9 = ORIENTED_EDGE ( 'NONE', *, *, #187, .T. ) ;
#10 = VERTEX_POINT ( 'NONE', #26 ) ;
#11 = PRESENTATION_LAYER_ASSIGNMENT (  '', '', ( #298 ) ) ;
#12 = SURFACE_STYLE_USAGE ( .BOTH. , #230 ) ;
#13 = LENGTH_MEASURE_WITH_UNIT ( LENGTH_MEASURE( 0.02539999999999999897 ), #106 );
#14 = CARTESIAN_POINT ( 'NONE',  ( 0.000000000000000000, 0.000000000000000000, 0.000000000000000000 ) ) ;
#15 = DIRECTION ( 'NONE',  ( -0.000000000000000000, -1.000000000000000000, -0.000000000000000000 ) ) ;
#16 =( GEOMETRIC_REPRESENTATION_CONTEXT ( 3 ) GLOBAL_UNCERTAINTY_ASSIGNED_CONTEXT ( ( #60 ) ) GLOBAL_UNIT_ASSIGNED_CONTEXT ( ( #53, #142, #219 ) ) REPRESENTATION_CONTEXT ( 'NONE', 'WORKASPACE' ) );
#17 = FILL_AREA_STYLE_COLOUR ( '', #287 ) ;
#18 = DIRECTION ( 'NONE',  ( 0.000000000000000000, 0.000000000000000000, -1.000000000000000000 ) ) ;
#19 = CIRCLE ( 'NONE', #268, 0.2500000000000000000 ) ;
#20 = PRESENTATION_STYLE_ASSIGNMENT (( #261 ) ) ;
#21 =( NAMED_UNIT ( * ) SI_UNIT ( $, .STERADIAN. ) SOLID_ANGLE_UNIT ( ) );
#22 = COLOUR_RGB ( '',1.000000000000000000, 0.000000000000000000, 0.000000000000000000 ) ;
#23 = PRODUCT_DEFINITION_FORMATION_WITH_SPECIFIED_SOURCE ( 'ANY', '', #240, .NOT_KNOWN. ) ;
#24 = SURFACE_STYLE_USAGE ( .BOTH. , #292 ) ;
#25 = CARTESIAN_POINT ( 'NONE',  ( 6.123233995736772199E-17, 2.500000000000000000, 0.000000000000000000 ) ) ;
#26 = CARTESIAN_POINT ( 'NONE',  ( 0.000000000000000000, 0.6250000000000000000, -0.2500000000000000000 ) ) ;
#27 = CARTESIAN_POINT ( 'NONE',  ( 0.2500000000000000555, 2.500000000000000000, 3.061616997868382402E-17 ) ) ;
#28 = DIMENSIONAL_EXPONENTS ( 1.000000000000000000, 0.000000000000000000, 0.000000000000000000, 0.000000000000000000, 0.000000000000000000, 0.000000000000000000, 0.000000000000000000 ) ;
#29 = ORIENTED_EDGE ( 'NONE', *, *, #275, .T. ) ;
#30 = FACE_OUTER_BOUND ( 'NONE', #81, .T. ) ;
#31 = APPLICATION_PROTOCOL_DEFINITION ( 'draft international standard', 'automotive_design', 1998, #290 ) ;
#32 = AXIS2_PLACEMENT_3D ( 'NONE', #173, #84, #56 ) ;
#33 = COLOUR_RGB ( '',1.000000000000000000, 0.000000000000000000, 0.000000000000000000 ) ;
#34 = ORIENTED_EDGE ( 'NONE', *, *, #203, .T. ) ;
#35 = CARTESIAN_POINT ( 'NONE',  ( -0.2499999999999998890, 2.500000000000000000, 0.000000000000000000 ) ) ;
#36 = AXIS2_PLACEMENT_3D ( 'NONE', #306, #217, #171 ) ;
#37 = SURFACE_SIDE_STYLE ('',( #160 ) ) ;
#38 = PRESENTATION_STYLE_ASSIGNMENT (( #67 ) ) ;
#39 = UNCERTAINTY_MEASURE_WITH_UNIT (LENGTH_MEASURE( 1.000000000000000082E-05 ), #40, 'distance_accuracy_value', 'NONE');
#40 =( CONVERSION_BASED_UNIT ( 'INCH', #260 ) LENGTH_UNIT ( ) NAMED_UNIT ( #89 ) );
#41 = EDGE_CURVE ( 'NONE', #227, #248, #214, .T. ) ;
#42 = STYLED_ITEM ( 'NONE', ( #144 ), #59 ) ;
#43 = FILL_AREA_STYLE ('',( #45 ) ) ;
#44 = CARTESIAN_POINT ( 'NONE',  ( 0.000000000000000000, 0.000000000000000000, -0.2500000000000000000 ) ) ;
#45 = FILL_AREA_STYLE_COLOUR ( '', #138 ) ;
#46 = DIRECTION ( 'NONE',  ( -1.000000000000000000, 0.000000000000000000, 0.000000000000000000 ) ) ;
#47 = CARTESIAN_POINT ( 'NONE',  ( 0.2500000000000000000, 2.500000000000000000, 3.061616997868382402E-17 ) ) ;
#48 =( LENGTH_UNIT ( ) NAMED_UNIT ( * ) SI_UNIT ( $, .METRE. ) );
#49 = UNCERTAINTY_MEASURE_WITH_UNIT (LENGTH_MEASURE( 1.000000000000000082E-05 ), #52, 'distance_accuracy_value', 'NONE');
#50 = DIRECTION ( 'NONE',  ( 3.265724797726278260E-17, 1.000000000000000000, -0.000000000000000000 ) ) ;
#51 = CARTESIAN_POINT ( 'NONE',  ( 1.333119806810542605E-34, 0.6250000000000000000, 0.000000000000000000 ) ) ;
#52 =( CONVERSION_BASED_UNIT ( 'INCH', #170 ) LENGTH_UNIT ( ) NAMED_UNIT ( #28 ) );
#53 =( CONVERSION_BASED_UNIT ( 'INCH', #8 ) LENGTH_UNIT ( ) NAMED_UNIT ( #294 ) );
#54 = DIRECTION ( 'NONE',  ( 3.265724797726278260E-17, 1.000000000000000000, -0.000000000000000000 ) ) ;
#55 = PRODUCT_DEFINITION ( 'UNKNOWN', '', #23, #277 ) ;
#56 = DIRECTION ( 'NONE',  ( 1.000000000000000000, -3.265724797726278260E-17, 0.000000000000000000 ) ) ;
#57 = ORIENTED_EDGE ( 'NONE', *, *, #297, .T. ) ;
#58 = ORIENTED_EDGE ( 'NONE', *, *, #254, .F. ) ;
#59 = ADVANCED_FACE ( 'NONE', ( #199 ), #273, .T. ) ;
#60 = UNCERTAINTY_MEASURE_WITH_UNIT (LENGTH_MEASURE( 1.000000000000000082E-05 ), #53, 'distance_accuracy_value', 'NONE');
#61 = ORIENTED_EDGE ( 'NONE', *, *, #297, .F. ) ;
#62 = COLOUR_RGB ( '',1.000000000000000000, 0.000000000000000000, 0.000000000000000000 ) ;
#63 = PRESENTATION_LAYER_ASSIGNMENT (  '', '', ( #193 ) ) ;
#64 = APPLICATION_PROTOCOL_DEFINITION ( 'draft international standard', 'automotive_design', 1998, #256 ) ;
#65 = FILL_AREA_STYLE ('',( #17 ) ) ;
#66 = UNCERTAINTY_MEASURE_WITH_UNIT (LENGTH_MEASURE( 1.000000000000000082E-05 ), #86, 'distance_accuracy_value', 'NONE');
#67 = SURFACE_STYLE_USAGE ( .BOTH. , #186 ) ;
#68 = SURFACE_STYLE_USAGE ( .BOTH. , #236 ) ;
#69 = STYLED_ITEM ( 'NONE', ( #115 ), #136 ) ;
#70 = LENGTH_MEASURE_WITH_UNIT ( LENGTH_MEASURE( 0.02539999999999999897 ), #155 );
#71 = CARTESIAN_POINT ( 'NONE',  ( 6.123233995736772199E-17, 2.500000000000000000, 0.000000000000000000 ) ) ;
#72 = PRESENTATION_LAYER_ASSIGNMENT (  '', '', ( #42 ) ) ;
#73 =( GEOMETRIC_REPRESENTATION_CONTEXT ( 3 ) GLOBAL_UNCERTAINTY_ASSIGNED_CONTEXT ( ( #88 ) ) GLOBAL_UNIT_ASSIGNED_CONTEXT ( ( #196, #238, #212 ) ) REPRESENTATION_CONTEXT ( 'NONE', 'WORKASPACE' ) );
#74 = FACE_OUTER_BOUND ( 'NONE', #77, .T. ) ;
#75 = DIRECTION ( 'NONE',  ( 0.000000000000000000, 0.000000000000000000, -1.000000000000000000 ) ) ;
#76 = DIRECTION ( 'NONE',  ( 3.265724797726278260E-17, 1.000000000000000000, -0.000000000000000000 ) ) ;
#77 = EDGE_LOOP ( 'NONE', ( #293, #272, #280, #205 ) ) ;
#78 = DIRECTION ( 'NONE',  ( -0.000000000000000000, -1.000000000000000000, -0.000000000000000000 ) ) ;
#79 = DIRECTION ( 'NONE',  ( -0.000000000000000000, -1.000000000000000000, -0.000000000000000000 ) ) ;
#80 = CIRCLE ( 'NONE', #257, 0.2500000000000000000 ) ;
#81 = EDGE_LOOP ( 'NONE', ( #179, #206 ) ) ;
#82 = VECTOR ( 'NONE', #226, 39.37007874015748143 ) ;
#83 = DIRECTION ( 'NONE',  ( 0.000000000000000000, -0.000000000000000000, 1.000000000000000000 ) ) ;
#84 = DIRECTION ( 'NONE',  ( -3.265724797726278260E-17, -1.000000000000000000, 0.000000000000000000 ) ) ;
#85 = DIRECTION ( 'NONE',  ( -0.000000000000000000, -1.000000000000000000, -0.000000000000000000 ) ) ;
#86 =( CONVERSION_BASED_UNIT ( 'INCH', #13 ) LENGTH_UNIT ( ) NAMED_UNIT ( #111 ) );
#87 = MECHANICAL_DESIGN_GEOMETRIC_PRESENTATION_REPRESENTATION (  '', ( #105 ), #16 ) ;
#88 = UNCERTAINTY_MEASURE_WITH_UNIT (LENGTH_MEASURE( 1.000000000000000082E-05 ), #196, 'distance_accuracy_value', 'NONE');
#89 = DIMENSIONAL_EXPONENTS ( 1.000000000000000000, 0.000000000000000000, 0.000000000000000000, 0.000000000000000000, 0.000000000000000000, 0.000000000000000000, 0.000000000000000000 ) ;
#90 = FILL_AREA_STYLE ('',( #302 ) ) ;
#91 =( GEOMETRIC_REPRESENTATION_CONTEXT ( 3 ) GLOBAL_UNCERTAINTY_ASSIGNED_CONTEXT ( ( #39 ) ) GLOBAL_UNIT_ASSIGNED_CONTEXT ( ( #40, #119, #194 ) ) REPRESENTATION_CONTEXT ( 'NONE', 'WORKASPACE' ) );
#92 = ORIENTED_EDGE ( 'NONE', *, *, #275, .F. ) ;
#93 = MECHANICAL_DESIGN_GEOMETRIC_PRESENTATION_REPRESENTATION (  '', ( #298 ), #73 ) ;
#94 = MANIFOLD_SOLID_BREP ( 'Revolve - Tool Body (Straight Shanked)', #262 ) ;
#95 = CARTESIAN_POINT ( 'NONE',  ( 0.000000000000000000, 0.6250000000000000000, 0.000000000000000000 ) ) ;
#96 = CARTESIAN_POINT ( 'NONE',  ( 0.000000000000000000, 0.6250000000000000000, 0.000000000000000000 ) ) ;
#97 = MECHANICAL_DESIGN_GEOMETRIC_PRESENTATION_REPRESENTATION (  '', ( #42 ), #157 ) ;
#98 = ORIENTED_EDGE ( 'NONE', *, *, #192, .T. ) ;
#99 =( CONVERSION_BASED_UNIT ( 'INCH', #269 ) LENGTH_UNIT ( ) NAMED_UNIT ( #108 ) );
#100 = VERTEX_POINT ( 'NONE', #307 ) ;
#101 = FILL_AREA_STYLE ('',( #223 ) ) ;
#102 = ORIENTED_EDGE ( 'NONE', *, *, #41, .F. ) ;
#103 = CIRCLE ( 'NONE', #232, 0.2500000000000000000 ) ;
#104 = EDGE_LOOP ( 'NONE', ( #92, #128 ) ) ;
#105 = STYLED_ITEM ( 'NONE', ( #141 ), #221 ) ;
#106 =( LENGTH_UNIT ( ) NAMED_UNIT ( * ) SI_UNIT ( $, .METRE. ) );
#107 = VERTEX_POINT ( 'NONE', #309 ) ;
#108 = DIMENSIONAL_EXPONENTS ( 1.000000000000000000, 0.000000000000000000, 0.000000000000000000, 0.000000000000000000, 0.000000000000000000, 0.000000000000000000, 0.000000000000000000 ) ;
#109 = LINE ( 'NONE', #35, #82 ) ;
#110 = CARTESIAN_POINT ( 'NONE',  ( 0.000000000000000000, 0.000000000000000000, 0.000000000000000000 ) ) ;
#111 = DIMENSIONAL_EXPONENTS ( 1.000000000000000000, 0.000000000000000000, 0.000000000000000000, 0.000000000000000000, 0.000000000000000000, 0.000000000000000000, 0.000000000000000000 ) ;
#112 = ADVANCED_BREP_SHAPE_REPRESENTATION ( '59845', ( #200, #94, #183 ), #259 ) ;
#113 = EDGE_CURVE ( 'NONE', #248, #227, #198, .T. ) ;
#114 = VECTOR ( 'NONE', #85, 39.37007874015748143 ) ;
#115 = PRESENTATION_STYLE_ASSIGNMENT (( #235 ) ) ;
#116 = FACE_OUTER_BOUND ( 'NONE', #202, .T. ) ;
#117 = CARTESIAN_POINT ( 'NONE',  ( 3.061616997868383018E-17, 0.000000000000000000, 0.2500000000000000000 ) ) ;
#118 = CARTESIAN_POINT ( 'NONE',  ( 0.000000000000000000, 0.6250000000000000000, 0.000000000000000000 ) ) ;
#119 =( NAMED_UNIT ( * ) PLANE_ANGLE_UNIT ( ) SI_UNIT ( $, .RADIAN. ) );
#120 =( NAMED_UNIT ( * ) PLANE_ANGLE_UNIT ( ) SI_UNIT ( $, .RADIAN. ) );
#121 =( NAMED_UNIT ( * ) PLANE_ANGLE_UNIT ( ) SI_UNIT ( $, .RADIAN. ) );
#122 = CARTESIAN_POINT ( 'NONE',  ( 0.2500000000000000000, 0.6250000000000000000, 3.061616997868382402E-17 ) ) ;
#123 = AXIS2_PLACEMENT_3D ( 'NONE', #168, #288, #75 ) ;
#124 = SURFACE_STYLE_FILL_AREA ( #101 ) ;
#125 = LENGTH_MEASURE_WITH_UNIT ( LENGTH_MEASURE( 0.02539999999999999897 ), #224 );
#126 = EDGE_LOOP ( 'NONE', ( #9, #34, #58, #61 ) ) ;
#127 = CLOSED_SHELL ( 'NONE', ( #59, #282, #136, #221 ) ) ;
#128 = ORIENTED_EDGE ( 'NONE', *, *, #201, .F. ) ;
#129 = CIRCLE ( 'NONE', #153, 0.2499999999999999167 ) ;
#130 = AXIS2_PLACEMENT_3D ( 'NONE', #146, #79, #222 ) ;
#131 = DIMENSIONAL_EXPONENTS ( 1.000000000000000000, 0.000000000000000000, 0.000000000000000000, 0.000000000000000000, 0.000000000000000000, 0.000000000000000000, 0.000000000000000000 ) ;
#132 = CARTESIAN_POINT ( 'NONE',  ( 0.000000000000000000, 0.6250000000000000000, 0.000000000000000000 ) ) ;
#133 =( LENGTH_UNIT ( ) NAMED_UNIT ( * ) SI_UNIT ( $, .METRE. ) );
#134 = DIRECTION ( 'NONE',  ( -0.000000000000000000, -1.000000000000000000, -0.000000000000000000 ) ) ;
#135 = PRESENTATION_STYLE_ASSIGNMENT (( #68 ) ) ;
#136 = ADVANCED_FACE ( 'NONE', ( #74 ), #213, .T. ) ;
#137 = MECHANICAL_DESIGN_GEOMETRIC_PRESENTATION_REPRESENTATION (  '', ( #151 ), #91 ) ;
#138 = COLOUR_RGB ( '',0.7921568627450980005, 0.8196078431372548767, 0.9333333333333333481 ) ;
#139 = EDGE_CURVE ( 'NONE', #296, #248, #169, .T. ) ;
#140 = DIRECTION ( 'NONE',  ( -1.000000000000000000, 0.000000000000000000, 0.000000000000000000 ) ) ;
#141 = PRESENTATION_STYLE_ASSIGNMENT (( #24 ) ) ;
#142 =( NAMED_UNIT ( * ) PLANE_ANGLE_UNIT ( ) SI_UNIT ( $, .RADIAN. ) );
#143 =( NAMED_UNIT ( * ) SI_UNIT ( $, .STERADIAN. ) SOLID_ANGLE_UNIT ( ) );
#144 = PRESENTATION_STYLE_ASSIGNMENT (( #12 ) ) ;
#145 = ADVANCED_FACE ( 'NONE', ( #264 ), #244, .T. ) ;
#146 = CARTESIAN_POINT ( 'NONE',  ( 0.000000000000000000, 0.000000000000000000, 0.000000000000000000 ) ) ;
#147 = EDGE_LOOP ( 'NONE', ( #29, #228, #102, #4 ) ) ;
#148 = CARTESIAN_POINT ( 'NONE',  ( 3.061616997868383018E-17, 0.6250000000000000000, 0.2500000000000000000 ) ) ;
#149 = ORIENTED_EDGE ( 'NONE', *, *, #203, .F. ) ;
#150 = PRODUCT_CONTEXT ( 'NONE', #256, 'mechanical' ) ;
#151 = STYLED_ITEM ( 'NONE', ( #135 ), #94 ) ;
#152 = ORIENTED_EDGE ( 'NONE', *, *, #192, .F. ) ;
#153 = AXIS2_PLACEMENT_3D ( 'NONE', #71, #233, #189 ) ;
#154 =( NAMED_UNIT ( * ) PLANE_ANGLE_UNIT ( ) SI_UNIT ( $, .RADIAN. ) );
#155 =( LENGTH_UNIT ( ) NAMED_UNIT ( * ) SI_UNIT ( $, .METRE. ) );
#156 =( NAMED_UNIT ( * ) SI_UNIT ( $, .STERADIAN. ) SOLID_ANGLE_UNIT ( ) );
#157 =( GEOMETRIC_REPRESENTATION_CONTEXT ( 3 ) GLOBAL_UNCERTAINTY_ASSIGNED_CONTEXT ( ( #281 ) ) GLOBAL_UNIT_ASSIGNED_CONTEXT ( ( #188, #154, #21 ) ) REPRESENTATION_CONTEXT ( 'NONE', 'WORKASPACE' ) );
#158 = CIRCLE ( 'NONE', #239, 0.2500000000000000000 ) ;
#159 = DIRECTION ( 'NONE',  ( 0.000000000000000000, 0.000000000000000000, -1.000000000000000000 ) ) ;
#160 = SURFACE_STYLE_FILL_AREA ( #90 ) ;
#161 = ADVANCED_FACE ( 'NONE', ( #304 ), #237, .F. ) ;
#162 = SURFACE_SIDE_STYLE ('',( #285 ) ) ;
#163 = AXIS2_PLACEMENT_3D ( 'NONE', #300, #197, #286 ) ;
#164 = DIRECTION ( 'NONE',  ( 0.000000000000000000, 0.000000000000000000, -1.000000000000000000 ) ) ;
#165 = CARTESIAN_POINT ( 'NONE',  ( 0.000000000000000000, 0.000000000000000000, 0.000000000000000000 ) ) ;
#166 = DIRECTION ( 'NONE',  ( -0.000000000000000000, -1.000000000000000000, -0.000000000000000000 ) ) ;
#167 = PRODUCT_DEFINITION_SHAPE ( 'NONE', 'NONE',  #55 ) ;
#168 = CARTESIAN_POINT ( 'NONE',  ( 0.000000000000000000, 0.000000000000000000, 0.000000000000000000 ) ) ;
#169 = LINE ( 'NONE', #117, #283 ) ;
#170 = LENGTH_MEASURE_WITH_UNIT ( LENGTH_MEASURE( 0.02539999999999999897 ), #48 );
#171 = DIRECTION ( 'NONE',  ( -1.000000000000000000, 0.000000000000000000, 0.000000000000000000 ) ) ;
#172 =( LENGTH_UNIT ( ) NAMED_UNIT ( * ) SI_UNIT ( $, .METRE. ) );
#173 = CARTESIAN_POINT ( 'NONE',  ( 0.2500000000000000000, 2.500000000000000000, 0.000000000000000000 ) ) ;
#174 = PLANE ( 'NONE',  #123 ) ;
#175 = VERTEX_POINT ( 'NONE', #47 ) ;
#176 = DIRECTION ( 'NONE',  ( -1.000000000000000000, 0.000000000000000000, 0.000000000000000000 ) ) ;
#177 = DIMENSIONAL_EXPONENTS ( 1.000000000000000000, 0.000000000000000000, 0.000000000000000000, 0.000000000000000000, 0.000000000000000000, 0.000000000000000000, 0.000000000000000000 ) ;
#178 = AXIS2_PLACEMENT_3D ( 'NONE', #25, #76, #176 ) ;
#179 = ORIENTED_EDGE ( 'NONE', *, *, #254, .T. ) ;
#180 = FILL_AREA_STYLE ('',( #289 ) ) ;
#181 = EDGE_LOOP ( 'NONE', ( #265, #152 ) ) ;
#182 =( GEOMETRIC_REPRESENTATION_CONTEXT ( 3 ) GLOBAL_UNCERTAINTY_ASSIGNED_CONTEXT ( ( #49 ) ) GLOBAL_UNIT_ASSIGNED_CONTEXT ( ( #52, #121, #209 ) ) REPRESENTATION_CONTEXT ( 'NONE', 'WORKASPACE' ) );
#183 = AXIS2_PLACEMENT_3D ( 'NONE', #14, #299, #255 ) ;
#184 = PLANE ( 'NONE',  #6 ) ;
#185 = FACE_OUTER_BOUND ( 'NONE', #104, .T. ) ;
#186 = SURFACE_SIDE_STYLE ('',( #301 ) ) ;
#187 = EDGE_CURVE ( 'NONE', #100, #208, #80, .T. ) ;
#188 =( CONVERSION_BASED_UNIT ( 'INCH', #125 ) LENGTH_UNIT ( ) NAMED_UNIT ( #177 ) );
#189 = DIRECTION ( 'NONE',  ( -1.000000000000000000, 0.000000000000000000, 0.000000000000000000 ) ) ;
#190 = DIRECTION ( 'NONE',  ( 3.265724797726278260E-17, 1.000000000000000000, -0.000000000000000000 ) ) ;
#191 = EDGE_LOOP ( 'NONE', ( #270, #252 ) ) ;
#192 = EDGE_CURVE ( 'NONE', #208, #100, #103, .T. ) ;
#193 = STYLED_ITEM ( 'NONE', ( #20 ), #200 ) ;
#194 =( NAMED_UNIT ( * ) SI_UNIT ( $, .STERADIAN. ) SOLID_ANGLE_UNIT ( ) );
#195 = DIRECTION ( 'NONE',  ( 3.265724797726278260E-17, 1.000000000000000000, -0.000000000000000000 ) ) ;
#196 =( CONVERSION_BASED_UNIT ( 'INCH', #70 ) LENGTH_UNIT ( ) NAMED_UNIT ( #131 ) );
#197 = DIRECTION ( 'NONE',  ( -0.000000000000000000, -1.000000000000000000, -0.000000000000000000 ) ) ;
#198 = CIRCLE ( 'NONE', #163, 0.2500000000000000000 ) ;
#199 = FACE_OUTER_BOUND ( 'NONE', #147, .T. ) ;
#200 = MANIFOLD_SOLID_BREP ( 'Revolve - Cutting Edge', #127 ) ;
#201 = EDGE_CURVE ( 'NONE', #296, #10, #19, .T. ) ;
#202 = EDGE_LOOP ( 'NONE', ( #149, #98, #57, #291 ) ) ;
#203 = EDGE_CURVE ( 'NONE', #208, #175, #220, .T. ) ;
#204 = FACE_OUTER_BOUND ( 'NONE', #191, .T. ) ;
#205 = ORIENTED_EDGE ( 'NONE', *, *, #113, .F. ) ;
#206 = ORIENTED_EDGE ( 'NONE', *, *, #207, .T. ) ;
#207 = EDGE_CURVE ( 'NONE', #175, #107, #251, .T. ) ;
#208 = VERTEX_POINT ( 'NONE', #122 ) ;
#209 =( NAMED_UNIT ( * ) SI_UNIT ( $, .STERADIAN. ) SOLID_ANGLE_UNIT ( ) );
#210 = AXIS2_PLACEMENT_3D ( 'NONE', #165, #15, #159 ) ;
#211 = FILL_AREA_STYLE ('',( #234 ) ) ;
#212 =( NAMED_UNIT ( * ) SI_UNIT ( $, .STERADIAN. ) SOLID_ANGLE_UNIT ( ) );
#213 = CYLINDRICAL_SURFACE ( 'NONE', #267, 0.2500000000000000000 ) ;
#214 = CIRCLE ( 'NONE', #130, 0.2500000000000000000 ) ;
#215 = DIRECTION ( 'NONE',  ( -1.000000000000000000, 3.265724797726278260E-17, 0.000000000000000000 ) ) ;
#216 = UNCERTAINTY_MEASURE_WITH_UNIT (LENGTH_MEASURE( 1.000000000000000082E-05 ), #99, 'distance_accuracy_value', 'NONE');
#217 = DIRECTION ( 'NONE',  ( 3.265724797726278260E-17, 1.000000000000000000, -0.000000000000000000 ) ) ;
#218 = AXIS2_PLACEMENT_3D ( 'NONE', #51, #190, #215 ) ;
#219 =( NAMED_UNIT ( * ) SI_UNIT ( $, .STERADIAN. ) SOLID_ANGLE_UNIT ( ) );
#220 = LINE ( 'NONE', #27, #229 ) ;
#221 = ADVANCED_FACE ( 'NONE', ( #204 ), #174, .T. ) ;
#222 = DIRECTION ( 'NONE',  ( 0.000000000000000000, 0.000000000000000000, -1.000000000000000000 ) ) ;
#223 = FILL_AREA_STYLE_COLOUR ( '', #33 ) ;
#224 =( LENGTH_UNIT ( ) NAMED_UNIT ( * ) SI_UNIT ( $, .METRE. ) );
#225 = PRODUCT_RELATED_PRODUCT_CATEGORY ( 'part', '', ( #240 ) ) ;
#226 = DIRECTION ( 'NONE',  ( 3.265724797726278260E-17, 1.000000000000000000, -0.000000000000000000 ) ) ;
#227 = VERTEX_POINT ( 'NONE', #44 ) ;
#228 = ORIENTED_EDGE ( 'NONE', *, *, #139, .T. ) ;
#229 = VECTOR ( 'NONE', #54, 39.37007874015748143 ) ;
#230 = SURFACE_SIDE_STYLE ('',( #249 ) ) ;
#231 = SHAPE_DEFINITION_REPRESENTATION ( #167, #112 ) ;
#232 = AXIS2_PLACEMENT_3D ( 'NONE', #96, #195, #1 ) ;
#233 = DIRECTION ( 'NONE',  ( 3.265724797726278260E-17, 1.000000000000000000, -0.000000000000000000 ) ) ;
#234 = FILL_AREA_STYLE_COLOUR ( '', #276 ) ;
#235 = SURFACE_STYLE_USAGE ( .BOTH. , #37 ) ;
#236 = SURFACE_SIDE_STYLE ('',( #279 ) ) ;
#237 = PLANE ( 'NONE',  #218 ) ;
#238 =( NAMED_UNIT ( * ) PLANE_ANGLE_UNIT ( ) SI_UNIT ( $, .RADIAN. ) );
#239 = AXIS2_PLACEMENT_3D ( 'NONE', #132, #134, #18 ) ;
#240 = PRODUCT ( '59845', '59845', '', ( #150 ) ) ;
#241 =( LENGTH_UNIT ( ) NAMED_UNIT ( * ) SI_UNIT ( $, .METRE. ) );
#242 = PRESENTATION_LAYER_ASSIGNMENT (  '', '', ( #151 ) ) ;
#243 = MECHANICAL_DESIGN_GEOMETRIC_PRESENTATION_REPRESENTATION (  '', ( #193 ), #308 ) ;
#244 = CYLINDRICAL_SURFACE ( 'NONE', #36, 0.2499999999999999722 ) ;
#245 = PLANE ( 'NONE',  #32 ) ;
#246 = PRESENTATION_LAYER_ASSIGNMENT (  '', '', ( #69 ) ) ;
#247 = DIRECTION ( 'NONE',  ( 0.000000000000000000, 0.000000000000000000, -1.000000000000000000 ) ) ;
#248 = VERTEX_POINT ( 'NONE', #305 ) ;
#249 = SURFACE_STYLE_FILL_AREA ( #180 ) ;
#250 = ADVANCED_FACE ( 'NONE', ( #116 ), #284, .T. ) ;
#251 = CIRCLE ( 'NONE', #178, 0.2499999999999999167 ) ;
#252 = ORIENTED_EDGE ( 'NONE', *, *, #113, .T. ) ;
#253 = DIRECTION ( 'NONE',  ( 0.000000000000000000, 1.000000000000000000, 0.000000000000000000 ) ) ;
#254 = EDGE_CURVE ( 'NONE', #107, #175, #129, .T. ) ;
#255 = DIRECTION ( 'NONE',  ( 1.000000000000000000, 0.000000000000000000, 0.000000000000000000 ) ) ;
#256 = APPLICATION_CONTEXT ( 'automotive_design' ) ;
#257 = AXIS2_PLACEMENT_3D ( 'NONE', #118, #2, #140 ) ;
#258 = DIRECTION ( 'NONE',  ( -0.000000000000000000, -1.000000000000000000, -0.000000000000000000 ) ) ;
#259 =( GEOMETRIC_REPRESENTATION_CONTEXT ( 3 ) GLOBAL_UNCERTAINTY_ASSIGNED_CONTEXT ( ( #66 ) ) GLOBAL_UNIT_ASSIGNED_CONTEXT ( ( #86, #274, #156 ) ) REPRESENTATION_CONTEXT ( 'NONE', 'WORKASPACE' ) );
#260 = LENGTH_MEASURE_WITH_UNIT ( LENGTH_MEASURE( 0.02539999999999999897 ), #133 );
#261 = SURFACE_STYLE_USAGE ( .BOTH. , #162 ) ;
#262 = CLOSED_SHELL ( 'NONE', ( #145, #161, #250, #7 ) ) ;
#263 = CARTESIAN_POINT ( 'NONE',  ( 6.123233995736772199E-17, 2.500000000000000000, 0.000000000000000000 ) ) ;
#264 = FACE_OUTER_BOUND ( 'NONE', #126, .T. ) ;
#265 = ORIENTED_EDGE ( 'NONE', *, *, #187, .F. ) ;
#266 = LINE ( 'NONE', #295, #114 ) ;
#267 = AXIS2_PLACEMENT_3D ( 'NONE', #110, #258, #164 ) ;
#268 = AXIS2_PLACEMENT_3D ( 'NONE', #95, #78, #247 ) ;
#269 = LENGTH_MEASURE_WITH_UNIT ( LENGTH_MEASURE( 0.02539999999999999897 ), #241 );
#270 = ORIENTED_EDGE ( 'NONE', *, *, #41, .T. ) ;
#271 = CARTESIAN_POINT ( 'NONE',  ( 0.000000000000000000, 0.6250000000000000000, 0.000000000000000000 ) ) ;
#272 = ORIENTED_EDGE ( 'NONE', *, *, #201, .T. ) ;
#273 = CYLINDRICAL_SURFACE ( 'NONE', #210, 0.2500000000000000000 ) ;
#274 =( NAMED_UNIT ( * ) PLANE_ANGLE_UNIT ( ) SI_UNIT ( $, .RADIAN. ) );
#275 = EDGE_CURVE ( 'NONE', #10, #296, #158, .T. ) ;
#276 = COLOUR_RGB ( '',1.000000000000000000, 0.000000000000000000, 0.000000000000000000 ) ;
#277 = PRODUCT_DEFINITION_CONTEXT ( 'detailed design', #290, 'design' ) ;
#278 = PRESENTATION_LAYER_ASSIGNMENT (  '', '', ( #105 ) ) ;
#279 = SURFACE_STYLE_FILL_AREA ( #65 ) ;
#280 = ORIENTED_EDGE ( 'NONE', *, *, #3, .T. ) ;
#281 = UNCERTAINTY_MEASURE_WITH_UNIT (LENGTH_MEASURE( 1.000000000000000082E-05 ), #188, 'distance_accuracy_value', 'NONE');
#282 = ADVANCED_FACE ( 'NONE', ( #185 ), #184, .T. ) ;
#283 = VECTOR ( 'NONE', #166, 39.37007874015748143 ) ;
#284 = CYLINDRICAL_SURFACE ( 'NONE', #303, 0.2499999999999999722 ) ;
#285 = SURFACE_STYLE_FILL_AREA ( #43 ) ;
#286 = DIRECTION ( 'NONE',  ( 0.000000000000000000, 0.000000000000000000, -1.000000000000000000 ) ) ;
#287 = COLOUR_RGB ( '',0.7921568627450980005, 0.8196078431372548767, 0.9333333333333333481 ) ;
#288 = DIRECTION ( 'NONE',  ( 0.000000000000000000, -1.000000000000000000, -0.000000000000000000 ) ) ;
#289 = FILL_AREA_STYLE_COLOUR ( '', #22 ) ;
#290 = APPLICATION_CONTEXT ( 'automotive_design' ) ;
#291 = ORIENTED_EDGE ( 'NONE', *, *, #207, .F. ) ;
#292 = SURFACE_SIDE_STYLE ('',( #124 ) ) ;
#293 = ORIENTED_EDGE ( 'NONE', *, *, #139, .F. ) ;
#294 = DIMENSIONAL_EXPONENTS ( 1.000000000000000000, 0.000000000000000000, 0.000000000000000000, 0.000000000000000000, 0.000000000000000000, 0.000000000000000000, 0.000000000000000000 ) ;
#295 = CARTESIAN_POINT ( 'NONE',  ( 0.000000000000000000, 0.000000000000000000, -0.2500000000000000000 ) ) ;
#296 = VERTEX_POINT ( 'NONE', #148 ) ;
#297 = EDGE_CURVE ( 'NONE', #100, #107, #109, .T. ) ;
#298 = STYLED_ITEM ( 'NONE', ( #38 ), #282 ) ;
#299 = DIRECTION ( 'NONE',  ( 0.000000000000000000, 0.000000000000000000, 1.000000000000000000 ) ) ;
#300 = CARTESIAN_POINT ( 'NONE',  ( 0.000000000000000000, 0.000000000000000000, 0.000000000000000000 ) ) ;
#301 = SURFACE_STYLE_FILL_AREA ( #211 ) ;
#302 = FILL_AREA_STYLE_COLOUR ( '', #62 ) ;
#303 = AXIS2_PLACEMENT_3D ( 'NONE', #263, #50, #46 ) ;
#304 = FACE_OUTER_BOUND ( 'NONE', #181, .T. ) ;
#305 = CARTESIAN_POINT ( 'NONE',  ( 3.061616997868383018E-17, 0.000000000000000000, 0.2500000000000000000 ) ) ;
#306 = CARTESIAN_POINT ( 'NONE',  ( 6.123233995736772199E-17, 2.500000000000000000, 0.000000000000000000 ) ) ;
#307 = CARTESIAN_POINT ( 'NONE',  ( -0.2500000000000000000, 0.6250000000000000000, 0.000000000000000000 ) ) ;
#308 =( GEOMETRIC_REPRESENTATION_CONTEXT ( 3 ) GLOBAL_UNCERTAINTY_ASSIGNED_CONTEXT ( ( #216 ) ) GLOBAL_UNIT_ASSIGNED_CONTEXT ( ( #99, #120, #143 ) ) REPRESENTATION_CONTEXT ( 'NONE', 'WORKASPACE' ) );
#309 = CARTESIAN_POINT ( 'NONE',  ( -0.2499999999999998612, 2.500000000000000000, 0.000000000000000000 ) ) ;
ENDSEC;
END-ISO-10303-21;
