ISO-10303-21;
HEADER;
FILE_DESCRIPTION (( 'STEP AP214' ),
    '1' );
FILE_NAME ('82650.STEP',
    '2023-06-23T06:35:12',
    ( '' ),
    ( '' ),
    'SwSTEP 2.0',
    'SolidWorks 2023',
    '' );
FILE_SCHEMA (( 'AUTOMOTIVE_DESIGN' ));
ENDSEC;

DATA;
#1 = CARTESIAN_POINT ( 'NONE',  ( 7.323045813778616568E-35, 1.000000000000000000, 0.000000000000000000 ) ) ;
#2 = AXIS2_PLACEMENT_3D ( 'NONE', #218, #82, #172 ) ;
#3 = AXIS2_PLACEMENT_3D ( 'NONE', #93, #164, #214 ) ;
#4 = DIRECTION ( 'NONE',  ( -3.061616997868386099E-17, 1.000000000000000000, -0.000000000000000000 ) ) ;
#5 = FACE_OUTER_BOUND ( 'NONE', #110, .T. ) ;
#6 = EDGE_CURVE ( 'NONE', #179, #232, #262, .T. ) ;
#7 = AXIS2_PLACEMENT_3D ( 'NONE', #241, #292, #215 ) ;
#8 = CIRCLE ( 'NONE', #144, 0.1562500000000000833 ) ;
#9 = DIRECTION ( 'NONE',  ( -0.000000000000000000, -1.000000000000000000, -0.000000000000000000 ) ) ;
#10 =( NAMED_UNIT ( * ) SI_UNIT ( $, .STERADIAN. ) SOLID_ANGLE_UNIT ( ) );
#11 = ADVANCED_FACE ( 'NONE', ( #128 ), #234, .T. ) ;
#12 =( NAMED_UNIT ( * ) PLANE_ANGLE_UNIT ( ) SI_UNIT ( $, .RADIAN. ) );
#13 = EDGE_LOOP ( 'NONE', ( #50, #250 ) ) ;
#14 = AXIS2_PLACEMENT_3D ( 'NONE', #156, #282, #85 ) ;
#15 = SURFACE_STYLE_FILL_AREA ( #225 ) ;
#16 = VERTEX_POINT ( 'NONE', #114 ) ;
#17 = LENGTH_MEASURE_WITH_UNIT ( LENGTH_MEASURE( 0.02539999999999999897 ), #73 );
#18 = FILL_AREA_STYLE_COLOUR ( '', #43 ) ;
#19 = EDGE_LOOP ( 'NONE', ( #256, #283, #133, #306 ) ) ;
#20 =( GEOMETRIC_REPRESENTATION_CONTEXT ( 3 ) GLOBAL_UNCERTAINTY_ASSIGNED_CONTEXT ( ( #269 ) ) GLOBAL_UNIT_ASSIGNED_CONTEXT ( ( #239, #165, #115 ) ) REPRESENTATION_CONTEXT ( 'NONE', 'WORKASPACE' ) );
#21 =( NAMED_UNIT ( * ) SI_UNIT ( $, .STERADIAN. ) SOLID_ANGLE_UNIT ( ) );
#22 = VERTEX_POINT ( 'NONE', #137 ) ;
#23 = PRESENTATION_STYLE_ASSIGNMENT (( #152 ) ) ;
#24 =( NAMED_UNIT ( * ) PLANE_ANGLE_UNIT ( ) SI_UNIT ( $, .RADIAN. ) );
#25 =( NAMED_UNIT ( * ) SI_UNIT ( $, .STERADIAN. ) SOLID_ANGLE_UNIT ( ) );
#26 = DIRECTION ( 'NONE',  ( 0.000000000000000000, 0.000000000000000000, -1.000000000000000000 ) ) ;
#27 = AXIS2_PLACEMENT_3D ( 'NONE', #94, #28, #32 ) ;
#28 = DIRECTION ( 'NONE',  ( 0.000000000000000000, 1.000000000000000000, 0.000000000000000000 ) ) ;
#29 = FILL_AREA_STYLE ('',( #140 ) ) ;
#30 = PRODUCT ( '82650', '82650', '', ( #264 ) ) ;
#31 =( NAMED_UNIT ( * ) PLANE_ANGLE_UNIT ( ) SI_UNIT ( $, .RADIAN. ) );
#32 = DIRECTION ( 'NONE',  ( 0.000000000000000000, -0.000000000000000000, 1.000000000000000000 ) ) ;
#33 = SURFACE_SIDE_STYLE ('',( #290 ) ) ;
#34 = PRESENTATION_LAYER_ASSIGNMENT (  '', '', ( #174 ) ) ;
#35 = FILL_AREA_STYLE ('',( #248 ) ) ;
#36 =( NAMED_UNIT ( * ) PLANE_ANGLE_UNIT ( ) SI_UNIT ( $, .RADIAN. ) );
#37 = DIMENSIONAL_EXPONENTS ( 1.000000000000000000, 0.000000000000000000, 0.000000000000000000, 0.000000000000000000, 0.000000000000000000, 0.000000000000000000, 0.000000000000000000 ) ;
#38 =( CONVERSION_BASED_UNIT ( 'INCH', #170 ) LENGTH_UNIT ( ) NAMED_UNIT ( #272 ) );
#39 = MECHANICAL_DESIGN_GEOMETRIC_PRESENTATION_REPRESENTATION (  '', ( #174 ), #87 ) ;
#40 = FACE_OUTER_BOUND ( 'NONE', #19, .T. ) ;
#41 = SURFACE_STYLE_USAGE ( .BOTH. , #81 ) ;
#42 = FILL_AREA_STYLE_COLOUR ( '', #263 ) ;
#43 = COLOUR_RGB ( '',1.000000000000000000, 0.000000000000000000, 0.000000000000000000 ) ;
#44 =( GEOMETRIC_REPRESENTATION_CONTEXT ( 3 ) GLOBAL_UNCERTAINTY_ASSIGNED_CONTEXT ( ( #211 ) ) GLOBAL_UNIT_ASSIGNED_CONTEXT ( ( #257, #286, #111 ) ) REPRESENTATION_CONTEXT ( 'NONE', 'WORKASPACE' ) );
#45 = CARTESIAN_POINT ( 'NONE',  ( 1.913510623667739463E-17, 1.000000000000000000, 0.1562500000000000000 ) ) ;
#46 = PRODUCT_DEFINITION_SHAPE ( 'NONE', 'NONE',  #301 ) ;
#47 = FILL_AREA_STYLE ('',( #18 ) ) ;
#48 = ADVANCED_FACE ( 'NONE', ( #261 ), #210, .T. ) ;
#49 = DIRECTION ( 'NONE',  ( 0.000000000000000000, 0.000000000000000000, -1.000000000000000000 ) ) ;
#50 = ORIENTED_EDGE ( 'NONE', *, *, #120, .T. ) ;
#51 =( LENGTH_UNIT ( ) NAMED_UNIT ( * ) SI_UNIT ( $, .METRE. ) );
#52 = VECTOR ( 'NONE', #55, 39.37007874015748143 ) ;
#53 = LENGTH_MEASURE_WITH_UNIT ( LENGTH_MEASURE( 0.02539999999999999897 ), #51 );
#54 = ADVANCED_FACE ( 'NONE', ( #5 ), #244, .T. ) ;
#55 = DIRECTION ( 'NONE',  ( -3.061616997868386099E-17, 1.000000000000000000, -0.000000000000000000 ) ) ;
#56 = LINE ( 'NONE', #243, #162 ) ;
#57 = DIRECTION ( 'NONE',  ( 3.061616997868386099E-17, -1.000000000000000000, 0.000000000000000000 ) ) ;
#58 = STYLED_ITEM ( 'NONE', ( #23 ), #242 ) ;
#59 = EDGE_CURVE ( 'NONE', #179, #22, #116, .T. ) ;
#60 = DIMENSIONAL_EXPONENTS ( 1.000000000000000000, 0.000000000000000000, 0.000000000000000000, 0.000000000000000000, 0.000000000000000000, 0.000000000000000000, 0.000000000000000000 ) ;
#61 =( CONVERSION_BASED_UNIT ( 'INCH', #271 ) LENGTH_UNIT ( ) NAMED_UNIT ( #37 ) );
#62 = CARTESIAN_POINT ( 'NONE',  ( 0.000000000000000000, 0.000000000000000000, -0.1562500000000000000 ) ) ;
#63 = DIRECTION ( 'NONE',  ( -0.000000000000000000, -1.000000000000000000, -0.000000000000000000 ) ) ;
#64 = DIRECTION ( 'NONE',  ( -0.000000000000000000, -1.000000000000000000, -0.000000000000000000 ) ) ;
#65 = CARTESIAN_POINT ( 'NONE',  ( -6.123233995736772199E-17, 3.000000000000000444, 0.000000000000000000 ) ) ;
#66 = SURFACE_SIDE_STYLE ('',( #108 ) ) ;
#67 = CIRCLE ( 'NONE', #270, 0.1562500000000000000 ) ;
#68 = ORIENTED_EDGE ( 'NONE', *, *, #213, .F. ) ;
#69 = DIRECTION ( 'NONE',  ( -1.000000000000000000, 0.000000000000000000, 0.000000000000000000 ) ) ;
#70 = DIRECTION ( 'NONE',  ( -3.061616997868386099E-17, 1.000000000000000000, -0.000000000000000000 ) ) ;
#71 =( CONVERSION_BASED_UNIT ( 'INCH', #90 ) LENGTH_UNIT ( ) NAMED_UNIT ( #60 ) );
#72 = CIRCLE ( 'NONE', #14, 0.1562500000000000000 ) ;
#73 =( LENGTH_UNIT ( ) NAMED_UNIT ( * ) SI_UNIT ( $, .METRE. ) );
#74 =( NAMED_UNIT ( * ) SI_UNIT ( $, .STERADIAN. ) SOLID_ANGLE_UNIT ( ) );
#75 = SURFACE_STYLE_USAGE ( .BOTH. , #217 ) ;
#76 = EDGE_CURVE ( 'NONE', #232, #157, #56, .T. ) ;
#77 = DIRECTION ( 'NONE',  ( -3.061616997868386099E-17, 1.000000000000000000, -0.000000000000000000 ) ) ;
#78 = PLANE ( 'NONE',  #300 ) ;
#79 = DIRECTION ( 'NONE',  ( 0.000000000000000000, 0.000000000000000000, -1.000000000000000000 ) ) ;
#80 =( GEOMETRIC_REPRESENTATION_CONTEXT ( 3 ) GLOBAL_UNCERTAINTY_ASSIGNED_CONTEXT ( ( #221 ) ) GLOBAL_UNIT_ASSIGNED_CONTEXT ( ( #61, #36, #124 ) ) REPRESENTATION_CONTEXT ( 'NONE', 'WORKASPACE' ) );
#81 = SURFACE_SIDE_STYLE ('',( #102 ) ) ;
#82 = DIRECTION ( 'NONE',  ( -0.000000000000000000, -1.000000000000000000, -0.000000000000000000 ) ) ;
#83 =( LENGTH_UNIT ( ) NAMED_UNIT ( * ) SI_UNIT ( $, .METRE. ) );
#84 = CYLINDRICAL_SURFACE ( 'NONE', #230, 0.1562500000000000000 ) ;
#85 = DIRECTION ( 'NONE',  ( 0.000000000000000000, 0.000000000000000000, -1.000000000000000000 ) ) ;
#86 = APPLICATION_CONTEXT ( 'automotive_design' ) ;
#87 =( GEOMETRIC_REPRESENTATION_CONTEXT ( 3 ) GLOBAL_UNCERTAINTY_ASSIGNED_CONTEXT ( ( #237 ) ) GLOBAL_UNIT_ASSIGNED_CONTEXT ( ( #38, #12, #10 ) ) REPRESENTATION_CONTEXT ( 'NONE', 'WORKASPACE' ) );
#88 = ORIENTED_EDGE ( 'NONE', *, *, #180, .F. ) ;
#89 = SURFACE_SIDE_STYLE ('',( #235 ) ) ;
#90 = LENGTH_MEASURE_WITH_UNIT ( LENGTH_MEASURE( 0.02539999999999999897 ), #255 );
#91 = AXIS2_PLACEMENT_3D ( 'NONE', #267, #57, #99 ) ;
#92 = PRESENTATION_STYLE_ASSIGNMENT (( #130 ) ) ;
#93 = CARTESIAN_POINT ( 'NONE',  ( 0.000000000000000000, 0.000000000000000000, 0.000000000000000000 ) ) ;
#94 = CARTESIAN_POINT ( 'NONE',  ( 0.000000000000000000, 1.000000000000000000, 0.000000000000000000 ) ) ;
#95 = STYLED_ITEM ( 'NONE', ( #109 ), #200 ) ;
#96 = DIRECTION ( 'NONE',  ( -1.000000000000000000, -3.061616997868386099E-17, 0.000000000000000000 ) ) ;
#97 = ADVANCED_FACE ( 'NONE', ( #308 ), #78, .F. ) ;
#98 = SURFACE_STYLE_USAGE ( .BOTH. , #33 ) ;
#99 = DIRECTION ( 'NONE',  ( 1.000000000000000000, 3.061616997868386099E-17, 0.000000000000000000 ) ) ;
#100 = CLOSED_SHELL ( 'NONE', ( #280, #97, #48, #129 ) ) ;
#101 = APPLICATION_CONTEXT ( 'automotive_design' ) ;
#102 = SURFACE_STYLE_FILL_AREA ( #147 ) ;
#103 = CIRCLE ( 'NONE', #288, 0.1562500000000000000 ) ;
#104 = DIMENSIONAL_EXPONENTS ( 1.000000000000000000, 0.000000000000000000, 0.000000000000000000, 0.000000000000000000, 0.000000000000000000, 0.000000000000000000, 0.000000000000000000 ) ;
#105 =( CONVERSION_BASED_UNIT ( 'INCH', #17 ) LENGTH_UNIT ( ) NAMED_UNIT ( #247 ) );
#106 = ORIENTED_EDGE ( 'NONE', *, *, #213, .T. ) ;
#107 =( NAMED_UNIT ( * ) PLANE_ANGLE_UNIT ( ) SI_UNIT ( $, .RADIAN. ) );
#108 = SURFACE_STYLE_FILL_AREA ( #47 ) ;
#109 = PRESENTATION_STYLE_ASSIGNMENT (( #154 ) ) ;
#110 = EDGE_LOOP ( 'NONE', ( #88, #228 ) ) ;
#111 =( NAMED_UNIT ( * ) SI_UNIT ( $, .STERADIAN. ) SOLID_ANGLE_UNIT ( ) );
#112 = ORIENTED_EDGE ( 'NONE', *, *, #171, .T. ) ;
#113 =( CONVERSION_BASED_UNIT ( 'INCH', #284 ) LENGTH_UNIT ( ) NAMED_UNIT ( #298 ) );
#114 = CARTESIAN_POINT ( 'NONE',  ( 1.913510623667739463E-17, 0.000000000000000000, 0.1562500000000000000 ) ) ;
#115 =( NAMED_UNIT ( * ) SI_UNIT ( $, .STERADIAN. ) SOLID_ANGLE_UNIT ( ) );
#116 = LINE ( 'NONE', #184, #52 ) ;
#117 = EDGE_CURVE ( 'NONE', #22, #157, #139, .T. ) ;
#118 = PRESENTATION_LAYER_ASSIGNMENT (  '', '', ( #251 ) ) ;
#119 = SURFACE_STYLE_FILL_AREA ( #35 ) ;
#120 = EDGE_CURVE ( 'NONE', #196, #16, #67, .T. ) ;
#121 = AXIS2_PLACEMENT_3D ( 'NONE', #160, #227, #302 ) ;
#122 = AXIS2_PLACEMENT_3D ( 'NONE', #265, #77, #187 ) ;
#123 = DIRECTION ( 'NONE',  ( 0.000000000000000000, 0.000000000000000000, -1.000000000000000000 ) ) ;
#124 =( NAMED_UNIT ( * ) SI_UNIT ( $, .STERADIAN. ) SOLID_ANGLE_UNIT ( ) );
#125 = EDGE_CURVE ( 'NONE', #16, #196, #103, .T. ) ;
#126 = FACE_OUTER_BOUND ( 'NONE', #177, .T. ) ;
#127 = STYLED_ITEM ( 'NONE', ( #191 ), #136 ) ;
#128 = FACE_OUTER_BOUND ( 'NONE', #13, .T. ) ;
#129 = ADVANCED_FACE ( 'NONE', ( #161 ), #167, .F. ) ;
#130 = SURFACE_STYLE_USAGE ( .BOTH. , #66 ) ;
#131 = MECHANICAL_DESIGN_GEOMETRIC_PRESENTATION_REPRESENTATION (  '', ( #95 ), #246 ) ;
#132 = CARTESIAN_POINT ( 'NONE',  ( 0.000000000000000000, 0.000000000000000000, 0.000000000000000000 ) ) ;
#133 = ORIENTED_EDGE ( 'NONE', *, *, #120, .F. ) ;
#134 = FACE_OUTER_BOUND ( 'NONE', #181, .T. ) ;
#135 = CARTESIAN_POINT ( 'NONE',  ( 0.000000000000000000, 0.000000000000000000, 0.000000000000000000 ) ) ;
#136 = MANIFOLD_SOLID_BREP ( 'Revolve - Cutting Edge', #168 ) ;
#137 = CARTESIAN_POINT ( 'NONE',  ( -0.1562500000000001388, 3.000000000000000444, 0.000000000000000000 ) ) ;
#138 = COLOUR_RGB ( '',1.000000000000000000, 0.000000000000000000, 0.000000000000000000 ) ;
#139 = CIRCLE ( 'NONE', #122, 0.1562500000000000833 ) ;
#140 = FILL_AREA_STYLE_COLOUR ( '', #138 ) ;
#141 = ADVANCED_FACE ( 'NONE', ( #40 ), #84, .T. ) ;
#142 = DIRECTION ( 'NONE',  ( 0.000000000000000000, 0.000000000000000000, -1.000000000000000000 ) ) ;
#143 = DIRECTION ( 'NONE',  ( -0.000000000000000000, -1.000000000000000000, -0.000000000000000000 ) ) ;
#144 = AXIS2_PLACEMENT_3D ( 'NONE', #274, #192, #295 ) ;
#145 = FILL_AREA_STYLE_COLOUR ( '', #159 ) ;
#146 = CARTESIAN_POINT ( 'NONE',  ( -0.1562500000000000000, 1.000000000000000000, 0.000000000000000000 ) ) ;
#147 = FILL_AREA_STYLE ('',( #145 ) ) ;
#148 = EDGE_CURVE ( 'NONE', #204, #16, #220, .T. ) ;
#149 = MECHANICAL_DESIGN_GEOMETRIC_PRESENTATION_REPRESENTATION (  '', ( #251 ), #20 ) ;
#150 = CARTESIAN_POINT ( 'NONE',  ( 0.1562500000000000000, 3.000000000000000444, 1.913510623667739771E-17 ) ) ;
#151 = CARTESIAN_POINT ( 'NONE',  ( 0.000000000000000000, 0.000000000000000000, -0.1562500000000000000 ) ) ;
#152 = SURFACE_STYLE_USAGE ( .BOTH. , #89 ) ;
#153 = ORIENTED_EDGE ( 'NONE', *, *, #117, .T. ) ;
#154 = SURFACE_STYLE_USAGE ( .BOTH. , #249 ) ;
#155 = ORIENTED_EDGE ( 'NONE', *, *, #6, .T. ) ;
#156 = CARTESIAN_POINT ( 'NONE',  ( 0.000000000000000000, 1.000000000000000000, 0.000000000000000000 ) ) ;
#157 = VERTEX_POINT ( 'NONE', #150 ) ;
#158 =( LENGTH_UNIT ( ) NAMED_UNIT ( * ) SI_UNIT ( $, .METRE. ) );
#159 = COLOUR_RGB ( '',1.000000000000000000, 0.000000000000000000, 0.000000000000000000 ) ;
#160 = CARTESIAN_POINT ( 'NONE',  ( 7.582401355855259480E-33, 1.000000000000000000, 0.000000000000000000 ) ) ;
#161 = FACE_OUTER_BOUND ( 'NONE', #202, .T. ) ;
#162 = VECTOR ( 'NONE', #4, 39.37007874015748143 ) ;
#163 = CARTESIAN_POINT ( 'NONE',  ( 0.000000000000000000, 0.000000000000000000, 0.000000000000000000 ) ) ;
#164 = DIRECTION ( 'NONE',  ( 0.000000000000000000, 0.000000000000000000, 1.000000000000000000 ) ) ;
#165 =( NAMED_UNIT ( * ) PLANE_ANGLE_UNIT ( ) SI_UNIT ( $, .RADIAN. ) );
#166 = UNCERTAINTY_MEASURE_WITH_UNIT (LENGTH_MEASURE( 1.000000000000000082E-05 ), #113, 'distance_accuracy_value', 'NONE');
#167 = PLANE ( 'NONE',  #91 ) ;
#168 = CLOSED_SHELL ( 'NONE', ( #141, #54, #200, #11 ) ) ;
#169 =( LENGTH_UNIT ( ) NAMED_UNIT ( * ) SI_UNIT ( $, .METRE. ) );
#170 = LENGTH_MEASURE_WITH_UNIT ( LENGTH_MEASURE( 0.02539999999999999897 ), #83 );
#171 = EDGE_CURVE ( 'NONE', #157, #22, #8, .T. ) ;
#172 = DIRECTION ( 'NONE',  ( 0.000000000000000000, 0.000000000000000000, -1.000000000000000000 ) ) ;
#173 = DIRECTION ( 'NONE',  ( -3.061616997868386099E-17, 1.000000000000000000, -0.000000000000000000 ) ) ;
#174 = STYLED_ITEM ( 'NONE', ( #222 ), #141 ) ;
#175 = ORIENTED_EDGE ( 'NONE', *, *, #231, .T. ) ;
#176 = FILL_AREA_STYLE_COLOUR ( '', #182 ) ;
#177 = EDGE_LOOP ( 'NONE', ( #207, #175, #259, #305 ) ) ;
#178 = CYLINDRICAL_SURFACE ( 'NONE', #219, 0.1562500000000000278 ) ;
#179 = VERTEX_POINT ( 'NONE', #146 ) ;
#180 = EDGE_CURVE ( 'NONE', #285, #204, #240, .T. ) ;
#181 = EDGE_LOOP ( 'NONE', ( #155, #275, #183, #307 ) ) ;
#182 = COLOUR_RGB ( '',0.7921568627450980005, 0.8196078431372548767, 0.9333333333333333481 ) ;
#183 = ORIENTED_EDGE ( 'NONE', *, *, #117, .F. ) ;
#184 = CARTESIAN_POINT ( 'NONE',  ( -0.1562500000000001110, 3.000000000000000444, 0.000000000000000000 ) ) ;
#185 = PRESENTATION_STYLE_ASSIGNMENT (( #98 ) ) ;
#186 = VECTOR ( 'NONE', #64, 39.37007874015748143 ) ;
#187 = DIRECTION ( 'NONE',  ( -1.000000000000000000, 0.000000000000000000, 0.000000000000000000 ) ) ;
#188 = CARTESIAN_POINT ( 'NONE',  ( 0.000000000000000000, 0.000000000000000000, 0.000000000000000000 ) ) ;
#189 = EDGE_CURVE ( 'NONE', #285, #196, #279, .T. ) ;
#190 = AXIS2_PLACEMENT_3D ( 'NONE', #229, #173, #69 ) ;
#191 = PRESENTATION_STYLE_ASSIGNMENT (( #75 ) ) ;
#192 = DIRECTION ( 'NONE',  ( -3.061616997868386099E-17, 1.000000000000000000, -0.000000000000000000 ) ) ;
#193 = AXIS2_PLACEMENT_3D ( 'NONE', #132, #201, #49 ) ;
#194 = ORIENTED_EDGE ( 'NONE', *, *, #6, .F. ) ;
#195 = CARTESIAN_POINT ( 'NONE',  ( 0.1562500000000000000, 1.000000000000000000, 1.913510623667739771E-17 ) ) ;
#196 = VERTEX_POINT ( 'NONE', #151 ) ;
#197 =( GEOMETRIC_REPRESENTATION_CONTEXT ( 3 ) GLOBAL_UNCERTAINTY_ASSIGNED_CONTEXT ( ( #216 ) ) GLOBAL_UNIT_ASSIGNED_CONTEXT ( ( #71, #24, #74 ) ) REPRESENTATION_CONTEXT ( 'NONE', 'WORKASPACE' ) );
#198 = PRODUCT_DEFINITION_FORMATION_WITH_SPECIFIED_SOURCE ( 'ANY', '', #30, .NOT_KNOWN. ) ;
#199 = ORIENTED_EDGE ( 'NONE', *, *, #76, .F. ) ;
#200 = ADVANCED_FACE ( 'NONE', ( #126 ), #253, .T. ) ;
#201 = DIRECTION ( 'NONE',  ( -0.000000000000000000, -1.000000000000000000, -0.000000000000000000 ) ) ;
#202 = EDGE_LOOP ( 'NONE', ( #153, #112 ) ) ;
#203 = CARTESIAN_POINT ( 'NONE',  ( 0.000000000000000000, 1.000000000000000000, -0.1562500000000000000 ) ) ;
#204 = VERTEX_POINT ( 'NONE', #45 ) ;
#205 = APPLICATION_PROTOCOL_DEFINITION ( 'draft international standard', 'automotive_design', 1998, #86 ) ;
#206 = STYLED_ITEM ( 'NONE', ( #92 ), #11 ) ;
#207 = ORIENTED_EDGE ( 'NONE', *, *, #148, .F. ) ;
#208 = COLOUR_RGB ( '',0.7921568627450980005, 0.8196078431372548767, 0.9333333333333333481 ) ;
#209 =( GEOMETRIC_REPRESENTATION_CONTEXT ( 3 ) GLOBAL_UNCERTAINTY_ASSIGNED_CONTEXT ( ( #309 ) ) GLOBAL_UNIT_ASSIGNED_CONTEXT ( ( #105, #31, #25 ) ) REPRESENTATION_CONTEXT ( 'NONE', 'WORKASPACE' ) );
#210 = CYLINDRICAL_SURFACE ( 'NONE', #7, 0.1562500000000000278 ) ;
#211 = UNCERTAINTY_MEASURE_WITH_UNIT (LENGTH_MEASURE( 1.000000000000000082E-05 ), #257, 'distance_accuracy_value', 'NONE');
#212 = SHAPE_DEFINITION_REPRESENTATION ( #46, #294 ) ;
#213 = EDGE_CURVE ( 'NONE', #232, #179, #297, .T. ) ;
#214 = DIRECTION ( 'NONE',  ( 1.000000000000000000, 0.000000000000000000, 0.000000000000000000 ) ) ;
#215 = DIRECTION ( 'NONE',  ( -1.000000000000000000, 0.000000000000000000, 0.000000000000000000 ) ) ;
#216 = UNCERTAINTY_MEASURE_WITH_UNIT (LENGTH_MEASURE( 1.000000000000000082E-05 ), #71, 'distance_accuracy_value', 'NONE');
#217 = SURFACE_SIDE_STYLE ('',( #119 ) ) ;
#218 = CARTESIAN_POINT ( 'NONE',  ( 0.000000000000000000, 1.000000000000000000, 0.000000000000000000 ) ) ;
#219 = AXIS2_PLACEMENT_3D ( 'NONE', #65, #70, #258 ) ;
#220 = LINE ( 'NONE', #299, #268 ) ;
#221 = UNCERTAINTY_MEASURE_WITH_UNIT (LENGTH_MEASURE( 1.000000000000000082E-05 ), #61, 'distance_accuracy_value', 'NONE');
#222 = PRESENTATION_STYLE_ASSIGNMENT (( #41 ) ) ;
#223 = EDGE_LOOP ( 'NONE', ( #194, #68 ) ) ;
#224 = MECHANICAL_DESIGN_GEOMETRIC_PRESENTATION_REPRESENTATION (  '', ( #58 ), #44 ) ;
#225 = FILL_AREA_STYLE ('',( #42 ) ) ;
#226 = LENGTH_MEASURE_WITH_UNIT ( LENGTH_MEASURE( 0.02539999999999999897 ), #260 );
#227 = DIRECTION ( 'NONE',  ( -3.061616997868386099E-17, 1.000000000000000000, -0.000000000000000000 ) ) ;
#228 = ORIENTED_EDGE ( 'NONE', *, *, #231, .F. ) ;
#229 = CARTESIAN_POINT ( 'NONE',  ( 7.582401355855259480E-33, 1.000000000000000000, 0.000000000000000000 ) ) ;
#230 = AXIS2_PLACEMENT_3D ( 'NONE', #277, #9, #123 ) ;
#231 = EDGE_CURVE ( 'NONE', #204, #285, #72, .T. ) ;
#232 = VERTEX_POINT ( 'NONE', #195 ) ;
#233 = FILL_AREA_STYLE ('',( #176 ) ) ;
#234 = PLANE ( 'NONE',  #296 ) ;
#235 = SURFACE_STYLE_FILL_AREA ( #233 ) ;
#236 = DIRECTION ( 'NONE',  ( 0.000000000000000000, -1.000000000000000000, -0.000000000000000000 ) ) ;
#237 = UNCERTAINTY_MEASURE_WITH_UNIT (LENGTH_MEASURE( 1.000000000000000082E-05 ), #38, 'distance_accuracy_value', 'NONE');
#238 = PRESENTATION_LAYER_ASSIGNMENT (  '', '', ( #206 ) ) ;
#239 =( CONVERSION_BASED_UNIT ( 'INCH', #53 ) LENGTH_UNIT ( ) NAMED_UNIT ( #104 ) );
#240 = CIRCLE ( 'NONE', #2, 0.1562500000000000000 ) ;
#241 = CARTESIAN_POINT ( 'NONE',  ( -6.123233995736772199E-17, 3.000000000000000444, 0.000000000000000000 ) ) ;
#242 = MANIFOLD_SOLID_BREP ( 'Revolve - Tool Body (Straight Shanked)', #100 ) ;
#243 = CARTESIAN_POINT ( 'NONE',  ( 0.1562499999999999722, 3.000000000000000444, 1.913510623667739771E-17 ) ) ;
#244 = PLANE ( 'NONE',  #27 ) ;
#245 = PRODUCT_RELATED_PRODUCT_CATEGORY ( 'part', '', ( #30 ) ) ;
#246 =( GEOMETRIC_REPRESENTATION_CONTEXT ( 3 ) GLOBAL_UNCERTAINTY_ASSIGNED_CONTEXT ( ( #166 ) ) GLOBAL_UNIT_ASSIGNED_CONTEXT ( ( #113, #107, #21 ) ) REPRESENTATION_CONTEXT ( 'NONE', 'WORKASPACE' ) );
#247 = DIMENSIONAL_EXPONENTS ( 1.000000000000000000, 0.000000000000000000, 0.000000000000000000, 0.000000000000000000, 0.000000000000000000, 0.000000000000000000, 0.000000000000000000 ) ;
#248 = FILL_AREA_STYLE_COLOUR ( '', #208 ) ;
#249 = SURFACE_SIDE_STYLE ('',( #15 ) ) ;
#250 = ORIENTED_EDGE ( 'NONE', *, *, #125, .T. ) ;
#251 = STYLED_ITEM ( 'NONE', ( #185 ), #54 ) ;
#252 = DIMENSIONAL_EXPONENTS ( 1.000000000000000000, 0.000000000000000000, 0.000000000000000000, 0.000000000000000000, 0.000000000000000000, 0.000000000000000000, 0.000000000000000000 ) ;
#253 = CYLINDRICAL_SURFACE ( 'NONE', #193, 0.1562500000000000000 ) ;
#254 = PRESENTATION_LAYER_ASSIGNMENT (  '', '', ( #58 ) ) ;
#255 =( LENGTH_UNIT ( ) NAMED_UNIT ( * ) SI_UNIT ( $, .METRE. ) );
#256 = ORIENTED_EDGE ( 'NONE', *, *, #180, .T. ) ;
#257 =( CONVERSION_BASED_UNIT ( 'INCH', #226 ) LENGTH_UNIT ( ) NAMED_UNIT ( #252 ) );
#258 = DIRECTION ( 'NONE',  ( -1.000000000000000000, 0.000000000000000000, 0.000000000000000000 ) ) ;
#259 = ORIENTED_EDGE ( 'NONE', *, *, #189, .T. ) ;
#260 =( LENGTH_UNIT ( ) NAMED_UNIT ( * ) SI_UNIT ( $, .METRE. ) );
#261 = FACE_OUTER_BOUND ( 'NONE', #289, .T. ) ;
#262 = CIRCLE ( 'NONE', #121, 0.1562500000000000000 ) ;
#263 = COLOUR_RGB ( '',1.000000000000000000, 0.000000000000000000, 0.000000000000000000 ) ;
#264 = PRODUCT_CONTEXT ( 'NONE', #86, 'mechanical' ) ;
#265 = CARTESIAN_POINT ( 'NONE',  ( -6.123233995736772199E-17, 3.000000000000000444, 0.000000000000000000 ) ) ;
#266 = APPLICATION_PROTOCOL_DEFINITION ( 'draft international standard', 'automotive_design', 1998, #101 ) ;
#267 = CARTESIAN_POINT ( 'NONE',  ( 0.1562500000000000000, 3.000000000000000444, 0.000000000000000000 ) ) ;
#268 = VECTOR ( 'NONE', #63, 39.37007874015748143 ) ;
#269 = UNCERTAINTY_MEASURE_WITH_UNIT (LENGTH_MEASURE( 1.000000000000000082E-05 ), #239, 'distance_accuracy_value', 'NONE');
#270 = AXIS2_PLACEMENT_3D ( 'NONE', #163, #143, #142 ) ;
#271 = LENGTH_MEASURE_WITH_UNIT ( LENGTH_MEASURE( 0.02539999999999999897 ), #169 );
#272 = DIMENSIONAL_EXPONENTS ( 1.000000000000000000, 0.000000000000000000, 0.000000000000000000, 0.000000000000000000, 0.000000000000000000, 0.000000000000000000, 0.000000000000000000 ) ;
#273 = PRODUCT_DEFINITION_CONTEXT ( 'detailed design', #101, 'design' ) ;
#274 = CARTESIAN_POINT ( 'NONE',  ( -6.123233995736772199E-17, 3.000000000000000444, 0.000000000000000000 ) ) ;
#275 = ORIENTED_EDGE ( 'NONE', *, *, #76, .T. ) ;
#276 = PRESENTATION_LAYER_ASSIGNMENT (  '', '', ( #95 ) ) ;
#277 = CARTESIAN_POINT ( 'NONE',  ( 0.000000000000000000, 0.000000000000000000, 0.000000000000000000 ) ) ;
#278 = ORIENTED_EDGE ( 'NONE', *, *, #59, .T. ) ;
#279 = LINE ( 'NONE', #62, #186 ) ;
#280 = ADVANCED_FACE ( 'NONE', ( #134 ), #178, .T. ) ;
#281 = MECHANICAL_DESIGN_GEOMETRIC_PRESENTATION_REPRESENTATION (  '', ( #127 ), #80 ) ;
#282 = DIRECTION ( 'NONE',  ( -0.000000000000000000, -1.000000000000000000, -0.000000000000000000 ) ) ;
#283 = ORIENTED_EDGE ( 'NONE', *, *, #148, .T. ) ;
#284 = LENGTH_MEASURE_WITH_UNIT ( LENGTH_MEASURE( 0.02539999999999999897 ), #158 );
#285 = VERTEX_POINT ( 'NONE', #203 ) ;
#286 =( NAMED_UNIT ( * ) PLANE_ANGLE_UNIT ( ) SI_UNIT ( $, .RADIAN. ) );
#287 = ORIENTED_EDGE ( 'NONE', *, *, #171, .F. ) ;
#288 = AXIS2_PLACEMENT_3D ( 'NONE', #188, #293, #79 ) ;
#289 = EDGE_LOOP ( 'NONE', ( #199, #106, #278, #287 ) ) ;
#290 = SURFACE_STYLE_FILL_AREA ( #29 ) ;
#291 = DIRECTION ( 'NONE',  ( -3.061616997868386099E-17, 1.000000000000000000, 0.000000000000000000 ) ) ;
#292 = DIRECTION ( 'NONE',  ( -3.061616997868386099E-17, 1.000000000000000000, -0.000000000000000000 ) ) ;
#293 = DIRECTION ( 'NONE',  ( -0.000000000000000000, -1.000000000000000000, -0.000000000000000000 ) ) ;
#294 = ADVANCED_BREP_SHAPE_REPRESENTATION ( '82650', ( #136, #242, #3 ), #209 ) ;
#295 = DIRECTION ( 'NONE',  ( -1.000000000000000000, 0.000000000000000000, 0.000000000000000000 ) ) ;
#296 = AXIS2_PLACEMENT_3D ( 'NONE', #135, #236, #26 ) ;
#297 = CIRCLE ( 'NONE', #190, 0.1562500000000000000 ) ;
#298 = DIMENSIONAL_EXPONENTS ( 1.000000000000000000, 0.000000000000000000, 0.000000000000000000, 0.000000000000000000, 0.000000000000000000, 0.000000000000000000, 0.000000000000000000 ) ;
#299 = CARTESIAN_POINT ( 'NONE',  ( 1.913510623667739463E-17, 0.000000000000000000, 0.1562500000000000000 ) ) ;
#300 = AXIS2_PLACEMENT_3D ( 'NONE', #1, #291, #96 ) ;
#301 = PRODUCT_DEFINITION ( 'UNKNOWN', '', #198, #273 ) ;
#302 = DIRECTION ( 'NONE',  ( -1.000000000000000000, 0.000000000000000000, 0.000000000000000000 ) ) ;
#303 = MECHANICAL_DESIGN_GEOMETRIC_PRESENTATION_REPRESENTATION (  '', ( #206 ), #197 ) ;
#304 = PRESENTATION_LAYER_ASSIGNMENT (  '', '', ( #127 ) ) ;
#305 = ORIENTED_EDGE ( 'NONE', *, *, #125, .F. ) ;
#306 = ORIENTED_EDGE ( 'NONE', *, *, #189, .F. ) ;
#307 = ORIENTED_EDGE ( 'NONE', *, *, #59, .F. ) ;
#308 = FACE_OUTER_BOUND ( 'NONE', #223, .T. ) ;
#309 = UNCERTAINTY_MEASURE_WITH_UNIT (LENGTH_MEASURE( 1.000000000000000082E-05 ), #105, 'distance_accuracy_value', 'NONE');
ENDSEC;
END-ISO-10303-21;
