ISO-10303-21;
HEADER;
FILE_DESCRIPTION (( 'STEP AP214' ),
    '1' );
FILE_NAME ('82260.STEP',
    '2023-06-23T04:28:25',
    ( '' ),
    ( '' ),
    'SwSTEP 2.0',
    'SolidWorks 2023',
    '' );
FILE_SCHEMA (( 'AUTOMOTIVE_DESIGN' ));
ENDSEC;

DATA;
#1 = DIRECTION ( 'NONE',  ( 0.000000000000000000, -0.000000000000000000, 1.000000000000000000 ) ) ;
#2 = DIRECTION ( 'NONE',  ( -0.000000000000000000, -1.000000000000000000, -0.000000000000000000 ) ) ;
#3 =( CONVERSION_BASED_UNIT ( 'INCH', #78 ) LENGTH_UNIT ( ) NAMED_UNIT ( #168 ) );
#4 = PRODUCT ( '82260', '82260', '', ( #26 ) ) ;
#5 = MECHANICAL_DESIGN_GEOMETRIC_PRESENTATION_REPRESENTATION (  '', ( #206 ), #292 ) ;
#6 =( NAMED_UNIT ( * ) SI_UNIT ( $, .STERADIAN. ) SOLID_ANGLE_UNIT ( ) );
#7 =( GEOMETRIC_REPRESENTATION_CONTEXT ( 3 ) GLOBAL_UNCERTAINTY_ASSIGNED_CONTEXT ( ( #60 ) ) GLOBAL_UNIT_ASSIGNED_CONTEXT ( ( #216, #189, #6 ) ) REPRESENTATION_CONTEXT ( 'NONE', 'WORKASPACE' ) );
#8 = STYLED_ITEM ( 'NONE', ( #158 ), #113 ) ;
#9 = SURFACE_SIDE_STYLE ('',( #138 ) ) ;
#10 = VERTEX_POINT ( 'NONE', #114 ) ;
#11 =( NAMED_UNIT ( * ) SI_UNIT ( $, .STERADIAN. ) SOLID_ANGLE_UNIT ( ) );
#12 = ORIENTED_EDGE ( 'NONE', *, *, #297, .T. ) ;
#13 = EDGE_LOOP ( 'NONE', ( #202, #171 ) ) ;
#14 =( LENGTH_UNIT ( ) NAMED_UNIT ( * ) SI_UNIT ( $, .METRE. ) );
#15 = ADVANCED_FACE ( 'NONE', ( #41 ), #92, .T. ) ;
#16 = VERTEX_POINT ( 'NONE', #205 ) ;
#17 = SURFACE_SIDE_STYLE ('',( #177 ) ) ;
#18 = CARTESIAN_POINT ( 'NONE',  ( 1.224646799147354440E-16, 5.000000000000000000, 0.000000000000000000 ) ) ;
#19 = AXIS2_PLACEMENT_3D ( 'NONE', #121, #31, #268 ) ;
#20 = DIRECTION ( 'NONE',  ( -1.000000000000000000, 0.000000000000000000, 0.000000000000000000 ) ) ;
#21 = DIRECTION ( 'NONE',  ( 0.000000000000000000, 0.000000000000000000, -1.000000000000000000 ) ) ;
#22 = CARTESIAN_POINT ( 'NONE',  ( 0.000000000000000000, 0.000000000000000000, 0.000000000000000000 ) ) ;
#23 = CARTESIAN_POINT ( 'NONE',  ( 0.3125000000000000000, 2.500000000000000000, 3.827021247335477694E-17 ) ) ;
#24 =( LENGTH_UNIT ( ) NAMED_UNIT ( * ) SI_UNIT ( $, .METRE. ) );
#25 =( LENGTH_UNIT ( ) NAMED_UNIT ( * ) SI_UNIT ( $, .METRE. ) );
#26 = PRODUCT_CONTEXT ( 'NONE', #36, 'mechanical' ) ;
#27 = EDGE_CURVE ( 'NONE', #195, #10, #243, .T. ) ;
#28 = LENGTH_MEASURE_WITH_UNIT ( LENGTH_MEASURE( 0.02539999999999999897 ), #252 );
#29 = DIRECTION ( 'NONE',  ( 1.000000000000000000, 0.000000000000000000, 0.000000000000000000 ) ) ;
#30 = DIRECTION ( 'NONE',  ( -1.000000000000000000, 0.000000000000000000, 0.000000000000000000 ) ) ;
#31 = DIRECTION ( 'NONE',  ( -0.000000000000000000, -1.000000000000000000, -0.000000000000000000 ) ) ;
#32 = DIMENSIONAL_EXPONENTS ( 1.000000000000000000, 0.000000000000000000, 0.000000000000000000, 0.000000000000000000, 0.000000000000000000, 0.000000000000000000, 0.000000000000000000 ) ;
#33 = AXIS2_PLACEMENT_3D ( 'NONE', #271, #2, #147 ) ;
#34 = CARTESIAN_POINT ( 'NONE',  ( 0.3125000000000000000, 5.000000000000000000, 0.000000000000000000 ) ) ;
#35 = CARTESIAN_POINT ( 'NONE',  ( 3.749399456654651290E-34, 2.500000000000000000, 0.000000000000000000 ) ) ;
#36 = APPLICATION_CONTEXT ( 'automotive_design' ) ;
#37 =( LENGTH_UNIT ( ) NAMED_UNIT ( * ) SI_UNIT ( $, .METRE. ) );
#38 = LINE ( 'NONE', #132, #65 ) ;
#39 = FILL_AREA_STYLE ('',( #283 ) ) ;
#40 = AXIS2_PLACEMENT_3D ( 'NONE', #159, #155, #58 ) ;
#41 = FACE_OUTER_BOUND ( 'NONE', #115, .T. ) ;
#42 = FILL_AREA_STYLE ('',( #200 ) ) ;
#43 = UNCERTAINTY_MEASURE_WITH_UNIT (LENGTH_MEASURE( 1.000000000000000082E-05 ), #267, 'distance_accuracy_value', 'NONE');
#44 = CIRCLE ( 'NONE', #19, 0.3125000000000000000 ) ;
#45 = FACE_OUTER_BOUND ( 'NONE', #13, .T. ) ;
#46 = DIRECTION ( 'NONE',  ( 4.898587196589417389E-17, 1.000000000000000000, -0.000000000000000000 ) ) ;
#47 = FACE_OUTER_BOUND ( 'NONE', #196, .T. ) ;
#48 =( GEOMETRIC_REPRESENTATION_CONTEXT ( 3 ) GLOBAL_UNCERTAINTY_ASSIGNED_CONTEXT ( ( #304 ) ) GLOBAL_UNIT_ASSIGNED_CONTEXT ( ( #64, #93, #286 ) ) REPRESENTATION_CONTEXT ( 'NONE', 'WORKASPACE' ) );
#49 = DIRECTION ( 'NONE',  ( 4.898587196589417389E-17, 1.000000000000000000, -0.000000000000000000 ) ) ;
#50 = LINE ( 'NONE', #146, #51 ) ;
#51 = VECTOR ( 'NONE', #295, 39.37007874015748143 ) ;
#52 = PRODUCT_DEFINITION ( 'UNKNOWN', '', #182, #226 ) ;
#53 = LENGTH_MEASURE_WITH_UNIT ( LENGTH_MEASURE( 0.02539999999999999897 ), #81 );
#54 = VERTEX_POINT ( 'NONE', #23 ) ;
#55 =( GEOMETRIC_REPRESENTATION_CONTEXT ( 3 ) GLOBAL_UNCERTAINTY_ASSIGNED_CONTEXT ( ( #236 ) ) GLOBAL_UNIT_ASSIGNED_CONTEXT ( ( #134, #285, #62 ) ) REPRESENTATION_CONTEXT ( 'NONE', 'WORKASPACE' ) );
#56 = COLOUR_RGB ( '',1.000000000000000000, 0.000000000000000000, 0.000000000000000000 ) ;
#57 = ORIENTED_EDGE ( 'NONE', *, *, #306, .F. ) ;
#58 = DIRECTION ( 'NONE',  ( 0.000000000000000000, 0.000000000000000000, -1.000000000000000000 ) ) ;
#59 = CARTESIAN_POINT ( 'NONE',  ( -0.3125000000000000000, 2.500000000000000000, 0.000000000000000000 ) ) ;
#60 = UNCERTAINTY_MEASURE_WITH_UNIT (LENGTH_MEASURE( 1.000000000000000082E-05 ), #216, 'distance_accuracy_value', 'NONE');
#61 = ORIENTED_EDGE ( 'NONE', *, *, #194, .T. ) ;
#62 =( NAMED_UNIT ( * ) SI_UNIT ( $, .STERADIAN. ) SOLID_ANGLE_UNIT ( ) );
#63 = ADVANCED_FACE ( 'NONE', ( #47 ), #309, .T. ) ;
#64 =( CONVERSION_BASED_UNIT ( 'INCH', #175 ) LENGTH_UNIT ( ) NAMED_UNIT ( #73 ) );
#65 = VECTOR ( 'NONE', #229, 39.37007874015748143 ) ;
#66 = EDGE_CURVE ( 'NONE', #127, #16, #71, .T. ) ;
#67 = AXIS2_PLACEMENT_3D ( 'NONE', #35, #221, #190 ) ;
#68 = PRESENTATION_STYLE_ASSIGNMENT (( #263 ) ) ;
#69 = CARTESIAN_POINT ( 'NONE',  ( 0.000000000000000000, 2.500000000000000000, 0.000000000000000000 ) ) ;
#70 = CARTESIAN_POINT ( 'NONE',  ( 1.224646799147354440E-16, 5.000000000000000000, 0.000000000000000000 ) ) ;
#71 = CIRCLE ( 'NONE', #145, 0.3124999999999998890 ) ;
#72 = SURFACE_SIDE_STYLE ('',( #289 ) ) ;
#73 = DIMENSIONAL_EXPONENTS ( 1.000000000000000000, 0.000000000000000000, 0.000000000000000000, 0.000000000000000000, 0.000000000000000000, 0.000000000000000000, 0.000000000000000000 ) ;
#74 = PLANE ( 'NONE',  #91 ) ;
#75 = SHAPE_DEFINITION_REPRESENTATION ( #83, #99 ) ;
#76 = AXIS2_PLACEMENT_3D ( 'NONE', #69, #238, #117 ) ;
#77 = LINE ( 'NONE', #80, #120 ) ;
#78 = LENGTH_MEASURE_WITH_UNIT ( LENGTH_MEASURE( 0.02539999999999999897 ), #24 );
#79 = MECHANICAL_DESIGN_GEOMETRIC_PRESENTATION_REPRESENTATION (  '', ( #208 ), #256 ) ;
#80 = CARTESIAN_POINT ( 'NONE',  ( 3.827021247335478926E-17, 0.000000000000000000, 0.3125000000000000000 ) ) ;
#81 =( LENGTH_UNIT ( ) NAMED_UNIT ( * ) SI_UNIT ( $, .METRE. ) );
#82 = EDGE_CURVE ( 'NONE', #156, #272, #296, .T. ) ;
#83 = PRODUCT_DEFINITION_SHAPE ( 'NONE', 'NONE',  #52 ) ;
#84 = STYLED_ITEM ( 'NONE', ( #157 ), #183 ) ;
#85 = EDGE_LOOP ( 'NONE', ( #131, #61 ) ) ;
#86 = UNCERTAINTY_MEASURE_WITH_UNIT (LENGTH_MEASURE( 1.000000000000000082E-05 ), #3, 'distance_accuracy_value', 'NONE');
#87 = ORIENTED_EDGE ( 'NONE', *, *, #306, .T. ) ;
#88 = PLANE ( 'NONE',  #273 ) ;
#89 = DIRECTION ( 'NONE',  ( 4.898587196589417389E-17, 1.000000000000000000, -0.000000000000000000 ) ) ;
#90 = SURFACE_STYLE_USAGE ( .BOTH. , #276 ) ;
#91 = AXIS2_PLACEMENT_3D ( 'NONE', #247, #219, #1 ) ;
#92 = CYLINDRICAL_SURFACE ( 'NONE', #294, 0.3124999999999999445 ) ;
#93 =( NAMED_UNIT ( * ) PLANE_ANGLE_UNIT ( ) SI_UNIT ( $, .RADIAN. ) );
#94 = DIMENSIONAL_EXPONENTS ( 1.000000000000000000, 0.000000000000000000, 0.000000000000000000, 0.000000000000000000, 0.000000000000000000, 0.000000000000000000, 0.000000000000000000 ) ;
#95 = CARTESIAN_POINT ( 'NONE',  ( 0.000000000000000000, 0.000000000000000000, 0.000000000000000000 ) ) ;
#96 = FILL_AREA_STYLE_COLOUR ( '', #249 ) ;
#97 = DIMENSIONAL_EXPONENTS ( 1.000000000000000000, 0.000000000000000000, 0.000000000000000000, 0.000000000000000000, 0.000000000000000000, 0.000000000000000000, 0.000000000000000000 ) ;
#98 = CARTESIAN_POINT ( 'NONE',  ( 0.000000000000000000, 0.000000000000000000, 0.000000000000000000 ) ) ;
#99 = ADVANCED_BREP_SHAPE_REPRESENTATION ( '82260', ( #183, #287, #143 ), #7 ) ;
#100 = EDGE_CURVE ( 'NONE', #111, #127, #103, .T. ) ;
#101 = COLOUR_RGB ( '',1.000000000000000000, 0.000000000000000000, 0.000000000000000000 ) ;
#102 = ORIENTED_EDGE ( 'NONE', *, *, #232, .F. ) ;
#103 = LINE ( 'NONE', #253, #290 ) ;
#104 = FACE_OUTER_BOUND ( 'NONE', #299, .T. ) ;
#105 = ORIENTED_EDGE ( 'NONE', *, *, #204, .F. ) ;
#106 = CIRCLE ( 'NONE', #40, 0.3125000000000000000 ) ;
#107 = ORIENTED_EDGE ( 'NONE', *, *, #82, .F. ) ;
#108 = CARTESIAN_POINT ( 'NONE',  ( 0.000000000000000000, 0.000000000000000000, 0.000000000000000000 ) ) ;
#109 = FILL_AREA_STYLE ('',( #235 ) ) ;
#110 = AXIS2_PLACEMENT_3D ( 'NONE', #98, #118, #172 ) ;
#111 = VERTEX_POINT ( 'NONE', #59 ) ;
#112 = DIRECTION ( 'NONE',  ( 4.898587196589417389E-17, 1.000000000000000000, -0.000000000000000000 ) ) ;
#113 = ADVANCED_FACE ( 'NONE', ( #207 ), #201, .T. ) ;
#114 = CARTESIAN_POINT ( 'NONE',  ( 3.827021247335478926E-17, 2.500000000000000000, 0.3125000000000000000 ) ) ;
#115 = EDGE_LOOP ( 'NONE', ( #173, #178, #180, #227 ) ) ;
#116 = PRESENTATION_LAYER_ASSIGNMENT (  '', '', ( #206 ) ) ;
#117 = DIRECTION ( 'NONE',  ( -1.000000000000000000, 0.000000000000000000, 0.000000000000000000 ) ) ;
#118 = DIRECTION ( 'NONE',  ( -0.000000000000000000, -1.000000000000000000, -0.000000000000000000 ) ) ;
#119 = APPLICATION_PROTOCOL_DEFINITION ( 'draft international standard', 'automotive_design', 1998, #307 ) ;
#120 = VECTOR ( 'NONE', #167, 39.37007874015748143 ) ;
#121 = CARTESIAN_POINT ( 'NONE',  ( 0.000000000000000000, 2.500000000000000000, 0.000000000000000000 ) ) ;
#122 = LENGTH_MEASURE_WITH_UNIT ( LENGTH_MEASURE( 0.02539999999999999897 ), #25 );
#123 = CARTESIAN_POINT ( 'NONE',  ( 0.000000000000000000, 0.000000000000000000, -0.3125000000000000000 ) ) ;
#124 = CIRCLE ( 'NONE', #281, 0.3125000000000000000 ) ;
#125 = CLOSED_SHELL ( 'NONE', ( #15, #284, #291, #301 ) ) ;
#126 = ORIENTED_EDGE ( 'NONE', *, *, #194, .F. ) ;
#127 = VERTEX_POINT ( 'NONE', #239 ) ;
#128 = CIRCLE ( 'NONE', #76, 0.3125000000000000000 ) ;
#129 = PRESENTATION_LAYER_ASSIGNMENT (  '', '', ( #208 ) ) ;
#130 = CARTESIAN_POINT ( 'NONE',  ( 0.000000000000000000, 2.500000000000000000, -0.3125000000000000000 ) ) ;
#131 = ORIENTED_EDGE ( 'NONE', *, *, #82, .T. ) ;
#132 = CARTESIAN_POINT ( 'NONE',  ( 0.3125000000000000555, 5.000000000000000000, 3.827021247335477694E-17 ) ) ;
#133 = PRESENTATION_LAYER_ASSIGNMENT (  '', '', ( #8 ) ) ;
#134 =( CONVERSION_BASED_UNIT ( 'INCH', #282 ) LENGTH_UNIT ( ) NAMED_UNIT ( #94 ) );
#135 = EDGE_LOOP ( 'NONE', ( #105, #224, #191, #258 ) ) ;
#136 = COLOUR_RGB ( '',0.7921568627450980005, 0.8196078431372548767, 0.9333333333333333481 ) ;
#137 =( NAMED_UNIT ( * ) PLANE_ANGLE_UNIT ( ) SI_UNIT ( $, .RADIAN. ) );
#138 = SURFACE_STYLE_FILL_AREA ( #109 ) ;
#139 = DIRECTION ( 'NONE',  ( -1.000000000000000000, 0.000000000000000000, 0.000000000000000000 ) ) ;
#140 = DIMENSIONAL_EXPONENTS ( 1.000000000000000000, 0.000000000000000000, 0.000000000000000000, 0.000000000000000000, 0.000000000000000000, 0.000000000000000000, 0.000000000000000000 ) ;
#141 = DIRECTION ( 'NONE',  ( 0.000000000000000000, 0.000000000000000000, 1.000000000000000000 ) ) ;
#142 = SURFACE_SIDE_STYLE ('',( #218 ) ) ;
#143 = AXIS2_PLACEMENT_3D ( 'NONE', #22, #141, #29 ) ;
#144 = SURFACE_STYLE_FILL_AREA ( #184 ) ;
#145 = AXIS2_PLACEMENT_3D ( 'NONE', #70, #46, #139 ) ;
#146 = CARTESIAN_POINT ( 'NONE',  ( 0.000000000000000000, 0.000000000000000000, -0.3125000000000000000 ) ) ;
#147 = DIRECTION ( 'NONE',  ( 0.000000000000000000, 0.000000000000000000, -1.000000000000000000 ) ) ;
#148 = PLANE ( 'NONE',  #260 ) ;
#149 = DIMENSIONAL_EXPONENTS ( 1.000000000000000000, 0.000000000000000000, 0.000000000000000000, 0.000000000000000000, 0.000000000000000000, 0.000000000000000000, 0.000000000000000000 ) ;
#150 = AXIS2_PLACEMENT_3D ( 'NONE', #217, #49, #30 ) ;
#151 =( CONVERSION_BASED_UNIT ( 'INCH', #53 ) LENGTH_UNIT ( ) NAMED_UNIT ( #140 ) );
#152 = EDGE_CURVE ( 'NONE', #10, #195, #44, .T. ) ;
#153 = CARTESIAN_POINT ( 'NONE',  ( 0.000000000000000000, 2.500000000000000000, 0.000000000000000000 ) ) ;
#154 = ORIENTED_EDGE ( 'NONE', *, *, #297, .F. ) ;
#155 = DIRECTION ( 'NONE',  ( -0.000000000000000000, -1.000000000000000000, -0.000000000000000000 ) ) ;
#156 = VERTEX_POINT ( 'NONE', #123 ) ;
#157 = PRESENTATION_STYLE_ASSIGNMENT (( #257 ) ) ;
#158 = PRESENTATION_STYLE_ASSIGNMENT (( #90 ) ) ;
#159 = CARTESIAN_POINT ( 'NONE',  ( 0.000000000000000000, 0.000000000000000000, 0.000000000000000000 ) ) ;
#160 = FILL_AREA_STYLE_COLOUR ( '', #197 ) ;
#161 = MECHANICAL_DESIGN_GEOMETRIC_PRESENTATION_REPRESENTATION (  '', ( #8 ), #48 ) ;
#162 = AXIS2_PLACEMENT_3D ( 'NONE', #153, #255, #21 ) ;
#163 = PRESENTATION_STYLE_ASSIGNMENT (( #244 ) ) ;
#164 = ADVANCED_FACE ( 'NONE', ( #45 ), #74, .T. ) ;
#165 = EDGE_CURVE ( 'NONE', #54, #111, #128, .T. ) ;
#166 = AXIS2_PLACEMENT_3D ( 'NONE', #211, #112, #275 ) ;
#167 = DIRECTION ( 'NONE',  ( -0.000000000000000000, -1.000000000000000000, -0.000000000000000000 ) ) ;
#168 = DIMENSIONAL_EXPONENTS ( 1.000000000000000000, 0.000000000000000000, 0.000000000000000000, 0.000000000000000000, 0.000000000000000000, 0.000000000000000000, 0.000000000000000000 ) ;
#169 = SURFACE_STYLE_USAGE ( .BOTH. , #9 ) ;
#170 = PRESENTATION_LAYER_ASSIGNMENT (  '', '', ( #242 ) ) ;
#171 = ORIENTED_EDGE ( 'NONE', *, *, #152, .F. ) ;
#172 = DIRECTION ( 'NONE',  ( 0.000000000000000000, 0.000000000000000000, -1.000000000000000000 ) ) ;
#173 = ORIENTED_EDGE ( 'NONE', *, *, #232, .T. ) ;
#174 = PRESENTATION_LAYER_ASSIGNMENT (  '', '', ( #84 ) ) ;
#175 = LENGTH_MEASURE_WITH_UNIT ( LENGTH_MEASURE( 0.02539999999999999897 ), #279 );
#176 = EDGE_LOOP ( 'NONE', ( #302, #87, #107, #154 ) ) ;
#177 = SURFACE_STYLE_FILL_AREA ( #42 ) ;
#178 = ORIENTED_EDGE ( 'NONE', *, *, #204, .T. ) ;
#179 = CARTESIAN_POINT ( 'NONE',  ( 0.000000000000000000, 2.500000000000000000, 0.000000000000000000 ) ) ;
#180 = ORIENTED_EDGE ( 'NONE', *, *, #66, .F. ) ;
#181 = MECHANICAL_DESIGN_GEOMETRIC_PRESENTATION_REPRESENTATION (  '', ( #84 ), #55 ) ;
#182 = PRODUCT_DEFINITION_FORMATION_WITH_SPECIFIED_SOURCE ( 'ANY', '', #4, .NOT_KNOWN. ) ;
#183 = MANIFOLD_SOLID_BREP ( 'Revolve - Cutting Edge', #300 ) ;
#184 = FILL_AREA_STYLE ('',( #262 ) ) ;
#185 = CARTESIAN_POINT ( 'NONE',  ( 3.827021247335478926E-17, 0.000000000000000000, 0.3125000000000000000 ) ) ;
#186 =( NAMED_UNIT ( * ) PLANE_ANGLE_UNIT ( ) SI_UNIT ( $, .RADIAN. ) );
#187 = FILL_AREA_STYLE ('',( #96 ) ) ;
#188 = DIRECTION ( 'NONE',  ( 1.000000000000000000, -4.898587196589418006E-17, 0.000000000000000000 ) ) ;
#189 =( NAMED_UNIT ( * ) PLANE_ANGLE_UNIT ( ) SI_UNIT ( $, .RADIAN. ) );
#190 = DIRECTION ( 'NONE',  ( -1.000000000000000000, 4.898587196589418006E-17, 0.000000000000000000 ) ) ;
#191 = ORIENTED_EDGE ( 'NONE', *, *, #100, .T. ) ;
#192 = EDGE_CURVE ( 'NONE', #16, #127, #265, .T. ) ;
#193 = STYLED_ITEM ( 'NONE', ( #68 ), #203 ) ;
#194 = EDGE_CURVE ( 'NONE', #272, #156, #106, .T. ) ;
#195 = VERTEX_POINT ( 'NONE', #130 ) ;
#196 = EDGE_LOOP ( 'NONE', ( #57, #233, #12, #126 ) ) ;
#197 = COLOUR_RGB ( '',1.000000000000000000, 0.000000000000000000, 0.000000000000000000 ) ;
#198 = UNCERTAINTY_MEASURE_WITH_UNIT (LENGTH_MEASURE( 1.000000000000000082E-05 ), #151, 'distance_accuracy_value', 'NONE');
#199 = ORIENTED_EDGE ( 'NONE', *, *, #66, .T. ) ;
#200 = FILL_AREA_STYLE_COLOUR ( '', #101 ) ;
#201 = CYLINDRICAL_SURFACE ( 'NONE', #33, 0.3125000000000000000 ) ;
#202 = ORIENTED_EDGE ( 'NONE', *, *, #27, .F. ) ;
#203 = ADVANCED_FACE ( 'NONE', ( #305 ), #88, .T. ) ;
#204 = EDGE_CURVE ( 'NONE', #54, #16, #38, .T. ) ;
#205 = CARTESIAN_POINT ( 'NONE',  ( 0.3125000000000000000, 5.000000000000000000, 3.827021247335477694E-17 ) ) ;
#206 = STYLED_ITEM ( 'NONE', ( #293 ), #287 ) ;
#207 = FACE_OUTER_BOUND ( 'NONE', #176, .T. ) ;
#208 = STYLED_ITEM ( 'NONE', ( #163 ), #63 ) ;
#209 = DIRECTION ( 'NONE',  ( -0.000000000000000000, -1.000000000000000000, -0.000000000000000000 ) ) ;
#210 =( NAMED_UNIT ( * ) SI_UNIT ( $, .STERADIAN. ) SOLID_ANGLE_UNIT ( ) );
#211 = CARTESIAN_POINT ( 'NONE',  ( 1.224646799147354440E-16, 5.000000000000000000, 0.000000000000000000 ) ) ;
#212 = MECHANICAL_DESIGN_GEOMETRIC_PRESENTATION_REPRESENTATION (  '', ( #193 ), #250 ) ;
#213 = DIRECTION ( 'NONE',  ( 4.898587196589418006E-17, 1.000000000000000000, -0.000000000000000000 ) ) ;
#214 = FACE_OUTER_BOUND ( 'NONE', #135, .T. ) ;
#215 = DIRECTION ( 'NONE',  ( 4.898587196589417389E-17, 1.000000000000000000, -0.000000000000000000 ) ) ;
#216 =( CONVERSION_BASED_UNIT ( 'INCH', #28 ) LENGTH_UNIT ( ) NAMED_UNIT ( #97 ) );
#217 = CARTESIAN_POINT ( 'NONE',  ( 1.224646799147354440E-16, 5.000000000000000000, 0.000000000000000000 ) ) ;
#218 = SURFACE_STYLE_FILL_AREA ( #270 ) ;
#219 = DIRECTION ( 'NONE',  ( 0.000000000000000000, 1.000000000000000000, 0.000000000000000000 ) ) ;
#220 =( NAMED_UNIT ( * ) PLANE_ANGLE_UNIT ( ) SI_UNIT ( $, .RADIAN. ) );
#221 = DIRECTION ( 'NONE',  ( 4.898587196589418006E-17, 1.000000000000000000, -0.000000000000000000 ) ) ;
#222 = ORIENTED_EDGE ( 'NONE', *, *, #165, .F. ) ;
#223 = PLANE ( 'NONE',  #67 ) ;
#224 = ORIENTED_EDGE ( 'NONE', *, *, #165, .T. ) ;
#225 =( GEOMETRIC_REPRESENTATION_CONTEXT ( 3 ) GLOBAL_UNCERTAINTY_ASSIGNED_CONTEXT ( ( #86 ) ) GLOBAL_UNIT_ASSIGNED_CONTEXT ( ( #3, #186, #246 ) ) REPRESENTATION_CONTEXT ( 'NONE', 'WORKASPACE' ) );
#226 = PRODUCT_DEFINITION_CONTEXT ( 'detailed design', #307, 'design' ) ;
#227 = ORIENTED_EDGE ( 'NONE', *, *, #100, .F. ) ;
#228 = PRESENTATION_LAYER_ASSIGNMENT (  '', '', ( #193 ) ) ;
#229 = DIRECTION ( 'NONE',  ( 4.898587196589418006E-17, 1.000000000000000000, -0.000000000000000000 ) ) ;
#230 = COLOUR_RGB ( '',1.000000000000000000, 0.000000000000000000, 0.000000000000000000 ) ;
#231 = SURFACE_STYLE_FILL_AREA ( #39 ) ;
#232 = EDGE_CURVE ( 'NONE', #111, #54, #124, .T. ) ;
#233 = ORIENTED_EDGE ( 'NONE', *, *, #152, .T. ) ;
#234 =( NAMED_UNIT ( * ) PLANE_ANGLE_UNIT ( ) SI_UNIT ( $, .RADIAN. ) );
#235 = FILL_AREA_STYLE_COLOUR ( '', #136 ) ;
#236 = UNCERTAINTY_MEASURE_WITH_UNIT (LENGTH_MEASURE( 1.000000000000000082E-05 ), #134, 'distance_accuracy_value', 'NONE');
#237 = SURFACE_SIDE_STYLE ('',( #144 ) ) ;
#238 = DIRECTION ( 'NONE',  ( 4.898587196589417389E-17, 1.000000000000000000, -0.000000000000000000 ) ) ;
#239 = CARTESIAN_POINT ( 'NONE',  ( -0.3124999999999997224, 5.000000000000000000, 0.000000000000000000 ) ) ;
#240 = APPLICATION_PROTOCOL_DEFINITION ( 'draft international standard', 'automotive_design', 1998, #36 ) ;
#241 = PRESENTATION_STYLE_ASSIGNMENT (( #266 ) ) ;
#242 = STYLED_ITEM ( 'NONE', ( #241 ), #164 ) ;
#243 = CIRCLE ( 'NONE', #162, 0.3125000000000000000 ) ;
#244 = SURFACE_STYLE_USAGE ( .BOTH. , #237 ) ;
#245 = FACE_OUTER_BOUND ( 'NONE', #274, .T. ) ;
#246 =( NAMED_UNIT ( * ) SI_UNIT ( $, .STERADIAN. ) SOLID_ANGLE_UNIT ( ) );
#247 = CARTESIAN_POINT ( 'NONE',  ( 0.000000000000000000, 2.500000000000000000, 0.000000000000000000 ) ) ;
#248 = DIRECTION ( 'NONE',  ( -4.898587196589418006E-17, -1.000000000000000000, 0.000000000000000000 ) ) ;
#249 = COLOUR_RGB ( '',0.7921568627450980005, 0.8196078431372548767, 0.9333333333333333481 ) ;
#250 =( GEOMETRIC_REPRESENTATION_CONTEXT ( 3 ) GLOBAL_UNCERTAINTY_ASSIGNED_CONTEXT ( ( #277 ) ) GLOBAL_UNIT_ASSIGNED_CONTEXT ( ( #303, #234, #11 ) ) REPRESENTATION_CONTEXT ( 'NONE', 'WORKASPACE' ) );
#251 = AXIS2_PLACEMENT_3D ( 'NONE', #95, #209, #288 ) ;
#252 =( LENGTH_UNIT ( ) NAMED_UNIT ( * ) SI_UNIT ( $, .METRE. ) );
#253 = CARTESIAN_POINT ( 'NONE',  ( -0.3124999999999998335, 5.000000000000000000, 0.000000000000000000 ) ) ;
#254 = PRODUCT_RELATED_PRODUCT_CATEGORY ( 'part', '', ( #4 ) ) ;
#255 = DIRECTION ( 'NONE',  ( -0.000000000000000000, -1.000000000000000000, -0.000000000000000000 ) ) ;
#256 =( GEOMETRIC_REPRESENTATION_CONTEXT ( 3 ) GLOBAL_UNCERTAINTY_ASSIGNED_CONTEXT ( ( #43 ) ) GLOBAL_UNIT_ASSIGNED_CONTEXT ( ( #267, #137, #210 ) ) REPRESENTATION_CONTEXT ( 'NONE', 'WORKASPACE' ) );
#257 = SURFACE_STYLE_USAGE ( .BOTH. , #72 ) ;
#258 = ORIENTED_EDGE ( 'NONE', *, *, #192, .F. ) ;
#259 = DIRECTION ( 'NONE',  ( 0.000000000000000000, -1.000000000000000000, -0.000000000000000000 ) ) ;
#260 = AXIS2_PLACEMENT_3D ( 'NONE', #34, #248, #188 ) ;
#261 = DIRECTION ( 'NONE',  ( 0.000000000000000000, 0.000000000000000000, -1.000000000000000000 ) ) ;
#262 = FILL_AREA_STYLE_COLOUR ( '', #56 ) ;
#263 = SURFACE_STYLE_USAGE ( .BOTH. , #17 ) ;
#264 =( NAMED_UNIT ( * ) SI_UNIT ( $, .STERADIAN. ) SOLID_ANGLE_UNIT ( ) );
#265 = CIRCLE ( 'NONE', #166, 0.3124999999999998890 ) ;
#266 = SURFACE_STYLE_USAGE ( .BOTH. , #142 ) ;
#267 =( CONVERSION_BASED_UNIT ( 'INCH', #122 ) LENGTH_UNIT ( ) NAMED_UNIT ( #32 ) );
#268 = DIRECTION ( 'NONE',  ( 0.000000000000000000, 0.000000000000000000, -1.000000000000000000 ) ) ;
#269 = CYLINDRICAL_SURFACE ( 'NONE', #150, 0.3124999999999999445 ) ;
#270 = FILL_AREA_STYLE ('',( #160 ) ) ;
#271 = CARTESIAN_POINT ( 'NONE',  ( 0.000000000000000000, 0.000000000000000000, 0.000000000000000000 ) ) ;
#272 = VERTEX_POINT ( 'NONE', #185 ) ;
#273 = AXIS2_PLACEMENT_3D ( 'NONE', #108, #259, #261 ) ;
#274 = EDGE_LOOP ( 'NONE', ( #199, #278 ) ) ;
#275 = DIRECTION ( 'NONE',  ( -1.000000000000000000, 0.000000000000000000, 0.000000000000000000 ) ) ;
#276 = SURFACE_SIDE_STYLE ('',( #231 ) ) ;
#277 = UNCERTAINTY_MEASURE_WITH_UNIT (LENGTH_MEASURE( 1.000000000000000082E-05 ), #303, 'distance_accuracy_value', 'NONE');
#278 = ORIENTED_EDGE ( 'NONE', *, *, #192, .T. ) ;
#279 =( LENGTH_UNIT ( ) NAMED_UNIT ( * ) SI_UNIT ( $, .METRE. ) );
#280 = DIRECTION ( 'NONE',  ( -1.000000000000000000, 0.000000000000000000, 0.000000000000000000 ) ) ;
#281 = AXIS2_PLACEMENT_3D ( 'NONE', #179, #215, #20 ) ;
#282 = LENGTH_MEASURE_WITH_UNIT ( LENGTH_MEASURE( 0.02539999999999999897 ), #14 );
#283 = FILL_AREA_STYLE_COLOUR ( '', #230 ) ;
#284 = ADVANCED_FACE ( 'NONE', ( #104 ), #223, .F. ) ;
#285 =( NAMED_UNIT ( * ) PLANE_ANGLE_UNIT ( ) SI_UNIT ( $, .RADIAN. ) );
#286 =( NAMED_UNIT ( * ) SI_UNIT ( $, .STERADIAN. ) SOLID_ANGLE_UNIT ( ) );
#287 = MANIFOLD_SOLID_BREP ( 'Revolve - Tool Body (Straight Shanked)', #125 ) ;
#288 = DIRECTION ( 'NONE',  ( 0.000000000000000000, 0.000000000000000000, -1.000000000000000000 ) ) ;
#289 = SURFACE_STYLE_FILL_AREA ( #187 ) ;
#290 = VECTOR ( 'NONE', #213, 39.37007874015748143 ) ;
#291 = ADVANCED_FACE ( 'NONE', ( #214 ), #269, .T. ) ;
#292 =( GEOMETRIC_REPRESENTATION_CONTEXT ( 3 ) GLOBAL_UNCERTAINTY_ASSIGNED_CONTEXT ( ( #198 ) ) GLOBAL_UNIT_ASSIGNED_CONTEXT ( ( #151, #220, #264 ) ) REPRESENTATION_CONTEXT ( 'NONE', 'WORKASPACE' ) );
#293 = PRESENTATION_STYLE_ASSIGNMENT (( #169 ) ) ;
#294 = AXIS2_PLACEMENT_3D ( 'NONE', #18, #89, #280 ) ;
#295 = DIRECTION ( 'NONE',  ( -0.000000000000000000, -1.000000000000000000, -0.000000000000000000 ) ) ;
#296 = CIRCLE ( 'NONE', #110, 0.3125000000000000000 ) ;
#297 = EDGE_CURVE ( 'NONE', #195, #156, #50, .T. ) ;
#298 = LENGTH_MEASURE_WITH_UNIT ( LENGTH_MEASURE( 0.02539999999999999897 ), #37 );
#299 = EDGE_LOOP ( 'NONE', ( #102, #222 ) ) ;
#300 = CLOSED_SHELL ( 'NONE', ( #113, #164, #63, #203 ) ) ;
#301 = ADVANCED_FACE ( 'NONE', ( #245 ), #148, .F. ) ;
#302 = ORIENTED_EDGE ( 'NONE', *, *, #27, .T. ) ;
#303 =( CONVERSION_BASED_UNIT ( 'INCH', #298 ) LENGTH_UNIT ( ) NAMED_UNIT ( #149 ) );
#304 = UNCERTAINTY_MEASURE_WITH_UNIT (LENGTH_MEASURE( 1.000000000000000082E-05 ), #64, 'distance_accuracy_value', 'NONE');
#305 = FACE_OUTER_BOUND ( 'NONE', #85, .T. ) ;
#306 = EDGE_CURVE ( 'NONE', #10, #272, #77, .T. ) ;
#307 = APPLICATION_CONTEXT ( 'automotive_design' ) ;
#308 = MECHANICAL_DESIGN_GEOMETRIC_PRESENTATION_REPRESENTATION (  '', ( #242 ), #225 ) ;
#309 = CYLINDRICAL_SURFACE ( 'NONE', #251, 0.3125000000000000000 ) ;
ENDSEC;
END-ISO-10303-21;
