ISO-10303-21;
HEADER;
FILE_DESCRIPTION (( 'STEP AP214' ),
    '1' );
FILE_NAME ('Micro_GEM-375-3.STEP',
    '2021-09-01T20:37:05',
    ( '' ),
    ( '' ),
    'SwSTEP 2.0',
    'SolidWorks 2020',
    '' );
FILE_SCHEMA (( 'AUTOMOTIVE_DESIGN' ));
ENDSEC;

DATA;
#1 = ORIENTED_EDGE ( 'NONE', *, *, #175, .F. ) ;
#2 = EDGE_CURVE ( 'NONE', #168, #229, #209, .T. ) ;
#3 = DIRECTION ( 'NONE',  ( 1.000000000000000000, 0.0000000000000000000, 0.0000000000000000000 ) ) ;
#4 = EDGE_LOOP ( 'NONE', ( #49, #260, #256, #191 ) ) ;
#5 = ADVANCED_FACE ( 'NONE', ( #239 ), #7, .T. ) ;
#6 = ORIENTED_EDGE ( 'NONE', *, *, #175, .T. ) ;
#7 = CONICAL_SURFACE ( 'NONE', #177, 0.1873125000000000207, 0.1745329251994338915 ) ;
#8 = PRODUCT_CONTEXT ( 'NONE', #196, 'mechanical' ) ;
#9 = EDGE_CURVE ( 'NONE', #148, #26, #47, .T. ) ;
#10 = EDGE_LOOP ( 'NONE', ( #103, #69, #237, #258 ) ) ;
#11 = DIRECTION ( 'NONE',  ( 1.224646799147353207E-16, 0.0000000000000000000, 1.000000000000000000 ) ) ;
#12 = LINE ( 'NONE', #290, #131 ) ;
#13 = DIRECTION ( 'NONE',  ( 0.7071067811865385799, 8.659560562354823157E-17, -0.7071067811865563435 ) ) ;
#14 = CARTESIAN_POINT ( 'NONE',  ( 0.0000000000000000000, 0.0000000000000000000, 2.500000000000000000 ) ) ;
#15 = DIRECTION ( 'NONE',  ( 1.000000000000000000, 0.0000000000000000000, 0.0000000000000000000 ) ) ;
#16 = DIRECTION ( 'NONE',  ( -0.7071067811865385799, 0.0000000000000000000, -0.7071067811865563435 ) ) ;
#17 = FILL_AREA_STYLE ('',( #249 ) ) ;
#18 = DIRECTION ( 'NONE',  ( -1.000000000000000000, 0.0000000000000000000, 0.0000000000000000000 ) ) ;
#19 = DIRECTION ( 'NONE',  ( -1.224646799147353207E-16, -0.0000000000000000000, -1.000000000000000000 ) ) ;
#20 = ADVANCED_FACE ( 'NONE', ( #291 ), #30, .T. ) ;
#21 = VERTEX_POINT ( 'NONE', #287 ) ;
#22 = APPLICATION_CONTEXT ( 'automotive_design' ) ;
#23 =( LENGTH_UNIT ( ) NAMED_UNIT ( * ) SI_UNIT ( $, .METRE. ) );
#24 = EDGE_CURVE ( 'NONE', #189, #48, #104, .T. ) ;
#25 = SHAPE_DEFINITION_REPRESENTATION ( #136, #271 ) ;
#26 = VERTEX_POINT ( 'NONE', #284 ) ;
#27 = ORIENTED_EDGE ( 'NONE', *, *, #254, .F. ) ;
#28 = ORIENTED_EDGE ( 'NONE', *, *, #183, .F. ) ;
#29 = AXIS2_PLACEMENT_3D ( 'NONE', #110, #266, #59 ) ;
#30 = CYLINDRICAL_SURFACE ( 'NONE', #29, 0.1873124999999999929 ) ;
#31 = DIRECTION ( 'NONE',  ( 1.000000000000000000, 0.0000000000000000000, 0.0000000000000000000 ) ) ;
#32 = CARTESIAN_POINT ( 'NONE',  ( 0.1873125000000001317, 0.0000000000000000000, 0.8750000000000000000 ) ) ;
#33 = AXIS2_PLACEMENT_3D ( 'NONE', #214, #35, #263 ) ;
#34 = DIRECTION ( 'NONE',  ( 1.224646799147353207E-16, 0.0000000000000000000, 1.000000000000000000 ) ) ;
#35 = DIRECTION ( 'NONE',  ( 0.0000000000000000000, 0.0000000000000000000, -1.000000000000000000 ) ) ;
#36 = DIRECTION ( 'NONE',  ( -0.0000000000000000000, -0.0000000000000000000, -1.000000000000000000 ) ) ;
#37 = DIRECTION ( 'NONE',  ( 1.000000000000000000, 0.0000000000000000000, -0.0000000000000000000 ) ) ;
#38 =( NAMED_UNIT ( * ) PLANE_ANGLE_UNIT ( ) SI_UNIT ( $, .RADIAN. ) );
#39 = DIRECTION ( 'NONE',  ( 1.000000000000000000, 0.0000000000000000000, -0.0000000000000000000 ) ) ;
#40 = EDGE_CURVE ( 'NONE', #48, #45, #58, .T. ) ;
#41 = UNCERTAINTY_MEASURE_WITH_UNIT (LENGTH_MEASURE( 1.000000000000000082E-05 ), #159, 'distance_accuracy_value', 'NONE');
#42 = CARTESIAN_POINT ( 'NONE',  ( 0.0000000000000000000, 0.0000000000000000000, 2.484999999999999432 ) ) ;
#43 = CIRCLE ( 'NONE', #185, 0.1873125000000000207 ) ;
#44 = SURFACE_SIDE_STYLE ('',( #149 ) ) ;
#45 = VERTEX_POINT ( 'NONE', #174 ) ;
#46 = ORIENTED_EDGE ( 'NONE', *, *, #254, .T. ) ;
#47 = CIRCLE ( 'NONE', #203, 0.1873124999999999929 ) ;
#48 = VERTEX_POINT ( 'NONE', #154 ) ;
#49 = ORIENTED_EDGE ( 'NONE', *, *, #56, .F. ) ;
#50 = ORIENTED_EDGE ( 'NONE', *, *, #210, .T. ) ;
#51 = CONICAL_SURFACE ( 'NONE', #33, 0.1724999999999995981, 0.7853981633974357335 ) ;
#52 =( GEOMETRIC_REPRESENTATION_CONTEXT ( 3 ) GLOBAL_UNCERTAINTY_ASSIGNED_CONTEXT ( ( #41 ) ) GLOBAL_UNIT_ASSIGNED_CONTEXT ( ( #159, #38, #269 ) ) REPRESENTATION_CONTEXT ( 'NONE', 'WORKASPACE' ) );
#53 = LINE ( 'NONE', #109, #221 ) ;
#54 = ADVANCED_FACE ( 'NONE', ( #157 ), #171, .T. ) ;
#55 = CARTESIAN_POINT ( 'NONE',  ( 0.1873125000000001317, 0.0000000000000000000, 0.8750000000000000000 ) ) ;
#56 = EDGE_CURVE ( 'NONE', #229, #48, #78, .T. ) ;
#57 = DIRECTION ( 'NONE',  ( -1.224646799147353207E-16, -0.0000000000000000000, -1.000000000000000000 ) ) ;
#58 = CIRCLE ( 'NONE', #273, 0.1875000000000000278 ) ;
#59 = DIRECTION ( 'NONE',  ( -1.000000000000000000, 0.0000000000000000000, 1.224646799147352961E-16 ) ) ;
#60 = SURFACE_STYLE_FILL_AREA ( #17 ) ;
#61 = LINE ( 'NONE', #115, #100 ) ;
#62 = DIRECTION ( 'NONE',  ( -1.000000000000000000, 0.0000000000000000000, 1.224646799147352961E-16 ) ) ;
#63 = PRODUCT_DEFINITION ( 'UNKNOWN', '', #141, #101 ) ;
#64 = CARTESIAN_POINT ( 'NONE',  ( 0.0000000000000000000, 0.0000000000000000000, 0.0000000000000000000 ) ) ;
#65 = CARTESIAN_POINT ( 'NONE',  ( -0.1873124999999999096, 2.293916535652885904E-17, 0.8750000000000000000 ) ) ;
#66 = SURFACE_STYLE_USAGE ( .BOTH. , #44 ) ;
#67 = CIRCLE ( 'NONE', #238, 0.1724999999999995981 ) ;
#68 =( CONVERSION_BASED_UNIT ( 'INCH', #228 ) LENGTH_UNIT ( ) NAMED_UNIT ( #223 ) );
#69 = ORIENTED_EDGE ( 'NONE', *, *, #76, .F. ) ;
#70 = VERTEX_POINT ( 'NONE', #127 ) ;
#71 = EDGE_CURVE ( 'NONE', #21, #189, #43, .T. ) ;
#72 = ORIENTED_EDGE ( 'NONE', *, *, #75, .T. ) ;
#73 = VECTOR ( 'NONE', #286, 39.37007874015748143 ) ;
#74 = ORIENTED_EDGE ( 'NONE', *, *, #240, .F. ) ;
#75 = EDGE_CURVE ( 'NONE', #189, #148, #12, .T. ) ;
#76 = EDGE_CURVE ( 'NONE', #169, #168, #67, .T. ) ;
#77 = EDGE_LOOP ( 'NONE', ( #125, #124, #150, #283 ) ) ;
#78 = LINE ( 'NONE', #264, #199 ) ;
#79 = CONICAL_SURFACE ( 'NONE', #137, 0.1724999999999995981, 0.7853981633974357335 ) ;
#80 = STYLED_ITEM ( 'NONE', ( #143 ), #271 ) ;
#81 = DIRECTION ( 'NONE',  ( -0.0000000000000000000, -0.0000000000000000000, -1.000000000000000000 ) ) ;
#82 = CARTESIAN_POINT ( 'NONE',  ( -0.1875000000000000278, 0.0000000000000000000, 2.500000000000000000 ) ) ;
#83 = DIRECTION ( 'NONE',  ( 0.0000000000000000000, 0.0000000000000000000, -1.000000000000000000 ) ) ;
#84 = AXIS2_PLACEMENT_3D ( 'NONE', #173, #242, #134 ) ;
#85 = COLOUR_RGB ( '',0.7921568627450980005, 0.8196078431372548767, 0.9333333333333333481 ) ;
#86 = DIRECTION ( 'NONE',  ( -1.224646799147353207E-16, -0.0000000000000000000, -1.000000000000000000 ) ) ;
#87 = LINE ( 'NONE', #65, #285 ) ;
#88 = DIRECTION ( 'NONE',  ( -1.224646799147353207E-16, -0.0000000000000000000, -1.000000000000000000 ) ) ;
#89 = DIRECTION ( 'NONE',  ( -1.000000000000000000, 0.0000000000000000000, 0.0000000000000000000 ) ) ;
#90 = AXIS2_PLACEMENT_3D ( 'NONE', #184, #227, #200 ) ;
#91 = UNCERTAINTY_MEASURE_WITH_UNIT (LENGTH_MEASURE( 1.000000000000000082E-05 ), #68, 'distance_accuracy_value', 'NONE');
#92 = CYLINDRICAL_SURFACE ( 'NONE', #248, 0.1873124999999999929 ) ;
#93 = DIRECTION ( 'NONE',  ( 0.0000000000000000000, 0.0000000000000000000, 1.000000000000000000 ) ) ;
#94 = CIRCLE ( 'NONE', #165, 0.1875000000000000278 ) ;
#95 = EDGE_LOOP ( 'NONE', ( #232, #72, #208, #297 ) ) ;
#96 = APPLICATION_PROTOCOL_DEFINITION ( 'draft international standard', 'automotive_design', 1998, #22 ) ;
#97 = ORIENTED_EDGE ( 'NONE', *, *, #164, .T. ) ;
#98 = EDGE_LOOP ( 'NONE', ( #205, #121 ) ) ;
#99 = ORIENTED_EDGE ( 'NONE', *, *, #56, .T. ) ;
#100 = VECTOR ( 'NONE', #16, 39.37007874015748854 ) ;
#101 = PRODUCT_DEFINITION_CONTEXT ( 'detailed design', #22, 'design' ) ;
#102 =( NAMED_UNIT ( * ) SI_UNIT ( $, .STERADIAN. ) SOLID_ANGLE_UNIT ( ) );
#103 = ORIENTED_EDGE ( 'NONE', *, *, #2, .F. ) ;
#104 = LINE ( 'NONE', #32, #216 ) ;
#105 = CARTESIAN_POINT ( 'NONE',  ( 0.1873124999999999929, 2.293916535652885596E-17, 0.0000000000000000000 ) ) ;
#106 = PRESENTATION_LAYER_ASSIGNMENT (  '', '', ( #230 ) ) ;
#107 = AXIS2_PLACEMENT_3D ( 'NONE', #251, #247, #37 ) ;
#108 = DIRECTION ( 'NONE',  ( -1.224646799147353207E-16, -0.0000000000000000000, -1.000000000000000000 ) ) ;
#109 = CARTESIAN_POINT ( 'NONE',  ( -0.1873124999999999929, 0.0000000000000000000, 2.293916535652885596E-17 ) ) ;
#110 = CARTESIAN_POINT ( 'NONE',  ( 0.0000000000000000000, 0.0000000000000000000, 0.0000000000000000000 ) ) ;
#111 = AXIS2_PLACEMENT_3D ( 'NONE', #201, #182, #39 ) ;
#112 = AXIS2_PLACEMENT_3D ( 'NONE', #276, #145, #123 ) ;
#113 = CARTESIAN_POINT ( 'NONE',  ( 0.1875000000000000278, 2.296212748401287726E-17, 2.484999999999999432 ) ) ;
#114 = CARTESIAN_POINT ( 'NONE',  ( 2.809237542898491532E-33, 0.0000000000000000000, 2.293916535652885596E-17 ) ) ;
#115 = CARTESIAN_POINT ( 'NONE',  ( -0.1724999999999995981, 0.0000000000000000000, 2.500000000000000000 ) ) ;
#116 = AXIS2_PLACEMENT_3D ( 'NONE', #114, #19, #62 ) ;
#117 = FACE_OUTER_BOUND ( 'NONE', #188, .T. ) ;
#118 =( GEOMETRIC_REPRESENTATION_CONTEXT ( 3 ) GLOBAL_UNCERTAINTY_ASSIGNED_CONTEXT ( ( #226 ) ) GLOBAL_UNIT_ASSIGNED_CONTEXT ( ( #255, #122, #102 ) ) REPRESENTATION_CONTEXT ( 'NONE', 'WORKASPACE' ) );
#119 = DIRECTION ( 'NONE',  ( 1.000000000000000000, 0.0000000000000000000, 0.0000000000000000000 ) ) ;
#120 = FILL_AREA_STYLE_COLOUR ( '', #85 ) ;
#121 = ORIENTED_EDGE ( 'NONE', *, *, #218, .T. ) ;
#122 =( NAMED_UNIT ( * ) PLANE_ANGLE_UNIT ( ) SI_UNIT ( $, .RADIAN. ) );
#123 = DIRECTION ( 'NONE',  ( 1.000000000000000000, 0.0000000000000000000, 0.0000000000000000000 ) ) ;
#124 = ORIENTED_EDGE ( 'NONE', *, *, #225, .T. ) ;
#125 = ORIENTED_EDGE ( 'NONE', *, *, #71, .F. ) ;
#126 = ORIENTED_EDGE ( 'NONE', *, *, #40, .T. ) ;
#127 = CARTESIAN_POINT ( 'NONE',  ( -0.1875000000000000278, 0.0000000000000000000, 2.484999999999999432 ) ) ;
#128 = FACE_OUTER_BOUND ( 'NONE', #163, .T. ) ;
#129 = ADVANCED_FACE ( 'NONE', ( #128 ), #132, .T. ) ;
#130 = FACE_OUTER_BOUND ( 'NONE', #234, .T. ) ;
#131 = VECTOR ( 'NONE', #57, 39.37007874015748143 ) ;
#132 = CYLINDRICAL_SURFACE ( 'NONE', #84, 0.1875000000000000278 ) ;
#133 = ADVANCED_FACE ( 'NONE', ( #195 ), #51, .T. ) ;
#134 = DIRECTION ( 'NONE',  ( -1.000000000000000000, 0.0000000000000000000, 0.0000000000000000000 ) ) ;
#135 = PLANE ( 'NONE',  #107 ) ;
#136 = PRODUCT_DEFINITION_SHAPE ( 'NONE', 'NONE',  #63 ) ;
#137 = AXIS2_PLACEMENT_3D ( 'NONE', #14, #295, #18 ) ;
#138 = FACE_OUTER_BOUND ( 'NONE', #98, .T. ) ;
#139 = FACE_OUTER_BOUND ( 'NONE', #95, .T. ) ;
#140 = DIRECTION ( 'NONE',  ( 1.000000000000000000, 0.0000000000000000000, 0.0000000000000000000 ) ) ;
#141 = PRODUCT_DEFINITION_FORMATION_WITH_SPECIFIED_SOURCE ( 'ANY', '', #181, .NOT_KNOWN. ) ;
#142 = DIRECTION ( 'NONE',  ( -1.224646799147353207E-16, -0.0000000000000000000, -1.000000000000000000 ) ) ;
#143 = PRESENTATION_STYLE_ASSIGNMENT (( #66 ) ) ;
#144 = EDGE_LOOP ( 'NONE', ( #282, #27, #146, #126 ) ) ;
#145 = DIRECTION ( 'NONE',  ( 0.0000000000000000000, 0.0000000000000000000, 1.000000000000000000 ) ) ;
#146 = ORIENTED_EDGE ( 'NONE', *, *, #24, .T. ) ;
#147 = MECHANICAL_DESIGN_GEOMETRIC_PRESENTATION_REPRESENTATION (  '', ( #80 ), #267 ) ;
#148 = VERTEX_POINT ( 'NONE', #105 ) ;
#149 = SURFACE_STYLE_FILL_AREA ( #167 ) ;
#150 = ORIENTED_EDGE ( 'NONE', *, *, #296, .T. ) ;
#151 = DIRECTION ( 'NONE',  ( -1.000000000000000000, 0.0000000000000000000, 1.224646799147352961E-16 ) ) ;
#152 = AXIS2_PLACEMENT_3D ( 'NONE', #243, #34, #245 ) ;
#153 = DIRECTION ( 'NONE',  ( -1.224646799147353207E-16, -0.0000000000000000000, -1.000000000000000000 ) ) ;
#154 = CARTESIAN_POINT ( 'NONE',  ( 0.1875000000000000833, 2.296212748401288650E-17, 0.8760633653411783461 ) ) ;
#155 = DIRECTION ( 'NONE',  ( 1.000000000000000000, 0.0000000000000000000, 0.0000000000000000000 ) ) ;
#156 = MECHANICAL_DESIGN_GEOMETRIC_PRESENTATION_REPRESENTATION (  '', ( #230 ), #52 ) ;
#157 = FACE_OUTER_BOUND ( 'NONE', #144, .T. ) ;
#158 = FACE_OUTER_BOUND ( 'NONE', #4, .T. ) ;
#159 =( CONVERSION_BASED_UNIT ( 'INCH', #252 ) LENGTH_UNIT ( ) NAMED_UNIT ( #275 ) );
#160 = DIRECTION ( 'NONE',  ( -1.000000000000000000, 0.0000000000000000000, 1.224646799147352961E-16 ) ) ;
#161 = PRESENTATION_STYLE_ASSIGNMENT (( #294 ) ) ;
#162 = CLOSED_SHELL ( 'NONE', ( #212, #5, #206, #129, #272, #289, #133, #54, #20, #288 ) ) ;
#163 = EDGE_LOOP ( 'NONE', ( #6, #99, #279, #28 ) ) ;
#164 = EDGE_CURVE ( 'NONE', #21, #26, #53, .T. ) ;
#165 = AXIS2_PLACEMENT_3D ( 'NONE', #178, #83, #213 ) ;
#166 = CIRCLE ( 'NONE', #299, 0.1875000000000000278 ) ;
#167 = FILL_AREA_STYLE ('',( #120 ) ) ;
#168 = VERTEX_POINT ( 'NONE', #217 ) ;
#169 = VERTEX_POINT ( 'NONE', #198 ) ;
#170 = DIRECTION ( 'NONE',  ( 0.0000000000000000000, 0.0000000000000000000, 1.000000000000000000 ) ) ;
#171 = CONICAL_SURFACE ( 'NONE', #152, 0.1873125000000000207, 0.1745329251994338915 ) ;
#172 = CIRCLE ( 'NONE', #231, 0.1875000000000000278 ) ;
#173 = CARTESIAN_POINT ( 'NONE',  ( 0.0000000000000000000, 0.0000000000000000000, 2.500000000000000000 ) ) ;
#174 = CARTESIAN_POINT ( 'NONE',  ( -0.1874999999999999167, 0.0000000000000000000, 0.8760633653411783461 ) ) ;
#175 = EDGE_CURVE ( 'NONE', #70, #229, #94, .T. ) ;
#176 = CARTESIAN_POINT ( 'NONE',  ( 1.071565949253934025E-16, 0.0000000000000000000, 0.8750000000000000000 ) ) ;
#177 = AXIS2_PLACEMENT_3D ( 'NONE', #176, #11, #15 ) ;
#178 = CARTESIAN_POINT ( 'NONE',  ( 0.0000000000000000000, 0.0000000000000000000, 2.484999999999999432 ) ) ;
#179 = SURFACE_SIDE_STYLE ('',( #60 ) ) ;
#180 =( LENGTH_UNIT ( ) NAMED_UNIT ( * ) SI_UNIT ( $, .METRE. ) );
#181 = PRODUCT ( 'Micro_GEM-375-3', 'Micro_GEM-375-3', '', ( #8 ) ) ;
#182 = DIRECTION ( 'NONE',  ( 0.0000000000000000000, 0.0000000000000000000, 1.000000000000000000 ) ) ;
#183 = EDGE_CURVE ( 'NONE', #70, #45, #193, .T. ) ;
#184 = CARTESIAN_POINT ( 'NONE',  ( 1.071565949253934025E-16, 0.0000000000000000000, 0.8750000000000000000 ) ) ;
#185 = AXIS2_PLACEMENT_3D ( 'NONE', #268, #108, #265 ) ;
#186 = CIRCLE ( 'NONE', #90, 0.1873125000000000207 ) ;
#187 = DIMENSIONAL_EXPONENTS ( 1.000000000000000000, 0.0000000000000000000, 0.0000000000000000000, 0.0000000000000000000, 0.0000000000000000000, 0.0000000000000000000, 0.0000000000000000000 ) ;
#188 = EDGE_LOOP ( 'NONE', ( #50, #261 ) ) ;
#189 = VERTEX_POINT ( 'NONE', #55 ) ;
#190 = ORIENTED_EDGE ( 'NONE', *, *, #9, .F. ) ;
#191 = ORIENTED_EDGE ( 'NONE', *, *, #40, .F. ) ;
#192 = DIRECTION ( 'NONE',  ( 0.1736481776669313859, 0.0000000000000000000, 0.9848077530122077983 ) ) ;
#193 = LINE ( 'NONE', #82, #73 ) ;
#194 = COLOUR_RGB ( '',0.7921568627450980005, 0.8196078431372548767, 0.9333333333333333481 ) ;
#195 = FACE_OUTER_BOUND ( 'NONE', #10, .T. ) ;
#196 = APPLICATION_CONTEXT ( 'automotive_design' ) ;
#197 = CARTESIAN_POINT ( 'NONE',  ( 0.0000000000000000000, 0.0000000000000000000, 2.500000000000000000 ) ) ;
#198 = CARTESIAN_POINT ( 'NONE',  ( -0.1724999999999995981, 0.0000000000000000000, 2.500000000000000000 ) ) ;
#199 = VECTOR ( 'NONE', #81, 39.37007874015748143 ) ;
#200 = DIRECTION ( 'NONE',  ( -1.000000000000000000, 0.0000000000000000000, 0.0000000000000000000 ) ) ;
#201 = CARTESIAN_POINT ( 'NONE',  ( 0.0000000000000000000, 0.0000000000000000000, 2.500000000000000000 ) ) ;
#202 = DIRECTION ( 'NONE',  ( 0.0000000000000000000, 0.0000000000000000000, -1.000000000000000000 ) ) ;
#203 = AXIS2_PLACEMENT_3D ( 'NONE', #241, #215, #151 ) ;
#204 = DIRECTION ( 'NONE',  ( -0.1736481776669311916, 2.126576849575783316E-17, 0.9848077530122080203 ) ) ;
#205 = ORIENTED_EDGE ( 'NONE', *, *, #76, .T. ) ;
#206 = ADVANCED_FACE ( 'NONE', ( #130 ), #79, .T. ) ;
#207 = ORIENTED_EDGE ( 'NONE', *, *, #218, .F. ) ;
#208 = ORIENTED_EDGE ( 'NONE', *, *, #210, .F. ) ;
#209 = LINE ( 'NONE', #211, #293 ) ;
#210 = EDGE_CURVE ( 'NONE', #26, #148, #244, .T. ) ;
#211 = CARTESIAN_POINT ( 'NONE',  ( 0.1724999999999995981, 2.112515728529179297E-17, 2.500000000000000000 ) ) ;
#212 = ADVANCED_FACE ( 'NONE', ( #139 ), #92, .T. ) ;
#213 = DIRECTION ( 'NONE',  ( 1.000000000000000000, 0.0000000000000000000, 0.0000000000000000000 ) ) ;
#214 = CARTESIAN_POINT ( 'NONE',  ( 0.0000000000000000000, 0.0000000000000000000, 2.500000000000000000 ) ) ;
#215 = DIRECTION ( 'NONE',  ( -1.224646799147353207E-16, -0.0000000000000000000, -1.000000000000000000 ) ) ;
#216 = VECTOR ( 'NONE', #192, 39.37007874015748143 ) ;
#217 = CARTESIAN_POINT ( 'NONE',  ( 0.1724999999999995981, 2.204364238465233357E-17, 2.500000000000000000 ) ) ;
#218 = EDGE_CURVE ( 'NONE', #168, #169, #298, .T. ) ;
#219 = CARTESIAN_POINT ( 'NONE',  ( 1.072868196215332272E-16, 0.0000000000000000000, 0.8760633653411783461 ) ) ;
#220 = CARTESIAN_POINT ( 'NONE',  ( 0.0000000000000000000, 0.0000000000000000000, 2.500000000000000000 ) ) ;
#221 = VECTOR ( 'NONE', #153, 39.37007874015748143 ) ;
#222 = PLANE ( 'NONE',  #111 ) ;
#223 = DIMENSIONAL_EXPONENTS ( 1.000000000000000000, 0.0000000000000000000, 0.0000000000000000000, 0.0000000000000000000, 0.0000000000000000000, 0.0000000000000000000, 0.0000000000000000000 ) ;
#224 = CARTESIAN_POINT ( 'NONE',  ( 1.072868196215332272E-16, 0.0000000000000000000, 0.8760633653411783461 ) ) ;
#225 = EDGE_CURVE ( 'NONE', #21, #45, #87, .T. ) ;
#226 = UNCERTAINTY_MEASURE_WITH_UNIT (LENGTH_MEASURE( 1.000000000000000082E-05 ), #255, 'distance_accuracy_value', 'NONE');
#227 = DIRECTION ( 'NONE',  ( -1.224646799147353207E-16, -0.0000000000000000000, -1.000000000000000000 ) ) ;
#228 = LENGTH_MEASURE_WITH_UNIT ( LENGTH_MEASURE( 0.02539999999999999897 ), #259 );
#229 = VERTEX_POINT ( 'NONE', #113 ) ;
#230 = STYLED_ITEM ( 'NONE', ( #161 ), #235 ) ;
#231 = AXIS2_PLACEMENT_3D ( 'NONE', #224, #142, #3 ) ;
#232 = ORIENTED_EDGE ( 'NONE', *, *, #71, .T. ) ;
#233 =( NAMED_UNIT ( * ) SI_UNIT ( $, .STERADIAN. ) SOLID_ANGLE_UNIT ( ) );
#234 = EDGE_LOOP ( 'NONE', ( #207, #277, #1, #74 ) ) ;
#235 = MANIFOLD_SOLID_BREP ( 'Cut-Revolve1', #162 ) ;
#236 = APPLICATION_PROTOCOL_DEFINITION ( 'draft international standard', 'automotive_design', 1998, #196 ) ;
#237 = ORIENTED_EDGE ( 'NONE', *, *, #240, .T. ) ;
#238 = AXIS2_PLACEMENT_3D ( 'NONE', #197, #170, #31 ) ;
#239 = FACE_OUTER_BOUND ( 'NONE', #77, .T. ) ;
#240 = EDGE_CURVE ( 'NONE', #169, #70, #61, .T. ) ;
#241 = CARTESIAN_POINT ( 'NONE',  ( 2.809237542898491532E-33, 0.0000000000000000000, 2.293916535652885596E-17 ) ) ;
#242 = DIRECTION ( 'NONE',  ( -0.0000000000000000000, -0.0000000000000000000, -1.000000000000000000 ) ) ;
#243 = CARTESIAN_POINT ( 'NONE',  ( 1.071565949253934025E-16, 0.0000000000000000000, 0.8750000000000000000 ) ) ;
#244 = CIRCLE ( 'NONE', #116, 0.1873124999999999929 ) ;
#245 = DIRECTION ( 'NONE',  ( 1.000000000000000000, 0.0000000000000000000, 0.0000000000000000000 ) ) ;
#246 = CYLINDRICAL_SURFACE ( 'NONE', #262, 0.1875000000000000278 ) ;
#247 = DIRECTION ( 'NONE',  ( 0.0000000000000000000, 0.0000000000000000000, 1.000000000000000000 ) ) ;
#248 = AXIS2_PLACEMENT_3D ( 'NONE', #64, #88, #160 ) ;
#249 = FILL_AREA_STYLE_COLOUR ( '', #194 ) ;
#250 = EDGE_CURVE ( 'NONE', #229, #70, #166, .T. ) ;
#251 = CARTESIAN_POINT ( 'NONE',  ( 0.0000000000000000000, 0.0000000000000000000, 0.0000000000000000000 ) ) ;
#252 = LENGTH_MEASURE_WITH_UNIT ( LENGTH_MEASURE( 0.02539999999999999897 ), #180 );
#253 = PRODUCT_RELATED_PRODUCT_CATEGORY ( 'part', '', ( #181 ) ) ;
#254 = EDGE_CURVE ( 'NONE', #189, #21, #186, .T. ) ;
#255 =( CONVERSION_BASED_UNIT ( 'INCH', #278 ) LENGTH_UNIT ( ) NAMED_UNIT ( #187 ) );
#256 = ORIENTED_EDGE ( 'NONE', *, *, #183, .T. ) ;
#257 = EDGE_LOOP ( 'NONE', ( #274, #46, #97, #190 ) ) ;
#258 = ORIENTED_EDGE ( 'NONE', *, *, #250, .F. ) ;
#259 =( LENGTH_UNIT ( ) NAMED_UNIT ( * ) SI_UNIT ( $, .METRE. ) );
#260 = ORIENTED_EDGE ( 'NONE', *, *, #250, .T. ) ;
#261 = ORIENTED_EDGE ( 'NONE', *, *, #9, .T. ) ;
#262 = AXIS2_PLACEMENT_3D ( 'NONE', #292, #36, #89 ) ;
#263 = DIRECTION ( 'NONE',  ( -1.000000000000000000, 0.0000000000000000000, 0.0000000000000000000 ) ) ;
#264 = CARTESIAN_POINT ( 'NONE',  ( 0.1875000000000000278, 2.296212748401287726E-17, 2.500000000000000000 ) ) ;
#265 = DIRECTION ( 'NONE',  ( -1.000000000000000000, 0.0000000000000000000, 0.0000000000000000000 ) ) ;
#266 = DIRECTION ( 'NONE',  ( -1.224646799147353207E-16, -0.0000000000000000000, -1.000000000000000000 ) ) ;
#267 =( GEOMETRIC_REPRESENTATION_CONTEXT ( 3 ) GLOBAL_UNCERTAINTY_ASSIGNED_CONTEXT ( ( #91 ) ) GLOBAL_UNIT_ASSIGNED_CONTEXT ( ( #68, #281, #233 ) ) REPRESENTATION_CONTEXT ( 'NONE', 'WORKASPACE' ) );
#268 = CARTESIAN_POINT ( 'NONE',  ( 1.071565949253934025E-16, 0.0000000000000000000, 0.8750000000000000000 ) ) ;
#269 =( NAMED_UNIT ( * ) SI_UNIT ( $, .STERADIAN. ) SOLID_ANGLE_UNIT ( ) );
#270 = PRESENTATION_LAYER_ASSIGNMENT (  '', '', ( #80 ) ) ;
#271 = ADVANCED_BREP_SHAPE_REPRESENTATION ( 'Micro_GEM-375-3', ( #235, #112 ), #118 ) ;
#272 = ADVANCED_FACE ( 'NONE', ( #158 ), #246, .T. ) ;
#273 = AXIS2_PLACEMENT_3D ( 'NONE', #219, #86, #155 ) ;
#274 = ORIENTED_EDGE ( 'NONE', *, *, #75, .F. ) ;
#275 = DIMENSIONAL_EXPONENTS ( 1.000000000000000000, 0.0000000000000000000, 0.0000000000000000000, 0.0000000000000000000, 0.0000000000000000000, 0.0000000000000000000, 0.0000000000000000000 ) ;
#276 = CARTESIAN_POINT ( 'NONE',  ( 0.0000000000000000000, 0.0000000000000000000, 0.0000000000000000000 ) ) ;
#277 = ORIENTED_EDGE ( 'NONE', *, *, #2, .T. ) ;
#278 = LENGTH_MEASURE_WITH_UNIT ( LENGTH_MEASURE( 0.02539999999999999897 ), #23 );
#279 = ORIENTED_EDGE ( 'NONE', *, *, #296, .F. ) ;
#280 = AXIS2_PLACEMENT_3D ( 'NONE', #220, #93, #119 ) ;
#281 =( NAMED_UNIT ( * ) PLANE_ANGLE_UNIT ( ) SI_UNIT ( $, .RADIAN. ) );
#282 = ORIENTED_EDGE ( 'NONE', *, *, #225, .F. ) ;
#283 = ORIENTED_EDGE ( 'NONE', *, *, #24, .F. ) ;
#284 = CARTESIAN_POINT ( 'NONE',  ( -0.1873124999999999929, 0.0000000000000000000, 4.587833071305771192E-17 ) ) ;
#285 = VECTOR ( 'NONE', #204, 39.37007874015747433 ) ;
#286 = DIRECTION ( 'NONE',  ( -0.0000000000000000000, -0.0000000000000000000, -1.000000000000000000 ) ) ;
#287 = CARTESIAN_POINT ( 'NONE',  ( -0.1873124999999999096, 2.295064642027087123E-17, 0.8750000000000000000 ) ) ;
#288 = ADVANCED_FACE ( 'NONE', ( #117 ), #135, .F. ) ;
#289 = ADVANCED_FACE ( 'NONE', ( #138 ), #222, .T. ) ;
#290 = CARTESIAN_POINT ( 'NONE',  ( 0.1873124999999999929, 2.293916535652885596E-17, -2.293916535652885596E-17 ) ) ;
#291 = FACE_OUTER_BOUND ( 'NONE', #257, .T. ) ;
#292 = CARTESIAN_POINT ( 'NONE',  ( 0.0000000000000000000, 0.0000000000000000000, 2.500000000000000000 ) ) ;
#293 = VECTOR ( 'NONE', #13, 39.37007874015748854 ) ;
#294 = SURFACE_STYLE_USAGE ( .BOTH. , #179 ) ;
#295 = DIRECTION ( 'NONE',  ( 0.0000000000000000000, 0.0000000000000000000, -1.000000000000000000 ) ) ;
#296 = EDGE_CURVE ( 'NONE', #45, #48, #172, .T. ) ;
#297 = ORIENTED_EDGE ( 'NONE', *, *, #164, .F. ) ;
#298 = CIRCLE ( 'NONE', #280, 0.1724999999999995981 ) ;
#299 = AXIS2_PLACEMENT_3D ( 'NONE', #42, #202, #140 ) ;
ENDSEC;
END-ISO-10303-21;
