ISO-10303-21;
HEADER;
FILE_DESCRIPTION (( 'STEP AP214' ),
    '1' );
FILE_NAME ('Micro_BEMM-100-2X.STEP',
    '2021-09-03T13:31:58',
    ( '' ),
    ( '' ),
    'SwSTEP 2.0',
    'SolidWorks 2020',
    '' );
FILE_SCHEMA (( 'AUTOMOTIVE_DESIGN' ));
ENDSEC;

DATA;
#1 = CARTESIAN_POINT ( 'NONE',  ( 0.0000000000000000000, 0.0000000000000000000, 2.834646000000000665 ) ) ;
#2 = EDGE_CURVE ( 'NONE', #266, #129, #237, .T. ) ;
#3 = DIRECTION ( 'NONE',  ( -1.000000000000000000, 0.0000000000000000000, 0.0000000000000000000 ) ) ;
#4 = CARTESIAN_POINT ( 'NONE',  ( 0.0000000000000000000, 0.0000000000000000000, 2.834646000000000665 ) ) ;
#5 = ADVANCED_FACE ( 'NONE', ( #282 ), #52, .T. ) ;
#6 = VECTOR ( 'NONE', #97, 39.37007874015748143 ) ;
#7 = LINE ( 'NONE', #149, #6 ) ;
#8 =( LENGTH_UNIT ( ) NAMED_UNIT ( * ) SI_UNIT ( $, .METRE. ) );
#9 = ORIENTED_EDGE ( 'NONE', *, *, #317, .T. ) ;
#10 = CARTESIAN_POINT ( 'NONE',  ( 0.0000000000000000000, 0.0000000000000000000, 0.0000000000000000000 ) ) ;
#11 = ORIENTED_EDGE ( 'NONE', *, *, #192, .T. ) ;
#12 = CIRCLE ( 'NONE', #221, 0.1818505000000002481 ) ;
#13 = APPLICATION_CONTEXT ( 'automotive_design' ) ;
#14 = ORIENTED_EDGE ( 'NONE', *, *, #142, .F. ) ;
#15 = DIRECTION ( 'NONE',  ( 0.0000000000000000000, 0.0000000000000000000, -1.000000000000000000 ) ) ;
#16 = ORIENTED_EDGE ( 'NONE', *, *, #107, .F. ) ;
#17 = ORIENTED_EDGE ( 'NONE', *, *, #2, .F. ) ;
#18 = ADVANCED_FACE ( 'NONE', ( #259 ), #112, .T. ) ;
#19 = CYLINDRICAL_SURFACE ( 'NONE', #144, 0.1968504999999999838 ) ;
#20 = DIRECTION ( 'NONE',  ( -1.000000000000000000, 0.0000000000000000000, 1.224646799147353207E-16 ) ) ;
#21 = DIRECTION ( 'NONE',  ( -1.224646799147353207E-16, -0.0000000000000000000, -1.000000000000000000 ) ) ;
#22 = CARTESIAN_POINT ( 'NONE',  ( 1.205361061354380629E-16, 0.0000000000000000000, 0.9842519999999999047 ) ) ;
#23 = AXIS2_PLACEMENT_3D ( 'NONE', #131, #55, #284 ) ;
#24 = MANIFOLD_SOLID_BREP ( 'Fillet1', #141 ) ;
#25 = DIRECTION ( 'NONE',  ( -0.0000000000000000000, -0.0000000000000000000, -1.000000000000000000 ) ) ;
#26 = PRODUCT_DEFINITION ( 'UNKNOWN', '', #240, #139 ) ;
#27 = DIRECTION ( 'NONE',  ( 0.0000000000000000000, 1.000000000000000000, 0.0000000000000000000 ) ) ;
#28 = AXIS2_PLACEMENT_3D ( 'NONE', #124, #30, #3 ) ;
#29 = DIRECTION ( 'NONE',  ( -1.224646799147353207E-16, -0.0000000000000000000, -1.000000000000000000 ) ) ;
#30 = DIRECTION ( 'NONE',  ( -1.224646799147353207E-16, -0.0000000000000000000, -1.000000000000000000 ) ) ;
#31 = ORIENTED_EDGE ( 'NONE', *, *, #317, .F. ) ;
#32 = EDGE_CURVE ( 'NONE', #73, #110, #128, .T. ) ;
#33 = FACE_OUTER_BOUND ( 'NONE', #265, .T. ) ;
#34 = SHAPE_DEFINITION_REPRESENTATION ( #316, #101 ) ;
#35 = ORIENTED_EDGE ( 'NONE', *, *, #32, .F. ) ;
#36 =( NAMED_UNIT ( * ) PLANE_ANGLE_UNIT ( ) SI_UNIT ( $, .RADIAN. ) );
#37 = ORIENTED_EDGE ( 'NONE', *, *, #311, .F. ) ;
#38 = EDGE_LOOP ( 'NONE', ( #76, #313, #59, #205 ) ) ;
#39 = PRODUCT ( 'Micro_BEMM-100-2X', 'Micro_BEMM-100-2X', '', ( #308 ) ) ;
#40 = ADVANCED_FACE ( 'NONE', ( #243 ), #137, .T. ) ;
#41 = AXIS2_PLACEMENT_3D ( 'NONE', #96, #71, #176 ) ;
#42 = ADVANCED_FACE ( 'NONE', ( #294 ), #233, .T. ) ;
#43 = DIRECTION ( 'NONE',  ( -0.0000000000000000000, -0.0000000000000000000, -1.000000000000000000 ) ) ;
#44 = DIRECTION ( 'NONE',  ( 1.000000000000000000, 0.0000000000000000000, 0.0000000000000000000 ) ) ;
#45 = AXIS2_PLACEMENT_3D ( 'NONE', #118, #168, #87 ) ;
#46 = CARTESIAN_POINT ( 'NONE',  ( 0.0000000000000000000, 0.0000000000000000000, 2.819646000000000097 ) ) ;
#47 = CARTESIAN_POINT ( 'NONE',  ( 0.0000000000000000000, 0.0000000000000000000, 2.834646000000000665 ) ) ;
#48 = LINE ( 'NONE', #274, #271 ) ;
#49 = COLOUR_RGB ( '',0.7921568627450980005, 0.8196078431372548767, 0.9333333333333333481 ) ;
#50 = FACE_OUTER_BOUND ( 'NONE', #156, .T. ) ;
#51 = DIRECTION ( 'NONE',  ( -1.224646799147353207E-16, -0.0000000000000000000, -1.000000000000000000 ) ) ;
#52 = CONICAL_SURFACE ( 'NONE', #74, 0.1818505000000002481, 0.7853981633974312926 ) ;
#53 = EDGE_LOOP ( 'NONE', ( #132, #209, #103, #17 ) ) ;
#54 = EDGE_LOOP ( 'NONE', ( #254, #310, #56, #314 ) ) ;
#55 = DIRECTION ( 'NONE',  ( 1.224646799147353207E-16, 0.0000000000000000000, 1.000000000000000000 ) ) ;
#56 = ORIENTED_EDGE ( 'NONE', *, *, #287, .F. ) ;
#57 = MECHANICAL_DESIGN_GEOMETRIC_PRESENTATION_REPRESENTATION (  '', ( #275 ), #88 ) ;
#58 = ORIENTED_EDGE ( 'NONE', *, *, #276, .T. ) ;
#59 = ORIENTED_EDGE ( 'NONE', *, *, #78, .T. ) ;
#60 = CARTESIAN_POINT ( 'NONE',  ( 1.205361061354380629E-16, 0.0000000000000000000, 0.9842519999999999047 ) ) ;
#61 = AXIS2_PLACEMENT_3D ( 'NONE', #216, #62, #167 ) ;
#62 = DIRECTION ( 'NONE',  ( 0.0000000000000000000, 0.0000000000000000000, 1.000000000000000000 ) ) ;
#63 = DIRECTION ( 'NONE',  ( -1.224646799147353207E-16, -0.0000000000000000000, -1.000000000000000000 ) ) ;
#64 = APPLICATION_CONTEXT ( 'automotive_design' ) ;
#65 = FACE_OUTER_BOUND ( 'NONE', #38, .T. ) ;
#66 = EDGE_CURVE ( 'NONE', #266, #98, #189, .T. ) ;
#67 = CARTESIAN_POINT ( 'NONE',  ( 1.206728250503578783E-16, 0.0000000000000000000, 0.9853683946618323475 ) ) ;
#68 = CARTESIAN_POINT ( 'NONE',  ( 2.408312624008205170E-17, 0.0000000000000000000, 0.1966536494999999996 ) ) ;
#69 = CARTESIAN_POINT ( 'NONE',  ( 0.0000000000000000000, 0.0000000000000000000, 2.834646000000000665 ) ) ;
#70 = ORIENTED_EDGE ( 'NONE', *, *, #86, .T. ) ;
#71 = DIRECTION ( 'NONE',  ( -1.224646799147353207E-16, -0.0000000000000000000, -1.000000000000000000 ) ) ;
#72 = FACE_OUTER_BOUND ( 'NONE', #290, .T. ) ;
#73 = VERTEX_POINT ( 'NONE', #318 ) ;
#74 = AXIS2_PLACEMENT_3D ( 'NONE', #155, #153, #232 ) ;
#75 =( LENGTH_UNIT ( ) NAMED_UNIT ( * ) SI_UNIT ( $, .METRE. ) );
#76 = ORIENTED_EDGE ( 'NONE', *, *, #281, .F. ) ;
#77 = ORIENTED_EDGE ( 'NONE', *, *, #2, .T. ) ;
#78 = EDGE_CURVE ( 'NONE', #261, #203, #134, .T. ) ;
#79 = ORIENTED_EDGE ( 'NONE', *, *, #278, .T. ) ;
#80 = AXIS2_PLACEMENT_3D ( 'NONE', #47, #119, #172 ) ;
#81 = ORIENTED_EDGE ( 'NONE', *, *, #250, .F. ) ;
#82 = FACE_OUTER_BOUND ( 'NONE', #54, .T. ) ;
#83 = UNCERTAINTY_MEASURE_WITH_UNIT (LENGTH_MEASURE( 1.000000000000000082E-05 ), #208, 'distance_accuracy_value', 'NONE');
#84 =( NAMED_UNIT ( * ) PLANE_ANGLE_UNIT ( ) SI_UNIT ( $, .RADIAN. ) );
#85 = ADVANCED_FACE ( 'NONE', ( #82 ), #113, .T. ) ;
#86 = EDGE_CURVE ( 'NONE', #73, #108, #320, .T. ) ;
#87 = DIRECTION ( 'NONE',  ( -1.000000000000000000, 0.0000000000000000000, 0.0000000000000000000 ) ) ;
#88 =( GEOMETRIC_REPRESENTATION_CONTEXT ( 3 ) GLOBAL_UNCERTAINTY_ASSIGNED_CONTEXT ( ( #242 ) ) GLOBAL_UNIT_ASSIGNED_CONTEXT ( ( #188, #84, #90 ) ) REPRESENTATION_CONTEXT ( 'NONE', 'WORKASPACE' ) );
#89 = CIRCLE ( 'NONE', #23, 0.1966536495000000273 ) ;
#90 =( NAMED_UNIT ( * ) SI_UNIT ( $, .STERADIAN. ) SOLID_ANGLE_UNIT ( ) );
#91 = CARTESIAN_POINT ( 'NONE',  ( -0.1818505000000002481, 0.0000000000000000000, 2.834646000000000665 ) ) ;
#92 = DIRECTION ( 'NONE',  ( -1.000000000000000000, 0.0000000000000000000, 1.736458998224860523E-16 ) ) ;
#93 = ADVANCED_FACE ( 'NONE', ( #244 ), #239, .T. ) ;
#94 = AXIS2_PLACEMENT_3D ( 'NONE', #46, #277, #223 ) ;
#95 = DIRECTION ( 'NONE',  ( 1.000000000000000000, 0.0000000000000000000, 0.0000000000000000000 ) ) ;
#96 = CARTESIAN_POINT ( 'NONE',  ( 1.205361061354380629E-16, 0.0000000000000000000, 0.9842519999999999047 ) ) ;
#97 = DIRECTION ( 'NONE',  ( -1.224646799147353207E-16, -0.0000000000000000000, -1.000000000000000000 ) ) ;
#98 = VERTEX_POINT ( 'NONE', #246 ) ;
#99 = VECTOR ( 'NONE', #63, 39.37007874015748143 ) ;
#100 = DIRECTION ( 'NONE',  ( 1.000000000000000000, 0.0000000000000000000, 0.0000000000000000000 ) ) ;
#101 = ADVANCED_BREP_SHAPE_REPRESENTATION ( 'Micro_BEMM-100-2X', ( #24, #152 ), #268 ) ;
#102 = SURFACE_STYLE_USAGE ( .BOTH. , #260 ) ;
#103 = ORIENTED_EDGE ( 'NONE', *, *, #287, .T. ) ;
#104 = ORIENTED_EDGE ( 'NONE', *, *, #135, .F. ) ;
#105 = APPLICATION_PROTOCOL_DEFINITION ( 'draft international standard', 'automotive_design', 1998, #13 ) ;
#106 = ORIENTED_EDGE ( 'NONE', *, *, #86, .F. ) ;
#107 = EDGE_CURVE ( 'NONE', #261, #110, #283, .T. ) ;
#108 = VERTEX_POINT ( 'NONE', #91 ) ;
#109 =( NAMED_UNIT ( * ) SI_UNIT ( $, .STERADIAN. ) SOLID_ANGLE_UNIT ( ) );
#110 = VERTEX_POINT ( 'NONE', #297 ) ;
#111 = CIRCLE ( 'NONE', #219, 0.1966536494999999996 ) ;
#112 = SPHERICAL_SURFACE ( 'NONE', #291, 0.1966536494999999996 ) ;
#113 = CYLINDRICAL_SURFACE ( 'NONE', #45, 0.1968504999999999838 ) ;
#114 = UNCERTAINTY_MEASURE_WITH_UNIT (LENGTH_MEASURE( 1.000000000000000082E-05 ), #236, 'distance_accuracy_value', 'NONE');
#115 = DIRECTION ( 'NONE',  ( 1.000000000000000000, 0.0000000000000000000, 0.0000000000000000000 ) ) ;
#116 = CARTESIAN_POINT ( 'NONE',  ( 0.1966536495000000273, 2.408312624008205478E-17, -2.408312624008205478E-17 ) ) ;
#117 = AXIS2_PLACEMENT_3D ( 'NONE', #194, #220, #92 ) ;
#118 = CARTESIAN_POINT ( 'NONE',  ( 0.0000000000000000000, 0.0000000000000000000, 2.834646000000000665 ) ) ;
#119 = DIRECTION ( 'NONE',  ( 0.0000000000000000000, 0.0000000000000000000, 1.000000000000000000 ) ) ;
#120 = SPHERICAL_SURFACE ( 'NONE', #227, 0.1966536494999999996 ) ;
#121 = AXIS2_PLACEMENT_3D ( 'NONE', #296, #21, #20 ) ;
#122 = CARTESIAN_POINT ( 'NONE',  ( 0.1968505000000001226, 2.410723347355561878E-17, 0.9853683946618323475 ) ) ;
#123 = DIRECTION ( 'NONE',  ( -1.000000000000000000, 0.0000000000000000000, 0.0000000000000000000 ) ) ;
#124 = CARTESIAN_POINT ( 'NONE',  ( 1.205361061354380629E-16, 0.0000000000000000000, 0.9842519999999999047 ) ) ;
#125 = ADVANCED_FACE ( 'NONE', ( #65 ), #19, .T. ) ;
#126 =( NAMED_UNIT ( * ) PLANE_ANGLE_UNIT ( ) SI_UNIT ( $, .RADIAN. ) );
#127 = ORIENTED_EDGE ( 'NONE', *, *, #214, .T. ) ;
#128 = LINE ( 'NONE', #186, #245 ) ;
#129 = VERTEX_POINT ( 'NONE', #122 ) ;
#130 = AXIS2_PLACEMENT_3D ( 'NONE', #60, #140, #115 ) ;
#131 = CARTESIAN_POINT ( 'NONE',  ( 2.408312624008205170E-17, 0.0000000000000000000, 0.1966536494999999996 ) ) ;
#132 = ORIENTED_EDGE ( 'NONE', *, *, #217, .F. ) ;
#133 = ORIENTED_EDGE ( 'NONE', *, *, #217, .T. ) ;
#134 = LINE ( 'NONE', #211, #309 ) ;
#135 = EDGE_CURVE ( 'NONE', #185, #183, #7, .T. ) ;
#136 = AXIS2_PLACEMENT_3D ( 'NONE', #1, #305, #123 ) ;
#137 = CYLINDRICAL_SURFACE ( 'NONE', #121, 0.1966536495000000273 ) ;
#138 = DIRECTION ( 'NONE',  ( 0.7071067811865354713, 8.659560562354783714E-17, -0.7071067811865594521 ) ) ;
#139 = PRODUCT_DEFINITION_CONTEXT ( 'detailed design', #13, 'design' ) ;
#140 = DIRECTION ( 'NONE',  ( 1.224646799147353207E-16, 0.0000000000000000000, 1.000000000000000000 ) ) ;
#141 = CLOSED_SHELL ( 'NONE', ( #18, #40, #42, #162, #85, #125, #280, #5, #93, #269, #224 ) ) ;
#142 = EDGE_CURVE ( 'NONE', #110, #261, #251, .T. ) ;
#143 = CARTESIAN_POINT ( 'NONE',  ( 0.0000000000000000000, 0.0000000000000000000, 2.819646000000000097 ) ) ;
#144 = AXIS2_PLACEMENT_3D ( 'NONE', #4, #25, #249 ) ;
#145 = LINE ( 'NONE', #225, #325 ) ;
#146 = DIRECTION ( 'NONE',  ( -0.0000000000000000000, -0.0000000000000000000, -1.000000000000000000 ) ) ;
#147 = CIRCLE ( 'NONE', #117, 0.1966536495000000273 ) ;
#148 = COLOUR_RGB ( '',0.7921568627450980005, 0.8196078431372548767, 0.9333333333333333481 ) ;
#149 = CARTESIAN_POINT ( 'NONE',  ( -0.1966536495000000273, 0.0000000000000000000, 2.408312624008205478E-17 ) ) ;
#150 = CARTESIAN_POINT ( 'NONE',  ( 0.1966536495000001661, 0.0000000000000000000, 0.9842519999999999047 ) ) ;
#151 = AXIS2_PLACEMENT_3D ( 'NONE', #252, #29, #286 ) ;
#152 = AXIS2_PLACEMENT_3D ( 'NONE', #10, #154, #202 ) ;
#153 = DIRECTION ( 'NONE',  ( 0.0000000000000000000, 0.0000000000000000000, -1.000000000000000000 ) ) ;
#154 = DIRECTION ( 'NONE',  ( 0.0000000000000000000, 0.0000000000000000000, 1.000000000000000000 ) ) ;
#155 = CARTESIAN_POINT ( 'NONE',  ( 0.0000000000000000000, 0.0000000000000000000, 2.834646000000000665 ) ) ;
#156 = EDGE_LOOP ( 'NONE', ( #106, #302, #16, #184 ) ) ;
#157 = AXIS2_PLACEMENT_3D ( 'NONE', #218, #190, #226 ) ;
#158 = PRESENTATION_LAYER_ASSIGNMENT (  '', '', ( #292 ) ) ;
#159 = PRESENTATION_STYLE_ASSIGNMENT (( #102 ) ) ;
#160 = ORIENTED_EDGE ( 'NONE', *, *, #258, .T. ) ;
#161 = EDGE_LOOP ( 'NONE', ( #230, #207, #77, #160 ) ) ;
#162 = ADVANCED_FACE ( 'NONE', ( #50 ), #298, .T. ) ;
#163 =( LENGTH_UNIT ( ) NAMED_UNIT ( * ) SI_UNIT ( $, .METRE. ) );
#164 = DIMENSIONAL_EXPONENTS ( 1.000000000000000000, 0.0000000000000000000, 0.0000000000000000000, 0.0000000000000000000, 0.0000000000000000000, 0.0000000000000000000, 0.0000000000000000000 ) ;
#165 = VECTOR ( 'NONE', #304, 39.37007874015748143 ) ;
#166 = SURFACE_SIDE_STYLE ('',( #267 ) ) ;
#167 = DIRECTION ( 'NONE',  ( 1.000000000000000000, 0.0000000000000000000, 0.0000000000000000000 ) ) ;
#168 = DIRECTION ( 'NONE',  ( -0.0000000000000000000, -0.0000000000000000000, -1.000000000000000000 ) ) ;
#169 = CIRCLE ( 'NONE', #151, 0.1968504999999999838 ) ;
#170 = DIRECTION ( 'NONE',  ( 1.224646799147353207E-16, 1.000000000000000000, -0.0000000000000000000 ) ) ;
#171 = PRODUCT_RELATED_PRODUCT_CATEGORY ( 'part', '', ( #39 ) ) ;
#172 = DIRECTION ( 'NONE',  ( 1.000000000000000000, 0.0000000000000000000, -0.0000000000000000000 ) ) ;
#173 = CARTESIAN_POINT ( 'NONE',  ( -0.1966536494999999163, 2.409517985681882908E-17, 0.9842519999999999047 ) ) ;
#174 = EDGE_LOOP ( 'NONE', ( #35, #262, #11, #14 ) ) ;
#175 = AXIS2_PLACEMENT_3D ( 'NONE', #22, #321, #44 ) ;
#176 = DIRECTION ( 'NONE',  ( -1.000000000000000000, 0.0000000000000000000, 0.0000000000000000000 ) ) ;
#177 = CARTESIAN_POINT ( 'NONE',  ( 3.612468936012307139E-17, 0.0000000000000000000, 0.0000000000000000000 ) ) ;
#178 = EDGE_LOOP ( 'NONE', ( #37, #58, #81 ) ) ;
#179 = CIRCLE ( 'NONE', #28, 0.1966536495000000273 ) ;
#180 =( GEOMETRIC_REPRESENTATION_CONTEXT ( 3 ) GLOBAL_UNCERTAINTY_ASSIGNED_CONTEXT ( ( #83 ) ) GLOBAL_UNIT_ASSIGNED_CONTEXT ( ( #208, #36, #109 ) ) REPRESENTATION_CONTEXT ( 'NONE', 'WORKASPACE' ) );
#181 = ORIENTED_EDGE ( 'NONE', *, *, #66, .F. ) ;
#182 = SURFACE_STYLE_FILL_AREA ( #289 ) ;
#183 = VERTEX_POINT ( 'NONE', #323 ) ;
#184 = ORIENTED_EDGE ( 'NONE', *, *, #192, .F. ) ;
#185 = VERTEX_POINT ( 'NONE', #173 ) ;
#186 = CARTESIAN_POINT ( 'NONE',  ( 0.1818505000000002481, 2.227026327483460228E-17, 2.834646000000000665 ) ) ;
#187 = CARTESIAN_POINT ( 'NONE',  ( 2.408312624008205170E-17, 0.0000000000000000000, 0.1966536494999999996 ) ) ;
#188 =( CONVERSION_BASED_UNIT ( 'INCH', #215 ) LENGTH_UNIT ( ) NAMED_UNIT ( #164 ) );
#189 = LINE ( 'NONE', #116, #99 ) ;
#190 = DIRECTION ( 'NONE',  ( -1.224646799147353207E-16, -0.0000000000000000000, -1.000000000000000000 ) ) ;
#191 = PRESENTATION_LAYER_ASSIGNMENT (  '', '', ( #275 ) ) ;
#192 = EDGE_CURVE ( 'NONE', #108, #261, #145, .T. ) ;
#193 = LINE ( 'NONE', #300, #165 ) ;
#194 = CARTESIAN_POINT ( 'NONE',  ( 2.408312624008205170E-17, 0.0000000000000000000, 0.1966536494999999996 ) ) ;
#195 = ORIENTED_EDGE ( 'NONE', *, *, #311, .T. ) ;
#196 = DIRECTION ( 'NONE',  ( -0.7071067811865354713, 0.0000000000000000000, -0.7071067811865594521 ) ) ;
#197 = CIRCLE ( 'NONE', #257, 0.1966536494999999996 ) ;
#198 = MECHANICAL_DESIGN_GEOMETRIC_PRESENTATION_REPRESENTATION (  '', ( #292 ), #180 ) ;
#199 = PLANE ( 'NONE',  #80 ) ;
#200 = APPLICATION_PROTOCOL_DEFINITION ( 'draft international standard', 'automotive_design', 1998, #64 ) ;
#201 = CARTESIAN_POINT ( 'NONE',  ( 0.1966536495000001661, 0.0000000000000000000, 0.9842519999999999047 ) ) ;
#202 = DIRECTION ( 'NONE',  ( 1.000000000000000000, 0.0000000000000000000, 0.0000000000000000000 ) ) ;
#203 = VERTEX_POINT ( 'NONE', #253 ) ;
#204 = EDGE_CURVE ( 'NONE', #185, #203, #193, .T. ) ;
#205 = ORIENTED_EDGE ( 'NONE', *, *, #258, .F. ) ;
#206 =( NAMED_UNIT ( * ) SI_UNIT ( $, .STERADIAN. ) SOLID_ANGLE_UNIT ( ) );
#207 = ORIENTED_EDGE ( 'NONE', *, *, #214, .F. ) ;
#208 =( CONVERSION_BASED_UNIT ( 'INCH', #306 ) LENGTH_UNIT ( ) NAMED_UNIT ( #248 ) );
#209 = ORIENTED_EDGE ( 'NONE', *, *, #204, .T. ) ;
#210 = AXIS2_PLACEMENT_3D ( 'NONE', #143, #322, #238 ) ;
#211 = CARTESIAN_POINT ( 'NONE',  ( -0.1968504999999999838, 0.0000000000000000000, 2.834646000000000665 ) ) ;
#212 = PRESENTATION_STYLE_ASSIGNMENT (( #213 ) ) ;
#213 = SURFACE_STYLE_USAGE ( .BOTH. , #166 ) ;
#214 = EDGE_CURVE ( 'NONE', #266, #185, #179, .T. ) ;
#215 = LENGTH_MEASURE_WITH_UNIT ( LENGTH_MEASURE( 0.02539999999999999897 ), #163 );
#216 = CARTESIAN_POINT ( 'NONE',  ( 0.0000000000000000000, 0.0000000000000000000, 2.834646000000000665 ) ) ;
#217 = EDGE_CURVE ( 'NONE', #185, #266, #263, .T. ) ;
#218 = CARTESIAN_POINT ( 'NONE',  ( 0.0000000000000000000, 0.0000000000000000000, 0.0000000000000000000 ) ) ;
#219 = AXIS2_PLACEMENT_3D ( 'NONE', #264, #256, #15 ) ;
#220 = DIRECTION ( 'NONE',  ( 1.224646799147353207E-16, 0.0000000000000000000, 1.000000000000000000 ) ) ;
#221 = AXIS2_PLACEMENT_3D ( 'NONE', #69, #247, #100 ) ;
#222 = ORIENTED_EDGE ( 'NONE', *, *, #135, .T. ) ;
#223 = DIRECTION ( 'NONE',  ( 1.000000000000000000, 0.0000000000000000000, 0.0000000000000000000 ) ) ;
#224 = ADVANCED_FACE ( 'NONE', ( #255 ), #120, .T. ) ;
#225 = CARTESIAN_POINT ( 'NONE',  ( -0.1818505000000002481, 0.0000000000000000000, 2.834646000000000665 ) ) ;
#226 = DIRECTION ( 'NONE',  ( -1.000000000000000000, 0.0000000000000000000, 1.224646799147353207E-16 ) ) ;
#227 = AXIS2_PLACEMENT_3D ( 'NONE', #68, #27, #279 ) ;
#228 = EDGE_LOOP ( 'NONE', ( #133, #288, #235, #104 ) ) ;
#229 = FILL_AREA_STYLE_COLOUR ( '', #148 ) ;
#230 = ORIENTED_EDGE ( 'NONE', *, *, #204, .F. ) ;
#231 = VECTOR ( 'NONE', #307, 39.37007874015748143 ) ;
#232 = DIRECTION ( 'NONE',  ( -1.000000000000000000, 0.0000000000000000000, 0.0000000000000000000 ) ) ;
#233 = CONICAL_SURFACE ( 'NONE', #130, 0.1966536495000000273, 0.1745329251994339470 ) ;
#234 = LENGTH_MEASURE_WITH_UNIT ( LENGTH_MEASURE( 0.02539999999999999897 ), #8 );
#235 = ORIENTED_EDGE ( 'NONE', *, *, #250, .T. ) ;
#236 =( CONVERSION_BASED_UNIT ( 'INCH', #234 ) LENGTH_UNIT ( ) NAMED_UNIT ( #324 ) );
#237 = LINE ( 'NONE', #201, #231 ) ;
#238 = DIRECTION ( 'NONE',  ( 1.000000000000000000, 0.0000000000000000000, 0.0000000000000000000 ) ) ;
#239 = CONICAL_SURFACE ( 'NONE', #175, 0.1966536495000000273, 0.1745329251994339470 ) ;
#240 = PRODUCT_DEFINITION_FORMATION_WITH_SPECIFIED_SOURCE ( 'ANY', '', #39, .NOT_KNOWN. ) ;
#241 = FILL_AREA_STYLE ('',( #319 ) ) ;
#242 = UNCERTAINTY_MEASURE_WITH_UNIT (LENGTH_MEASURE( 1.000000000000000082E-05 ), #188, 'distance_accuracy_value', 'NONE');
#243 = FACE_OUTER_BOUND ( 'NONE', #228, .T. ) ;
#244 = FACE_OUTER_BOUND ( 'NONE', #161, .T. ) ;
#245 = VECTOR ( 'NONE', #138, 39.37007874015748854 ) ;
#246 = CARTESIAN_POINT ( 'NONE',  ( 0.1966536495000000828, 2.408312624008205478E-17, 0.1966536494999999718 ) ) ;
#247 = DIRECTION ( 'NONE',  ( 0.0000000000000000000, 0.0000000000000000000, 1.000000000000000000 ) ) ;
#248 = DIMENSIONAL_EXPONENTS ( 1.000000000000000000, 0.0000000000000000000, 0.0000000000000000000, 0.0000000000000000000, 0.0000000000000000000, 0.0000000000000000000, 0.0000000000000000000 ) ;
#249 = DIRECTION ( 'NONE',  ( -1.000000000000000000, 0.0000000000000000000, 0.0000000000000000000 ) ) ;
#250 = EDGE_CURVE ( 'NONE', #98, #183, #147, .T. ) ;
#251 = CIRCLE ( 'NONE', #94, 0.1968504999999999838 ) ;
#252 = CARTESIAN_POINT ( 'NONE',  ( 1.206728250503578783E-16, 0.0000000000000000000, 0.9853683946618323475 ) ) ;
#253 = CARTESIAN_POINT ( 'NONE',  ( -0.1968504999999998450, 0.0000000000000000000, 0.9853683946618323475 ) ) ;
#254 = ORIENTED_EDGE ( 'NONE', *, *, #107, .T. ) ;
#255 = FACE_OUTER_BOUND ( 'NONE', #312, .T. ) ;
#256 = DIRECTION ( 'NONE',  ( 0.0000000000000000000, -1.000000000000000000, 0.0000000000000000000 ) ) ;
#257 = AXIS2_PLACEMENT_3D ( 'NONE', #299, #170, #273 ) ;
#258 = EDGE_CURVE ( 'NONE', #129, #203, #303, .T. ) ;
#259 = FACE_OUTER_BOUND ( 'NONE', #178, .T. ) ;
#260 = SURFACE_SIDE_STYLE ('',( #182 ) ) ;
#261 = VERTEX_POINT ( 'NONE', #301 ) ;
#262 = ORIENTED_EDGE ( 'NONE', *, *, #278, .F. ) ;
#263 = CIRCLE ( 'NONE', #41, 0.1966536495000000273 ) ;
#264 = CARTESIAN_POINT ( 'NONE',  ( 2.408312624008205170E-17, 0.0000000000000000000, 0.1966536494999999996 ) ) ;
#265 = EDGE_LOOP ( 'NONE', ( #181, #127, #222, #9 ) ) ;
#266 = VERTEX_POINT ( 'NONE', #150 ) ;
#267 = SURFACE_STYLE_FILL_AREA ( #241 ) ;
#268 =( GEOMETRIC_REPRESENTATION_CONTEXT ( 3 ) GLOBAL_UNCERTAINTY_ASSIGNED_CONTEXT ( ( #114 ) ) GLOBAL_UNIT_ASSIGNED_CONTEXT ( ( #236, #126, #206 ) ) REPRESENTATION_CONTEXT ( 'NONE', 'WORKASPACE' ) );
#269 = ADVANCED_FACE ( 'NONE', ( #33 ), #272, .T. ) ;
#270 = DIRECTION ( 'NONE',  ( 1.000000000000000000, 0.0000000000000000000, 0.0000000000000000000 ) ) ;
#271 = VECTOR ( 'NONE', #146, 39.37007874015748143 ) ;
#272 = CYLINDRICAL_SURFACE ( 'NONE', #157, 0.1966536495000000273 ) ;
#273 = DIRECTION ( 'NONE',  ( -1.000000000000000000, 1.224646799147353207E-16, 0.0000000000000000000 ) ) ;
#274 = CARTESIAN_POINT ( 'NONE',  ( 0.1968504999999999838, 2.410723347355560646E-17, 2.834646000000000665 ) ) ;
#275 = STYLED_ITEM ( 'NONE', ( #212 ), #24 ) ;
#276 = EDGE_CURVE ( 'NONE', #293, #183, #197, .T. ) ;
#277 = DIRECTION ( 'NONE',  ( 0.0000000000000000000, 0.0000000000000000000, -1.000000000000000000 ) ) ;
#278 = EDGE_CURVE ( 'NONE', #108, #73, #12, .T. ) ;
#279 = DIRECTION ( 'NONE',  ( 1.000000000000000000, 0.0000000000000000000, 0.0000000000000000000 ) ) ;
#280 = ADVANCED_FACE ( 'NONE', ( #72 ), #199, .T. ) ;
#281 = EDGE_CURVE ( 'NONE', #110, #129, #48, .T. ) ;
#282 = FACE_OUTER_BOUND ( 'NONE', #174, .T. ) ;
#283 = CIRCLE ( 'NONE', #210, 0.1968504999999999838 ) ;
#284 = DIRECTION ( 'NONE',  ( -1.000000000000000000, 0.0000000000000000000, 1.736458998224860523E-16 ) ) ;
#285 = ORIENTED_EDGE ( 'NONE', *, *, #276, .F. ) ;
#286 = DIRECTION ( 'NONE',  ( 1.000000000000000000, 0.0000000000000000000, 0.0000000000000000000 ) ) ;
#287 = EDGE_CURVE ( 'NONE', #203, #129, #169, .T. ) ;
#288 = ORIENTED_EDGE ( 'NONE', *, *, #66, .T. ) ;
#289 = FILL_AREA_STYLE ('',( #229 ) ) ;
#290 = EDGE_LOOP ( 'NONE', ( #79, #70 ) ) ;
#291 = AXIS2_PLACEMENT_3D ( 'NONE', #187, #295, #270 ) ;
#292 = STYLED_ITEM ( 'NONE', ( #159 ), #101 ) ;
#293 = VERTEX_POINT ( 'NONE', #177 ) ;
#294 = FACE_OUTER_BOUND ( 'NONE', #53, .T. ) ;
#295 = DIRECTION ( 'NONE',  ( 0.0000000000000000000, 1.000000000000000000, 0.0000000000000000000 ) ) ;
#296 = CARTESIAN_POINT ( 'NONE',  ( 0.0000000000000000000, 0.0000000000000000000, 0.0000000000000000000 ) ) ;
#297 = CARTESIAN_POINT ( 'NONE',  ( 0.1968504999999999838, 2.410723347355560646E-17, 2.819646000000000097 ) ) ;
#298 = CONICAL_SURFACE ( 'NONE', #136, 0.1818505000000002481, 0.7853981633974312926 ) ;
#299 = CARTESIAN_POINT ( 'NONE',  ( 2.408312624008205170E-17, 0.0000000000000000000, 0.1966536494999999996 ) ) ;
#300 = CARTESIAN_POINT ( 'NONE',  ( -0.1966536494999999163, 2.408312624008205478E-17, 0.9842519999999999047 ) ) ;
#301 = CARTESIAN_POINT ( 'NONE',  ( -0.1968504999999999838, 0.0000000000000000000, 2.819646000000000097 ) ) ;
#302 = ORIENTED_EDGE ( 'NONE', *, *, #32, .T. ) ;
#303 = CIRCLE ( 'NONE', #315, 0.1968504999999999838 ) ;
#304 = DIRECTION ( 'NONE',  ( -0.1736481776669312194, 2.126576849575783625E-17, 0.9848077530122077983 ) ) ;
#305 = DIRECTION ( 'NONE',  ( 0.0000000000000000000, 0.0000000000000000000, -1.000000000000000000 ) ) ;
#306 = LENGTH_MEASURE_WITH_UNIT ( LENGTH_MEASURE( 0.02539999999999999897 ), #75 );
#307 = DIRECTION ( 'NONE',  ( 0.1736481776669314414, 0.0000000000000000000, 0.9848077530122077983 ) ) ;
#308 = PRODUCT_CONTEXT ( 'NONE', #64, 'mechanical' ) ;
#309 = VECTOR ( 'NONE', #43, 39.37007874015748143 ) ;
#310 = ORIENTED_EDGE ( 'NONE', *, *, #281, .T. ) ;
#311 = EDGE_CURVE ( 'NONE', #293, #98, #111, .T. ) ;
#312 = EDGE_LOOP ( 'NONE', ( #285, #195, #31 ) ) ;
#313 = ORIENTED_EDGE ( 'NONE', *, *, #142, .T. ) ;
#314 = ORIENTED_EDGE ( 'NONE', *, *, #78, .F. ) ;
#315 = AXIS2_PLACEMENT_3D ( 'NONE', #67, #51, #95 ) ;
#316 = PRODUCT_DEFINITION_SHAPE ( 'NONE', 'NONE',  #26 ) ;
#317 = EDGE_CURVE ( 'NONE', #183, #98, #89, .T. ) ;
#318 = CARTESIAN_POINT ( 'NONE',  ( 0.1818505000000002481, 2.318874837419510283E-17, 2.834646000000000665 ) ) ;
#319 = FILL_AREA_STYLE_COLOUR ( '', #49 ) ;
#320 = CIRCLE ( 'NONE', #61, 0.1818505000000002481 ) ;
#321 = DIRECTION ( 'NONE',  ( 1.224646799147353207E-16, 0.0000000000000000000, 1.000000000000000000 ) ) ;
#322 = DIRECTION ( 'NONE',  ( 0.0000000000000000000, 0.0000000000000000000, -1.000000000000000000 ) ) ;
#323 = CARTESIAN_POINT ( 'NONE',  ( -0.1966536494999999996, 0.0000000000000000000, 0.1966536495000000273 ) ) ;
#324 = DIMENSIONAL_EXPONENTS ( 1.000000000000000000, 0.0000000000000000000, 0.0000000000000000000, 0.0000000000000000000, 0.0000000000000000000, 0.0000000000000000000, 0.0000000000000000000 ) ;
#325 = VECTOR ( 'NONE', #196, 39.37007874015748854 ) ;
ENDSEC;
END-ISO-10303-21;
