ISO-10303-21;
HEADER;
FILE_DESCRIPTION (( 'STEP AP214' ),
    '1' );
FILE_NAME ('Micro_EMS-750-4.STEP',
    '2021-09-01T18:06:37',
    ( '' ),
    ( '' ),
    'SwSTEP 2.0',
    'SolidWorks 2020',
    '' );
FILE_SCHEMA (( 'AUTOMOTIVE_DESIGN' ));
ENDSEC;

DATA;
#1 = EDGE_LOOP ( 'NONE', ( #25, #71 ) ) ;
#2 = EDGE_CURVE ( 'NONE', #247, #152, #85, .T. ) ;
#3 =( GEOMETRIC_REPRESENTATION_CONTEXT ( 3 ) GLOBAL_UNCERTAINTY_ASSIGNED_CONTEXT ( ( #178 ) ) GLOBAL_UNIT_ASSIGNED_CONTEXT ( ( #143, #161, #233 ) ) REPRESENTATION_CONTEXT ( 'NONE', 'WORKASPACE' ) );
#4 = APPLICATION_PROTOCOL_DEFINITION ( 'draft international standard', 'automotive_design', 1998, #273 ) ;
#5 = CIRCLE ( 'NONE', #77, 0.3746250000000000413 ) ;
#6 = ORIENTED_EDGE ( 'NONE', *, *, #182, .F. ) ;
#7 = CYLINDRICAL_SURFACE ( 'NONE', #175, 0.3750000000000000555 ) ;
#8 = LINE ( 'NONE', #94, #232 ) ;
#9 = DIRECTION ( 'NONE',  ( -1.224646799147353207E-16, -0.0000000000000000000, -1.000000000000000000 ) ) ;
#10 = EDGE_CURVE ( 'NONE', #203, #135, #133, .T. ) ;
#11 = MECHANICAL_DESIGN_GEOMETRIC_PRESENTATION_REPRESENTATION (  '', ( #126 ), #287 ) ;
#12 = SURFACE_STYLE_FILL_AREA ( #234 ) ;
#13 = CARTESIAN_POINT ( 'NONE',  ( 0.0000000000000000000, 0.0000000000000000000, 4.000000000000000000 ) ) ;
#14 = LINE ( 'NONE', #41, #184 ) ;
#15 = CARTESIAN_POINT ( 'NONE',  ( 5.618475085796983064E-33, 0.0000000000000000000, 4.587833071305771192E-17 ) ) ;
#16 = DIRECTION ( 'NONE',  ( -1.224646799147353207E-16, -0.0000000000000000000, -1.000000000000000000 ) ) ;
#17 = VECTOR ( 'NONE', #220, 39.37007874015748143 ) ;
#18 = LINE ( 'NONE', #124, #17 ) ;
#19 = DIRECTION ( 'NONE',  ( 1.000000000000000000, 0.0000000000000000000, 0.0000000000000000000 ) ) ;
#20 = CARTESIAN_POINT ( 'NONE',  ( 1.836970198721030181E-16, 0.0000000000000000000, 1.500000000000000222 ) ) ;
#21 = PRESENTATION_LAYER_ASSIGNMENT (  '', '', ( #286 ) ) ;
#22 =( GEOMETRIC_REPRESENTATION_CONTEXT ( 3 ) GLOBAL_UNCERTAINTY_ASSIGNED_CONTEXT ( ( #275 ) ) GLOBAL_UNIT_ASSIGNED_CONTEXT ( ( #205, #66, #227 ) ) REPRESENTATION_CONTEXT ( 'NONE', 'WORKASPACE' ) );
#23 = EDGE_LOOP ( 'NONE', ( #108, #137, #111, #177 ) ) ;
#24 = SURFACE_SIDE_STYLE ('',( #278 ) ) ;
#25 = ORIENTED_EDGE ( 'NONE', *, *, #244, .T. ) ;
#26 = EDGE_CURVE ( 'NONE', #295, #203, #39, .T. ) ;
#27 = PRODUCT ( 'Micro_EMS-750-4', 'Micro_EMS-750-4', '', ( #207 ) ) ;
#28 = ORIENTED_EDGE ( 'NONE', *, *, #80, .F. ) ;
#29 = VECTOR ( 'NONE', #86, 39.37007874015747433 ) ;
#30 = ORIENTED_EDGE ( 'NONE', *, *, #235, .T. ) ;
#31 = FACE_OUTER_BOUND ( 'NONE', #1, .T. ) ;
#32 = ADVANCED_FACE ( 'NONE', ( #238 ), #214, .T. ) ;
#33 = CARTESIAN_POINT ( 'NONE',  ( 0.3746249999999999858, 4.587833071305771192E-17, -4.587833071305771192E-17 ) ) ;
#34 = DIRECTION ( 'NONE',  ( 0.0000000000000000000, 0.0000000000000000000, 1.000000000000000000 ) ) ;
#35 = DIRECTION ( 'NONE',  ( 1.000000000000000000, 0.0000000000000000000, -0.0000000000000000000 ) ) ;
#36 = ADVANCED_FACE ( 'NONE', ( #98 ), #285, .T. ) ;
#37 = DIRECTION ( 'NONE',  ( -1.224646799147353207E-16, -0.0000000000000000000, -1.000000000000000000 ) ) ;
#38 = DIRECTION ( 'NONE',  ( 0.0000000000000000000, 0.0000000000000000000, -1.000000000000000000 ) ) ;
#39 = CIRCLE ( 'NONE', #277, 0.3746250000000000413 ) ;
#40 = CONICAL_SURFACE ( 'NONE', #168, 0.3746250000000000413, 0.1745329251994339192 ) ;
#41 = CARTESIAN_POINT ( 'NONE',  ( 0.3746250000000002633, 0.0000000000000000000, 1.500000000000000222 ) ) ;
#42 = DIRECTION ( 'NONE',  ( -0.0000000000000000000, -0.0000000000000000000, -1.000000000000000000 ) ) ;
#43 = DIRECTION ( 'NONE',  ( 0.1736481776669314137, 0.0000000000000000000, 0.9848077530122077983 ) ) ;
#44 = CONICAL_SURFACE ( 'NONE', #91, 0.3599999999999994316, 0.7853981633974415066 ) ;
#45 = VERTEX_POINT ( 'NONE', #119 ) ;
#46 = LENGTH_MEASURE_WITH_UNIT ( LENGTH_MEASURE( 0.02539999999999999897 ), #195 );
#47 = ORIENTED_EDGE ( 'NONE', *, *, #80, .T. ) ;
#48 = UNCERTAINTY_MEASURE_WITH_UNIT (LENGTH_MEASURE( 1.000000000000000082E-05 ), #180, 'distance_accuracy_value', 'NONE');
#49 = ORIENTED_EDGE ( 'NONE', *, *, #96, .F. ) ;
#50 = FILL_AREA_STYLE_COLOUR ( '', #262 ) ;
#51 = VERTEX_POINT ( 'NONE', #97 ) ;
#52 = EDGE_LOOP ( 'NONE', ( #131, #280, #30, #6 ) ) ;
#53 = DIRECTION ( 'NONE',  ( -1.224646799147353207E-16, -0.0000000000000000000, -1.000000000000000000 ) ) ;
#54 = DIRECTION ( 'NONE',  ( 1.000000000000000000, 0.0000000000000000000, 0.0000000000000000000 ) ) ;
#55 = DIMENSIONAL_EXPONENTS ( 1.000000000000000000, 0.0000000000000000000, 0.0000000000000000000, 0.0000000000000000000, 0.0000000000000000000, 0.0000000000000000000, 0.0000000000000000000 ) ;
#56 = ADVANCED_FACE ( 'NONE', ( #95 ), #7, .T. ) ;
#57 = AXIS2_PLACEMENT_3D ( 'NONE', #289, #78, #290 ) ;
#58 = DIRECTION ( 'NONE',  ( 1.000000000000000000, 0.0000000000000000000, 0.0000000000000000000 ) ) ;
#59 = EDGE_CURVE ( 'NONE', #45, #70, #150, .T. ) ;
#60 = DIRECTION ( 'NONE',  ( 1.224646799147353207E-16, 0.0000000000000000000, 1.000000000000000000 ) ) ;
#61 = APPLICATION_CONTEXT ( 'automotive_design' ) ;
#62 = CARTESIAN_POINT ( 'NONE',  ( -0.3746249999999998193, 4.587833071305771808E-17, 1.500000000000000222 ) ) ;
#63 = CARTESIAN_POINT ( 'NONE',  ( 0.0000000000000000000, 0.0000000000000000000, 0.0000000000000000000 ) ) ;
#64 = ORIENTED_EDGE ( 'NONE', *, *, #235, .F. ) ;
#65 = DIRECTION ( 'NONE',  ( -1.224646799147353207E-16, -0.0000000000000000000, -1.000000000000000000 ) ) ;
#66 =( NAMED_UNIT ( * ) PLANE_ANGLE_UNIT ( ) SI_UNIT ( $, .RADIAN. ) );
#67 = ORIENTED_EDGE ( 'NONE', *, *, #26, .T. ) ;
#68 = CIRCLE ( 'NONE', #237, 0.3750000000000000555 ) ;
#69 = LENGTH_MEASURE_WITH_UNIT ( LENGTH_MEASURE( 0.02539999999999999897 ), #271 );
#70 = VERTEX_POINT ( 'NONE', #116 ) ;
#71 = ORIENTED_EDGE ( 'NONE', *, *, #188, .T. ) ;
#72 = LENGTH_MEASURE_WITH_UNIT ( LENGTH_MEASURE( 0.02539999999999999897 ), #260 );
#73 = CIRCLE ( 'NONE', #163, 0.3746249999999999858 ) ;
#74 = DIRECTION ( 'NONE',  ( 1.000000000000000000, 0.0000000000000000000, -0.0000000000000000000 ) ) ;
#75 = CARTESIAN_POINT ( 'NONE',  ( 0.0000000000000000000, 0.0000000000000000000, 3.984999999999998987 ) ) ;
#76 = DIRECTION ( 'NONE',  ( -1.000000000000000000, 0.0000000000000000000, 0.0000000000000000000 ) ) ;
#77 = AXIS2_PLACEMENT_3D ( 'NONE', #256, #53, #139 ) ;
#78 = DIRECTION ( 'NONE',  ( -1.224646799147353207E-16, -0.0000000000000000000, -1.000000000000000000 ) ) ;
#79 = DIRECTION ( 'NONE',  ( -0.0000000000000000000, -0.0000000000000000000, -1.000000000000000000 ) ) ;
#80 = EDGE_CURVE ( 'NONE', #51, #204, #261, .T. ) ;
#81 = LINE ( 'NONE', #194, #145 ) ;
#82 = AXIS2_PLACEMENT_3D ( 'NONE', #264, #93, #35 ) ;
#83 = DIRECTION ( 'NONE',  ( 1.000000000000000000, 0.0000000000000000000, 0.0000000000000000000 ) ) ;
#84 = MANIFOLD_SOLID_BREP ( 'Cut-Revolve1', #259 ) ;
#85 = CIRCLE ( 'NONE', #245, 0.3599999999999994316 ) ;
#86 = DIRECTION ( 'NONE',  ( -0.1736481776669312194, 2.126576849575783625E-17, 0.9848077530122080203 ) ) ;
#87 = ORIENTED_EDGE ( 'NONE', *, *, #215, .F. ) ;
#88 = DIRECTION ( 'NONE',  ( 1.000000000000000000, 0.0000000000000000000, 0.0000000000000000000 ) ) ;
#89 = ORIENTED_EDGE ( 'NONE', *, *, #59, .T. ) ;
#90 = ORIENTED_EDGE ( 'NONE', *, *, #107, .F. ) ;
#91 = AXIS2_PLACEMENT_3D ( 'NONE', #197, #38, #266 ) ;
#92 = ORIENTED_EDGE ( 'NONE', *, *, #2, .T. ) ;
#93 = DIRECTION ( 'NONE',  ( 0.0000000000000000000, 0.0000000000000000000, 1.000000000000000000 ) ) ;
#94 = CARTESIAN_POINT ( 'NONE',  ( -0.3750000000000000555, 0.0000000000000000000, 4.000000000000000000 ) ) ;
#95 = FACE_OUTER_BOUND ( 'NONE', #179, .T. ) ;
#96 = EDGE_CURVE ( 'NONE', #295, #106, #239, .T. ) ;
#97 = CARTESIAN_POINT ( 'NONE',  ( -0.3749999999999998335, 0.0000000000000000000, 1.502126730682356914 ) ) ;
#98 = FACE_OUTER_BOUND ( 'NONE', #129, .T. ) ;
#99 = DIRECTION ( 'NONE',  ( -1.224646799147353207E-16, -0.0000000000000000000, -1.000000000000000000 ) ) ;
#100 = AXIS2_PLACEMENT_3D ( 'NONE', #164, #120, #58 ) ;
#101 = PRODUCT_DEFINITION ( 'UNKNOWN', '', #151, #155 ) ;
#102 = DIRECTION ( 'NONE',  ( 0.0000000000000000000, 0.0000000000000000000, 1.000000000000000000 ) ) ;
#103 = FACE_OUTER_BOUND ( 'NONE', #254, .T. ) ;
#104 = CARTESIAN_POINT ( 'NONE',  ( -0.3599999999999994316, 0.0000000000000000000, 4.000000000000000000 ) ) ;
#105 = CYLINDRICAL_SURFACE ( 'NONE', #297, 0.3750000000000000555 ) ;
#106 = VERTEX_POINT ( 'NONE', #282 ) ;
#107 = EDGE_CURVE ( 'NONE', #203, #295, #5, .T. ) ;
#108 = ORIENTED_EDGE ( 'NONE', *, *, #107, .T. ) ;
#109 = ORIENTED_EDGE ( 'NONE', *, *, #118, .F. ) ;
#110 = APPLICATION_PROTOCOL_DEFINITION ( 'draft international standard', 'automotive_design', 1998, #61 ) ;
#111 = ORIENTED_EDGE ( 'NONE', *, *, #244, .F. ) ;
#112 = ADVANCED_FACE ( 'NONE', ( #31 ), #115, .F. ) ;
#113 = VECTOR ( 'NONE', #274, 39.37007874015748143 ) ;
#114 = ORIENTED_EDGE ( 'NONE', *, *, #199, .F. ) ;
#115 = PLANE ( 'NONE',  #122 ) ;
#116 = CARTESIAN_POINT ( 'NONE',  ( 0.3750000000000000555, 4.592425496802575451E-17, 3.984999999999998987 ) ) ;
#117 = AXIS2_PLACEMENT_3D ( 'NONE', #63, #99, #222 ) ;
#118 = EDGE_CURVE ( 'NONE', #45, #51, #8, .T. ) ;
#119 = CARTESIAN_POINT ( 'NONE',  ( -0.3750000000000000555, 0.0000000000000000000, 3.984999999999998987 ) ) ;
#120 = DIRECTION ( 'NONE',  ( 1.224646799147353207E-16, 0.0000000000000000000, 1.000000000000000000 ) ) ;
#121 = FACE_OUTER_BOUND ( 'NONE', #52, .T. ) ;
#122 = AXIS2_PLACEMENT_3D ( 'NONE', #211, #34, #74 ) ;
#123 = DIRECTION ( 'NONE',  ( 0.0000000000000000000, 0.0000000000000000000, -1.000000000000000000 ) ) ;
#124 = CARTESIAN_POINT ( 'NONE',  ( 0.3599999999999994316, 4.408728476930464865E-17, 4.000000000000000000 ) ) ;
#125 = DIRECTION ( 'NONE',  ( -1.000000000000000000, 0.0000000000000000000, 0.0000000000000000000 ) ) ;
#126 = STYLED_ITEM ( 'NONE', ( #200 ), #127 ) ;
#127 = ADVANCED_BREP_SHAPE_REPRESENTATION ( 'Micro_EMS-750-4', ( #84, #202 ), #22 ) ;
#128 =( NAMED_UNIT ( * ) PLANE_ANGLE_UNIT ( ) SI_UNIT ( $, .RADIAN. ) );
#129 = EDGE_LOOP ( 'NONE', ( #299, #92 ) ) ;
#130 = ADVANCED_FACE ( 'NONE', ( #284 ), #201, .T. ) ;
#131 = ORIENTED_EDGE ( 'NONE', *, *, #249, .F. ) ;
#132 =( NAMED_UNIT ( * ) SI_UNIT ( $, .STERADIAN. ) SOLID_ANGLE_UNIT ( ) );
#133 = LINE ( 'NONE', #224, #113 ) ;
#134 = SURFACE_STYLE_USAGE ( .BOTH. , #24 ) ;
#135 = VERTEX_POINT ( 'NONE', #173 ) ;
#136 = ADVANCED_FACE ( 'NONE', ( #240 ), #40, .T. ) ;
#137 = ORIENTED_EDGE ( 'NONE', *, *, #96, .T. ) ;
#138 = AXIS2_PLACEMENT_3D ( 'NONE', #149, #102, #170 ) ;
#139 = DIRECTION ( 'NONE',  ( -1.000000000000000000, 0.0000000000000000000, 0.0000000000000000000 ) ) ;
#140 = DIRECTION ( 'NONE',  ( -1.000000000000000000, 0.0000000000000000000, 0.0000000000000000000 ) ) ;
#141 = COLOUR_RGB ( '',0.7921568627450980005, 0.8196078431372548767, 0.9333333333333333481 ) ;
#142 = AXIS2_PLACEMENT_3D ( 'NONE', #219, #16, #83 ) ;
#143 =( CONVERSION_BASED_UNIT ( 'INCH', #72 ) LENGTH_UNIT ( ) NAMED_UNIT ( #258 ) );
#144 = CARTESIAN_POINT ( 'NONE',  ( 0.0000000000000000000, 0.0000000000000000000, 4.000000000000000000 ) ) ;
#145 = VECTOR ( 'NONE', #243, 39.37007874015748143 ) ;
#146 = DIRECTION ( 'NONE',  ( -1.000000000000000000, 0.0000000000000000000, 0.0000000000000000000 ) ) ;
#147 = DIRECTION ( 'NONE',  ( 0.0000000000000000000, 0.0000000000000000000, -1.000000000000000000 ) ) ;
#148 = CARTESIAN_POINT ( 'NONE',  ( 0.0000000000000000000, 0.0000000000000000000, 4.000000000000000000 ) ) ;
#149 = CARTESIAN_POINT ( 'NONE',  ( 0.0000000000000000000, 0.0000000000000000000, 4.000000000000000000 ) ) ;
#150 = CIRCLE ( 'NONE', #213, 0.3750000000000000555 ) ;
#151 = PRODUCT_DEFINITION_FORMATION_WITH_SPECIFIED_SOURCE ( 'ANY', '', #27, .NOT_KNOWN. ) ;
#152 = VERTEX_POINT ( 'NONE', #104 ) ;
#153 = EDGE_CURVE ( 'NONE', #70, #204, #269, .T. ) ;
#154 = EDGE_LOOP ( 'NONE', ( #206, #181, #226, #114 ) ) ;
#155 = PRODUCT_DEFINITION_CONTEXT ( 'detailed design', #273, 'design' ) ;
#156 = EDGE_LOOP ( 'NONE', ( #298, #276, #159, #255 ) ) ;
#157 = VECTOR ( 'NONE', #79, 39.37007874015748143 ) ;
#158 = ADVANCED_FACE ( 'NONE', ( #171 ), #44, .T. ) ;
#159 = ORIENTED_EDGE ( 'NONE', *, *, #215, .T. ) ;
#160 = ORIENTED_EDGE ( 'NONE', *, *, #169, .T. ) ;
#161 =( NAMED_UNIT ( * ) PLANE_ANGLE_UNIT ( ) SI_UNIT ( $, .RADIAN. ) );
#162 = PRODUCT_DEFINITION_SHAPE ( 'NONE', 'NONE',  #101 ) ;
#163 = AXIS2_PLACEMENT_3D ( 'NONE', #15, #294, #218 ) ;
#164 = CARTESIAN_POINT ( 'NONE',  ( 1.836970198721030181E-16, 0.0000000000000000000, 1.500000000000000222 ) ) ;
#165 = ADVANCED_FACE ( 'NONE', ( #242 ), #105, .T. ) ;
#166 = PRESENTATION_STYLE_ASSIGNMENT (( #167 ) ) ;
#167 = SURFACE_STYLE_USAGE ( .BOTH. , #192 ) ;
#168 = AXIS2_PLACEMENT_3D ( 'NONE', #267, #60, #174 ) ;
#169 = EDGE_CURVE ( 'NONE', #203, #51, #268, .T. ) ;
#170 = DIRECTION ( 'NONE',  ( 1.000000000000000000, 0.0000000000000000000, 0.0000000000000000000 ) ) ;
#171 = FACE_OUTER_BOUND ( 'NONE', #208, .T. ) ;
#172 = CARTESIAN_POINT ( 'NONE',  ( 0.3599999999999994316, 4.500576986866520466E-17, 4.000000000000000000 ) ) ;
#173 = CARTESIAN_POINT ( 'NONE',  ( -0.3746249999999999858, 0.0000000000000000000, 9.175666142611542384E-17 ) ) ;
#174 = DIRECTION ( 'NONE',  ( 1.000000000000000000, 0.0000000000000000000, 0.0000000000000000000 ) ) ;
#175 = AXIS2_PLACEMENT_3D ( 'NONE', #144, #210, #140 ) ;
#176 = PRESENTATION_LAYER_ASSIGNMENT (  '', '', ( #126 ) ) ;
#177 = ORIENTED_EDGE ( 'NONE', *, *, #10, .F. ) ;
#178 = UNCERTAINTY_MEASURE_WITH_UNIT (LENGTH_MEASURE( 1.000000000000000082E-05 ), #143, 'distance_accuracy_value', 'NONE');
#179 = EDGE_LOOP ( 'NONE', ( #89, #281, #28, #109 ) ) ;
#180 =( CONVERSION_BASED_UNIT ( 'INCH', #69 ) LENGTH_UNIT ( ) NAMED_UNIT ( #263 ) );
#181 = ORIENTED_EDGE ( 'NONE', *, *, #182, .T. ) ;
#182 = EDGE_CURVE ( 'NONE', #70, #45, #68, .T. ) ;
#183 = DIRECTION ( 'NONE',  ( 0.0000000000000000000, 0.0000000000000000000, 1.000000000000000000 ) ) ;
#184 = VECTOR ( 'NONE', #43, 39.37007874015748143 ) ;
#185 = ORIENTED_EDGE ( 'NONE', *, *, #2, .F. ) ;
#186 = DIRECTION ( 'NONE',  ( 1.000000000000000000, 0.0000000000000000000, 0.0000000000000000000 ) ) ;
#187 = DIRECTION ( 'NONE',  ( -0.0000000000000000000, -0.0000000000000000000, -1.000000000000000000 ) ) ;
#188 = EDGE_CURVE ( 'NONE', #106, #135, #73, .T. ) ;
#189 = DIRECTION ( 'NONE',  ( -1.224646799147353207E-16, -0.0000000000000000000, -1.000000000000000000 ) ) ;
#190 = FILL_AREA_STYLE_COLOUR ( '', #141 ) ;
#191 = ADVANCED_FACE ( 'NONE', ( #121 ), #270, .T. ) ;
#192 = SURFACE_SIDE_STYLE ('',( #12 ) ) ;
#193 = CIRCLE ( 'NONE', #142, 0.3750000000000000555 ) ;
#194 = CARTESIAN_POINT ( 'NONE',  ( -0.3599999999999994316, 0.0000000000000000000, 4.000000000000000000 ) ) ;
#195 =( LENGTH_UNIT ( ) NAMED_UNIT ( * ) SI_UNIT ( $, .METRE. ) );
#196 = CYLINDRICAL_SURFACE ( 'NONE', #117, 0.3746249999999999858 ) ;
#197 = CARTESIAN_POINT ( 'NONE',  ( 0.0000000000000000000, 0.0000000000000000000, 4.000000000000000000 ) ) ;
#198 = CARTESIAN_POINT ( 'NONE',  ( 0.3750000000000001665, 4.592425496802577300E-17, 1.502126730682356914 ) ) ;
#199 = EDGE_CURVE ( 'NONE', #204, #51, #193, .T. ) ;
#200 = PRESENTATION_STYLE_ASSIGNMENT (( #134 ) ) ;
#201 = CONICAL_SURFACE ( 'NONE', #100, 0.3746250000000000413, 0.1745329251994339192 ) ;
#202 = AXIS2_PLACEMENT_3D ( 'NONE', #253, #229, #19 ) ;
#203 = VERTEX_POINT ( 'NONE', #246 ) ;
#204 = VERTEX_POINT ( 'NONE', #198 ) ;
#205 =( CONVERSION_BASED_UNIT ( 'INCH', #46 ) LENGTH_UNIT ( ) NAMED_UNIT ( #55 ) );
#206 = ORIENTED_EDGE ( 'NONE', *, *, #153, .F. ) ;
#207 = PRODUCT_CONTEXT ( 'NONE', #61, 'mechanical' ) ;
#208 = EDGE_LOOP ( 'NONE', ( #185, #272, #248, #64 ) ) ;
#209 = CIRCLE ( 'NONE', #57, 0.3746249999999999858 ) ;
#210 = DIRECTION ( 'NONE',  ( -0.0000000000000000000, -0.0000000000000000000, -1.000000000000000000 ) ) ;
#211 = CARTESIAN_POINT ( 'NONE',  ( 0.0000000000000000000, 0.0000000000000000000, 0.0000000000000000000 ) ) ;
#212 = CARTESIAN_POINT ( 'NONE',  ( 0.0000000000000000000, 0.0000000000000000000, 0.0000000000000000000 ) ) ;
#213 = AXIS2_PLACEMENT_3D ( 'NONE', #75, #216, #54 ) ;
#214 = CYLINDRICAL_SURFACE ( 'NONE', #296, 0.3746249999999999858 ) ;
#215 = EDGE_CURVE ( 'NONE', #295, #204, #14, .T. ) ;
#216 = DIRECTION ( 'NONE',  ( 0.0000000000000000000, 0.0000000000000000000, -1.000000000000000000 ) ) ;
#217 = CARTESIAN_POINT ( 'NONE',  ( 0.3750000000000000555, 4.592425496802575451E-17, 4.000000000000000000 ) ) ;
#218 = DIRECTION ( 'NONE',  ( -1.000000000000000000, 0.0000000000000000000, 1.224646799147352961E-16 ) ) ;
#219 = CARTESIAN_POINT ( 'NONE',  ( 1.839574692643826673E-16, 0.0000000000000000000, 1.502126730682356914 ) ) ;
#220 = DIRECTION ( 'NONE',  ( 0.7071067811865426878, 8.659560562354873694E-17, -0.7071067811865523467 ) ) ;
#221 = CIRCLE ( 'NONE', #138, 0.3599999999999994316 ) ;
#222 = DIRECTION ( 'NONE',  ( -1.000000000000000000, 0.0000000000000000000, 1.224646799147352961E-16 ) ) ;
#223 = FILL_AREA_STYLE ('',( #50 ) ) ;
#224 = CARTESIAN_POINT ( 'NONE',  ( -0.3746249999999999858, 0.0000000000000000000, 4.587833071305771192E-17 ) ) ;
#225 = SHAPE_DEFINITION_REPRESENTATION ( #162, #127 ) ;
#226 = ORIENTED_EDGE ( 'NONE', *, *, #118, .T. ) ;
#227 =( NAMED_UNIT ( * ) SI_UNIT ( $, .STERADIAN. ) SOLID_ANGLE_UNIT ( ) );
#228 = ORIENTED_EDGE ( 'NONE', *, *, #188, .F. ) ;
#229 = DIRECTION ( 'NONE',  ( 0.0000000000000000000, 0.0000000000000000000, 1.000000000000000000 ) ) ;
#230 = EDGE_LOOP ( 'NONE', ( #90, #160, #47, #87 ) ) ;
#231 = ORIENTED_EDGE ( 'NONE', *, *, #10, .T. ) ;
#232 = VECTOR ( 'NONE', #187, 39.37007874015748143 ) ;
#233 =( NAMED_UNIT ( * ) SI_UNIT ( $, .STERADIAN. ) SOLID_ANGLE_UNIT ( ) );
#234 = FILL_AREA_STYLE ('',( #190 ) ) ;
#235 = EDGE_CURVE ( 'NONE', #152, #45, #81, .T. ) ;
#236 = CARTESIAN_POINT ( 'NONE',  ( 1.839574692643826673E-16, 0.0000000000000000000, 1.502126730682356914 ) ) ;
#237 = AXIS2_PLACEMENT_3D ( 'NONE', #291, #123, #293 ) ;
#238 = FACE_OUTER_BOUND ( 'NONE', #23, .T. ) ;
#239 = LINE ( 'NONE', #33, #251 ) ;
#240 = FACE_OUTER_BOUND ( 'NONE', #230, .T. ) ;
#241 = ADVANCED_FACE ( 'NONE', ( #103 ), #196, .T. ) ;
#242 = FACE_OUTER_BOUND ( 'NONE', #154, .T. ) ;
#243 = DIRECTION ( 'NONE',  ( -0.7071067811865426878, 0.0000000000000000000, -0.7071067811865523467 ) ) ;
#244 = EDGE_CURVE ( 'NONE', #135, #106, #209, .T. ) ;
#245 = AXIS2_PLACEMENT_3D ( 'NONE', #252, #183, #88 ) ;
#246 = CARTESIAN_POINT ( 'NONE',  ( -0.3746249999999998193, 4.590129284054174246E-17, 1.500000000000000222 ) ) ;
#247 = VERTEX_POINT ( 'NONE', #172 ) ;
#248 = ORIENTED_EDGE ( 'NONE', *, *, #59, .F. ) ;
#249 = EDGE_CURVE ( 'NONE', #247, #70, #18, .T. ) ;
#250 = MECHANICAL_DESIGN_GEOMETRIC_PRESENTATION_REPRESENTATION (  '', ( #286 ), #3 ) ;
#251 = VECTOR ( 'NONE', #37, 39.37007874015748143 ) ;
#252 = CARTESIAN_POINT ( 'NONE',  ( 0.0000000000000000000, 0.0000000000000000000, 4.000000000000000000 ) ) ;
#253 = CARTESIAN_POINT ( 'NONE',  ( 0.0000000000000000000, 0.0000000000000000000, 0.0000000000000000000 ) ) ;
#254 = EDGE_LOOP ( 'NONE', ( #49, #67, #231, #228 ) ) ;
#255 = ORIENTED_EDGE ( 'NONE', *, *, #199, .T. ) ;
#256 = CARTESIAN_POINT ( 'NONE',  ( 1.836970198721030181E-16, 0.0000000000000000000, 1.500000000000000222 ) ) ;
#257 = DIRECTION ( 'NONE',  ( -1.000000000000000000, 0.0000000000000000000, 1.224646799147352961E-16 ) ) ;
#258 = DIMENSIONAL_EXPONENTS ( 1.000000000000000000, 0.0000000000000000000, 0.0000000000000000000, 0.0000000000000000000, 0.0000000000000000000, 0.0000000000000000000, 0.0000000000000000000 ) ;
#259 = CLOSED_SHELL ( 'NONE', ( #32, #136, #158, #56, #165, #36, #191, #130, #241, #112 ) ) ;
#260 =( LENGTH_UNIT ( ) NAMED_UNIT ( * ) SI_UNIT ( $, .METRE. ) );
#261 = CIRCLE ( 'NONE', #283, 0.3750000000000000555 ) ;
#262 = COLOUR_RGB ( '',0.7921568627450980005, 0.8196078431372548767, 0.9333333333333333481 ) ;
#263 = DIMENSIONAL_EXPONENTS ( 1.000000000000000000, 0.0000000000000000000, 0.0000000000000000000, 0.0000000000000000000, 0.0000000000000000000, 0.0000000000000000000, 0.0000000000000000000 ) ;
#264 = CARTESIAN_POINT ( 'NONE',  ( 0.0000000000000000000, 0.0000000000000000000, 4.000000000000000000 ) ) ;
#265 = CARTESIAN_POINT ( 'NONE',  ( 0.3746250000000002633, 0.0000000000000000000, 1.500000000000000222 ) ) ;
#266 = DIRECTION ( 'NONE',  ( -1.000000000000000000, 0.0000000000000000000, 0.0000000000000000000 ) ) ;
#267 = CARTESIAN_POINT ( 'NONE',  ( 1.836970198721030181E-16, 0.0000000000000000000, 1.500000000000000222 ) ) ;
#268 = LINE ( 'NONE', #62, #29 ) ;
#269 = LINE ( 'NONE', #217, #157 ) ;
#270 = CONICAL_SURFACE ( 'NONE', #279, 0.3599999999999994316, 0.7853981633974415066 ) ;
#271 =( LENGTH_UNIT ( ) NAMED_UNIT ( * ) SI_UNIT ( $, .METRE. ) );
#272 = ORIENTED_EDGE ( 'NONE', *, *, #249, .T. ) ;
#273 = APPLICATION_CONTEXT ( 'automotive_design' ) ;
#274 = DIRECTION ( 'NONE',  ( -1.224646799147353207E-16, -0.0000000000000000000, -1.000000000000000000 ) ) ;
#275 = UNCERTAINTY_MEASURE_WITH_UNIT (LENGTH_MEASURE( 1.000000000000000082E-05 ), #205, 'distance_accuracy_value', 'NONE');
#276 = ORIENTED_EDGE ( 'NONE', *, *, #26, .F. ) ;
#277 = AXIS2_PLACEMENT_3D ( 'NONE', #20, #65, #76 ) ;
#278 = SURFACE_STYLE_FILL_AREA ( #223 ) ;
#279 = AXIS2_PLACEMENT_3D ( 'NONE', #13, #147, #146 ) ;
#280 = ORIENTED_EDGE ( 'NONE', *, *, #288, .F. ) ;
#281 = ORIENTED_EDGE ( 'NONE', *, *, #153, .T. ) ;
#282 = CARTESIAN_POINT ( 'NONE',  ( 0.3746249999999999858, 4.587833071305771192E-17, 0.0000000000000000000 ) ) ;
#283 = AXIS2_PLACEMENT_3D ( 'NONE', #236, #189, #186 ) ;
#284 = FACE_OUTER_BOUND ( 'NONE', #156, .T. ) ;
#285 = PLANE ( 'NONE',  #82 ) ;
#286 = STYLED_ITEM ( 'NONE', ( #166 ), #84 ) ;
#287 =( GEOMETRIC_REPRESENTATION_CONTEXT ( 3 ) GLOBAL_UNCERTAINTY_ASSIGNED_CONTEXT ( ( #48 ) ) GLOBAL_UNIT_ASSIGNED_CONTEXT ( ( #180, #128, #132 ) ) REPRESENTATION_CONTEXT ( 'NONE', 'WORKASPACE' ) );
#288 = EDGE_CURVE ( 'NONE', #152, #247, #221, .T. ) ;
#289 = CARTESIAN_POINT ( 'NONE',  ( 5.618475085796983064E-33, 0.0000000000000000000, 4.587833071305771192E-17 ) ) ;
#290 = DIRECTION ( 'NONE',  ( -1.000000000000000000, 0.0000000000000000000, 1.224646799147352961E-16 ) ) ;
#291 = CARTESIAN_POINT ( 'NONE',  ( 0.0000000000000000000, 0.0000000000000000000, 3.984999999999998987 ) ) ;
#292 = PRODUCT_RELATED_PRODUCT_CATEGORY ( 'part', '', ( #27 ) ) ;
#293 = DIRECTION ( 'NONE',  ( 1.000000000000000000, 0.0000000000000000000, 0.0000000000000000000 ) ) ;
#294 = DIRECTION ( 'NONE',  ( -1.224646799147353207E-16, -0.0000000000000000000, -1.000000000000000000 ) ) ;
#295 = VERTEX_POINT ( 'NONE', #265 ) ;
#296 = AXIS2_PLACEMENT_3D ( 'NONE', #212, #9, #257 ) ;
#297 = AXIS2_PLACEMENT_3D ( 'NONE', #148, #42, #125 ) ;
#298 = ORIENTED_EDGE ( 'NONE', *, *, #169, .F. ) ;
#299 = ORIENTED_EDGE ( 'NONE', *, *, #288, .T. ) ;
ENDSEC;
END-ISO-10303-21;
