ISO-10303-21;
HEADER;
FILE_DESCRIPTION (( 'STEP AP214' ),
    '1' );
FILE_NAME ('Micro_SFLM-040-20.STEP',
    '2021-09-02T05:25:54',
    ( '' ),
    ( '' ),
    'SwSTEP 2.0',
    'SolidWorks 2020',
    '' );
FILE_SCHEMA (( 'AUTOMOTIVE_DESIGN' ));
ENDSEC;

DATA;
#1 = SURFACE_SIDE_STYLE ('',( #51 ) ) ;
#2 = LINE ( 'NONE', #6, #262 ) ;
#3 = ORIENTED_EDGE ( 'NONE', *, *, #23, .F. ) ;
#4 = VERTEX_POINT ( 'NONE', #225 ) ;
#5 = ORIENTED_EDGE ( 'NONE', *, *, #149, .F. ) ;
#6 = CARTESIAN_POINT ( 'NONE',  ( -0.06374000000000125399, 0.0000000000000000000, 1.574802999999999953 ) ) ;
#7 = EDGE_CURVE ( 'NONE', #110, #101, #188, .T. ) ;
#8 = CIRCLE ( 'NONE', #202, 0.07874000000000000443 ) ;
#9 = ORIENTED_EDGE ( 'NONE', *, *, #142, .T. ) ;
#10 = ORIENTED_EDGE ( 'NONE', *, *, #142, .F. ) ;
#11 = ADVANCED_FACE ( 'NONE', ( #200 ), #52, .T. ) ;
#12 = CARTESIAN_POINT ( 'NONE',  ( 7.232163918832687459E-17, 0.0000000000000000000, 0.5905510000000000481 ) ) ;
#13 = VECTOR ( 'NONE', #73, 39.37007874015748143 ) ;
#14 = DIRECTION ( 'NONE',  ( 0.7071067811865507924, 8.659560562354973534E-17, -0.7071067811865443531 ) ) ;
#15 = DIRECTION ( 'NONE',  ( 1.000000000000000000, 0.0000000000000000000, 0.0000000000000000000 ) ) ;
#16 = EDGE_LOOP ( 'NONE', ( #222, #198 ) ) ;
#17 = SURFACE_STYLE_FILL_AREA ( #156 ) ;
#18 = APPLICATION_PROTOCOL_DEFINITION ( 'draft international standard', 'automotive_design', 1998, #35 ) ;
#19 = DIRECTION ( 'NONE',  ( 0.0000000000000000000, 0.0000000000000000000, 1.000000000000000000 ) ) ;
#20 = EDGE_CURVE ( 'NONE', #101, #110, #294, .T. ) ;
#21 = ORIENTED_EDGE ( 'NONE', *, *, #74, .F. ) ;
#22 = CONICAL_SURFACE ( 'NONE', #237, 0.06374000000000125399, 0.7853981633974528309 ) ;
#23 = EDGE_CURVE ( 'NONE', #286, #265, #138, .T. ) ;
#24 =( LENGTH_UNIT ( ) NAMED_UNIT ( * ) SI_UNIT ( $, .METRE. ) );
#25 =( NAMED_UNIT ( * ) SI_UNIT ( $, .STERADIAN. ) SOLID_ANGLE_UNIT ( ) );
#26 = ORIENTED_EDGE ( 'NONE', *, *, #23, .T. ) ;
#27 = VECTOR ( 'NONE', #266, 39.37007874015748143 ) ;
#28 = DIRECTION ( 'NONE',  ( -1.000000000000000000, 0.0000000000000000000, 1.224646799147353454E-16 ) ) ;
#29 = DIRECTION ( 'NONE',  ( -0.7071067811865507924, 0.0000000000000000000, -0.7071067811865443531 ) ) ;
#30 = ORIENTED_EDGE ( 'NONE', *, *, #7, .T. ) ;
#31 = LINE ( 'NONE', #140, #13 ) ;
#32 = DIRECTION ( 'NONE',  ( 0.0000000000000000000, 0.0000000000000000000, 1.000000000000000000 ) ) ;
#33 = DIRECTION ( 'NONE',  ( 1.000000000000000000, 0.0000000000000000000, 0.0000000000000000000 ) ) ;
#34 = ORIENTED_EDGE ( 'NONE', *, *, #240, .F. ) ;
#35 = APPLICATION_CONTEXT ( 'automotive_design' ) ;
#36 = EDGE_CURVE ( 'NONE', #286, #4, #196, .T. ) ;
#37 = FACE_OUTER_BOUND ( 'NONE', #56, .T. ) ;
#38 = CARTESIAN_POINT ( 'NONE',  ( -0.07866125999999999674, 0.0000000000000000000, 1.926645205517954789E-17 ) ) ;
#39 = PRESENTATION_STYLE_ASSIGNMENT (( #251 ) ) ;
#40 = CIRCLE ( 'NONE', #213, 0.06374000000000125399 ) ;
#41 = COLOUR_RGB ( '',0.7921568627450980005, 0.8196078431372548767, 0.9333333333333333481 ) ;
#42 = FILL_AREA_STYLE_COLOUR ( '', #275 ) ;
#43 = CONICAL_SURFACE ( 'NONE', #157, 0.07866125999999996898, 0.1745329251994337805 ) ;
#44 = DIMENSIONAL_EXPONENTS ( 1.000000000000000000, 0.0000000000000000000, 0.0000000000000000000, 0.0000000000000000000, 0.0000000000000000000, 0.0000000000000000000, 0.0000000000000000000 ) ;
#45 = EDGE_CURVE ( 'NONE', #92, #46, #58, .T. ) ;
#46 = VERTEX_POINT ( 'NONE', #269 ) ;
#47 =( CONVERSION_BASED_UNIT ( 'INCH', #195 ) LENGTH_UNIT ( ) NAMED_UNIT ( #185 ) );
#48 = DIRECTION ( 'NONE',  ( 0.0000000000000000000, 0.0000000000000000000, -1.000000000000000000 ) ) ;
#49 = PRESENTATION_LAYER_ASSIGNMENT (  '', '', ( #252 ) ) ;
#50 = DIRECTION ( 'NONE',  ( 1.000000000000000000, 0.0000000000000000000, 0.0000000000000000000 ) ) ;
#51 = SURFACE_STYLE_FILL_AREA ( #193 ) ;
#52 = CYLINDRICAL_SURFACE ( 'NONE', #182, 0.07866125999999996898 ) ;
#53 = LENGTH_MEASURE_WITH_UNIT ( LENGTH_MEASURE( 0.02539999999999999897 ), #246 );
#54 = ADVANCED_FACE ( 'NONE', ( #62 ), #43, .T. ) ;
#55 = VECTOR ( 'NONE', #194, 39.37007874015748143 ) ;
#56 = EDGE_LOOP ( 'NONE', ( #102, #30 ) ) ;
#57 = CARTESIAN_POINT ( 'NONE',  ( 1.179729942015079091E-33, 0.0000000000000000000, 9.633226027589773945E-18 ) ) ;
#58 = CIRCLE ( 'NONE', #278, 0.06374000000000125399 ) ;
#59 = LINE ( 'NONE', #235, #70 ) ;
#60 = DIRECTION ( 'NONE',  ( 1.000000000000000000, 0.0000000000000000000, 0.0000000000000000000 ) ) ;
#61 =( CONVERSION_BASED_UNIT ( 'INCH', #227 ) LENGTH_UNIT ( ) NAMED_UNIT ( #135 ) );
#62 = FACE_OUTER_BOUND ( 'NONE', #146, .T. ) ;
#63 = CARTESIAN_POINT ( 'NONE',  ( 7.237632661538848958E-17, 0.0000000000000000000, 0.5909975567304769362 ) ) ;
#64 = AXIS2_PLACEMENT_3D ( 'NONE', #228, #87, #291 ) ;
#65 = STYLED_ITEM ( 'NONE', ( #95 ), #169 ) ;
#66 = ORIENTED_EDGE ( 'NONE', *, *, #149, .T. ) ;
#67 = FACE_OUTER_BOUND ( 'NONE', #280, .T. ) ;
#68 = EDGE_CURVE ( 'NONE', #132, #171, #290, .T. ) ;
#69 = UNCERTAINTY_MEASURE_WITH_UNIT (LENGTH_MEASURE( 1.000000000000000082E-05 ), #47, 'distance_accuracy_value', 'NONE');
#70 = VECTOR ( 'NONE', #128, 39.37007874015748143 ) ;
#71 = DIRECTION ( 'NONE',  ( -1.000000000000000000, 0.0000000000000000000, 0.0000000000000000000 ) ) ;
#72 = ORIENTED_EDGE ( 'NONE', *, *, #68, .F. ) ;
#73 = DIRECTION ( 'NONE',  ( -1.224646799147353454E-16, -0.0000000000000000000, -1.000000000000000000 ) ) ;
#74 = EDGE_CURVE ( 'NONE', #4, #171, #59, .T. ) ;
#75 = EDGE_LOOP ( 'NONE', ( #220, #66, #223, #136 ) ) ;
#76 = DIRECTION ( 'NONE',  ( -1.000000000000000000, 0.0000000000000000000, 0.0000000000000000000 ) ) ;
#77 = CIRCLE ( 'NONE', #78, 0.07874000000000000443 ) ;
#78 = AXIS2_PLACEMENT_3D ( 'NONE', #63, #226, #60 ) ;
#79 = EDGE_LOOP ( 'NONE', ( #125, #97, #9, #72 ) ) ;
#80 = PRODUCT_DEFINITION ( 'UNKNOWN', '', #145, #191 ) ;
#81 = EDGE_LOOP ( 'NONE', ( #21, #99, #26, #249 ) ) ;
#82 = VERTEX_POINT ( 'NONE', #250 ) ;
#83 = AXIS2_PLACEMENT_3D ( 'NONE', #176, #119, #100 ) ;
#84 = DIRECTION ( 'NONE',  ( 0.0000000000000000000, 0.0000000000000000000, -1.000000000000000000 ) ) ;
#85 = DIRECTION ( 'NONE',  ( 1.224646799147353454E-16, 0.0000000000000000000, 1.000000000000000000 ) ) ;
#86 = DIRECTION ( 'NONE',  ( 0.0000000000000000000, 0.0000000000000000000, 1.000000000000000000 ) ) ;
#87 = DIRECTION ( 'NONE',  ( 0.0000000000000000000, 0.0000000000000000000, 1.000000000000000000 ) ) ;
#88 = AXIS2_PLACEMENT_3D ( 'NONE', #285, #214, #91 ) ;
#89 = ADVANCED_FACE ( 'NONE', ( #37 ), #154, .F. ) ;
#90 = CARTESIAN_POINT ( 'NONE',  ( 0.0000000000000000000, 0.0000000000000000000, 1.574802999999999953 ) ) ;
#91 = DIRECTION ( 'NONE',  ( -1.000000000000000000, 0.0000000000000000000, 0.0000000000000000000 ) ) ;
#92 = VERTEX_POINT ( 'NONE', #230 ) ;
#93 = CARTESIAN_POINT ( 'NONE',  ( -0.07866125999999989959, 9.633226027589769323E-18, 0.5905510000000000481 ) ) ;
#94 = DIRECTION ( 'NONE',  ( -0.0000000000000000000, -0.0000000000000000000, -1.000000000000000000 ) ) ;
#95 = PRESENTATION_STYLE_ASSIGNMENT (( #283 ) ) ;
#96 = ADVANCED_FACE ( 'NONE', ( #268 ), #257, .T. ) ;
#97 = ORIENTED_EDGE ( 'NONE', *, *, #161, .T. ) ;
#98 = CARTESIAN_POINT ( 'NONE',  ( 0.07874000000000007382, 9.642868896486266213E-18, 0.5909975567304769362 ) ) ;
#99 = ORIENTED_EDGE ( 'NONE', *, *, #114, .T. ) ;
#100 = DIRECTION ( 'NONE',  ( -1.000000000000000000, 0.0000000000000000000, 1.224646799147353454E-16 ) ) ;
#101 = VERTEX_POINT ( 'NONE', #38 ) ;
#102 = ORIENTED_EDGE ( 'NONE', *, *, #20, .T. ) ;
#103 =( GEOMETRIC_REPRESENTATION_CONTEXT ( 3 ) GLOBAL_UNCERTAINTY_ASSIGNED_CONTEXT ( ( #217 ) ) GLOBAL_UNIT_ASSIGNED_CONTEXT ( ( #61, #208, #137 ) ) REPRESENTATION_CONTEXT ( 'NONE', 'WORKASPACE' ) );
#104 = ADVANCED_FACE ( 'NONE', ( #205 ), #107, .T. ) ;
#105 = DIRECTION ( 'NONE',  ( -1.000000000000000000, 0.0000000000000000000, 0.0000000000000000000 ) ) ;
#106 = ORIENTED_EDGE ( 'NONE', *, *, #127, .T. ) ;
#107 = CONICAL_SURFACE ( 'NONE', #168, 0.06374000000000125399, 0.7853981633974528309 ) ;
#108 = CYLINDRICAL_SURFACE ( 'NONE', #144, 0.07874000000000000443 ) ;
#109 = APPLICATION_CONTEXT ( 'automotive_design' ) ;
#110 = VERTEX_POINT ( 'NONE', #295 ) ;
#111 = MANIFOLD_SOLID_BREP ( 'Cut-Revolve1', #207 ) ;
#112 = DIRECTION ( 'NONE',  ( -0.0000000000000000000, -0.0000000000000000000, -1.000000000000000000 ) ) ;
#113 = CARTESIAN_POINT ( 'NONE',  ( 7.237632661538848958E-17, 0.0000000000000000000, 0.5909975567304769362 ) ) ;
#114 = EDGE_CURVE ( 'NONE', #4, #286, #8, .T. ) ;
#115 = DIRECTION ( 'NONE',  ( 0.0000000000000000000, 0.0000000000000000000, -1.000000000000000000 ) ) ;
#116 =( CONVERSION_BASED_UNIT ( 'INCH', #53 ) LENGTH_UNIT ( ) NAMED_UNIT ( #44 ) );
#117 = CIRCLE ( 'NONE', #88, 0.07866125999999996898 ) ;
#118 = MECHANICAL_DESIGN_GEOMETRIC_PRESENTATION_REPRESENTATION (  '', ( #65 ), #271 ) ;
#119 = DIRECTION ( 'NONE',  ( -1.224646799147353454E-16, -0.0000000000000000000, -1.000000000000000000 ) ) ;
#120 =( NAMED_UNIT ( * ) SI_UNIT ( $, .STERADIAN. ) SOLID_ANGLE_UNIT ( ) );
#121 = ORIENTED_EDGE ( 'NONE', *, *, #114, .F. ) ;
#122 = DIRECTION ( 'NONE',  ( -1.224646799147353454E-16, -0.0000000000000000000, -1.000000000000000000 ) ) ;
#123 = DIRECTION ( 'NONE',  ( 1.000000000000000000, 0.0000000000000000000, 0.0000000000000000000 ) ) ;
#124 = AXIS2_PLACEMENT_3D ( 'NONE', #12, #130, #270 ) ;
#125 = ORIENTED_EDGE ( 'NONE', *, *, #248, .F. ) ;
#126 = SURFACE_SIDE_STYLE ('',( #17 ) ) ;
#127 = EDGE_CURVE ( 'NONE', #92, #4, #133, .T. ) ;
#128 = DIRECTION ( 'NONE',  ( -0.0000000000000000000, -0.0000000000000000000, -1.000000000000000000 ) ) ;
#129 = VECTOR ( 'NONE', #147, 39.37007874015748143 ) ;
#130 = DIRECTION ( 'NONE',  ( 1.224646799147353454E-16, 0.0000000000000000000, 1.000000000000000000 ) ) ;
#131 = CARTESIAN_POINT ( 'NONE',  ( 0.0000000000000000000, 0.0000000000000000000, 1.574802999999999953 ) ) ;
#132 = VERTEX_POINT ( 'NONE', #181 ) ;
#133 = LINE ( 'NONE', #232, #224 ) ;
#134 = FACE_OUTER_BOUND ( 'NONE', #16, .T. ) ;
#135 = DIMENSIONAL_EXPONENTS ( 1.000000000000000000, 0.0000000000000000000, 0.0000000000000000000, 0.0000000000000000000, 0.0000000000000000000, 0.0000000000000000000, 0.0000000000000000000 ) ;
#136 = ORIENTED_EDGE ( 'NONE', *, *, #7, .F. ) ;
#137 =( NAMED_UNIT ( * ) SI_UNIT ( $, .STERADIAN. ) SOLID_ANGLE_UNIT ( ) );
#138 = LINE ( 'NONE', #239, #55 ) ;
#139 = AXIS2_PLACEMENT_3D ( 'NONE', #263, #115, #150 ) ;
#140 = CARTESIAN_POINT ( 'NONE',  ( 0.07866125999999996898, 9.633226027589769323E-18, -9.633226027589770864E-18 ) ) ;
#141 = UNCERTAINTY_MEASURE_WITH_UNIT (LENGTH_MEASURE( 1.000000000000000082E-05 ), #116, 'distance_accuracy_value', 'NONE');
#142 = EDGE_CURVE ( 'NONE', #265, #171, #77, .T. ) ;
#143 = DIRECTION ( 'NONE',  ( -1.224646799147353454E-16, -0.0000000000000000000, -1.000000000000000000 ) ) ;
#144 = AXIS2_PLACEMENT_3D ( 'NONE', #296, #94, #105 ) ;
#145 = PRODUCT_DEFINITION_FORMATION_WITH_SPECIFIED_SOURCE ( 'ANY', '', #253, .NOT_KNOWN. ) ;
#146 = EDGE_LOOP ( 'NONE', ( #206, #5, #234, #204 ) ) ;
#147 = DIRECTION ( 'NONE',  ( -1.224646799147353454E-16, -0.0000000000000000000, -1.000000000000000000 ) ) ;
#148 = DIRECTION ( 'NONE',  ( 0.0000000000000000000, 0.0000000000000000000, -1.000000000000000000 ) ) ;
#149 = EDGE_CURVE ( 'NONE', #132, #82, #117, .T. ) ;
#150 = DIRECTION ( 'NONE',  ( 1.000000000000000000, 0.0000000000000000000, 0.0000000000000000000 ) ) ;
#151 = ORIENTED_EDGE ( 'NONE', *, *, #248, .T. ) ;
#152 = AXIS2_PLACEMENT_3D ( 'NONE', #90, #19, #162 ) ;
#153 = CARTESIAN_POINT ( 'NONE',  ( 7.232163918832687459E-17, 0.0000000000000000000, 0.5905510000000000481 ) ) ;
#154 = PLANE ( 'NONE',  #64 ) ;
#155 = CARTESIAN_POINT ( 'NONE',  ( 0.0000000000000000000, 0.0000000000000000000, 0.0000000000000000000 ) ) ;
#156 = FILL_AREA_STYLE ('',( #42 ) ) ;
#157 = AXIS2_PLACEMENT_3D ( 'NONE', #153, #85, #15 ) ;
#158 = PLANE ( 'NONE',  #152 ) ;
#159 =( LENGTH_UNIT ( ) NAMED_UNIT ( * ) SI_UNIT ( $, .METRE. ) );
#160 = PRODUCT_DEFINITION_SHAPE ( 'NONE', 'NONE',  #80 ) ;
#161 = EDGE_CURVE ( 'NONE', #82, #265, #209, .T. ) ;
#162 = DIRECTION ( 'NONE',  ( 1.000000000000000000, 0.0000000000000000000, -0.0000000000000000000 ) ) ;
#163 = PRODUCT_CONTEXT ( 'NONE', #109, 'mechanical' ) ;
#164 = MECHANICAL_DESIGN_GEOMETRIC_PRESENTATION_REPRESENTATION (  '', ( #252 ), #103 ) ;
#165 = LINE ( 'NONE', #258, #129 ) ;
#166 = CARTESIAN_POINT ( 'NONE',  ( 0.0000000000000000000, 0.0000000000000000000, 1.574802999999999953 ) ) ;
#167 = ADVANCED_FACE ( 'NONE', ( #254 ), #22, .T. ) ;
#168 = AXIS2_PLACEMENT_3D ( 'NONE', #203, #84, #180 ) ;
#169 = ADVANCED_BREP_SHAPE_REPRESENTATION ( 'Micro_SFLM-040-20', ( #111, #219 ), #289 ) ;
#170 = APPLICATION_PROTOCOL_DEFINITION ( 'draft international standard', 'automotive_design', 1998, #109 ) ;
#171 = VERTEX_POINT ( 'NONE', #98 ) ;
#172 = DIRECTION ( 'NONE',  ( -1.000000000000000000, 0.0000000000000000000, 1.224646799147353454E-16 ) ) ;
#173 = CIRCLE ( 'NONE', #229, 0.07874000000000000443 ) ;
#174 = DIRECTION ( 'NONE',  ( -1.224646799147353454E-16, -0.0000000000000000000, -1.000000000000000000 ) ) ;
#175 = EDGE_LOOP ( 'NONE', ( #151, #192, #282, #34 ) ) ;
#176 = CARTESIAN_POINT ( 'NONE',  ( 1.179729942015079091E-33, 0.0000000000000000000, 9.633226027589773945E-18 ) ) ;
#177 = ADVANCED_FACE ( 'NONE', ( #134 ), #158, .T. ) ;
#178 = AXIS2_PLACEMENT_3D ( 'NONE', #166, #112, #281 ) ;
#179 = CARTESIAN_POINT ( 'NONE',  ( 0.07866126000000003837, 0.0000000000000000000, 0.5905510000000000481 ) ) ;
#180 = DIRECTION ( 'NONE',  ( -1.000000000000000000, 0.0000000000000000000, 0.0000000000000000000 ) ) ;
#181 = CARTESIAN_POINT ( 'NONE',  ( 0.07866126000000003837, 0.0000000000000000000, 0.5905510000000000481 ) ) ;
#182 = AXIS2_PLACEMENT_3D ( 'NONE', #287, #143, #28 ) ;
#183 = DIRECTION ( 'NONE',  ( 1.000000000000000000, 0.0000000000000000000, 0.0000000000000000000 ) ) ;
#184 = CIRCLE ( 'NONE', #284, 0.07866125999999996898 ) ;
#185 = DIMENSIONAL_EXPONENTS ( 1.000000000000000000, 0.0000000000000000000, 0.0000000000000000000, 0.0000000000000000000, 0.0000000000000000000, 0.0000000000000000000, 0.0000000000000000000 ) ;
#186 = CYLINDRICAL_SURFACE ( 'NONE', #267, 0.07866125999999996898 ) ;
#187 = EDGE_CURVE ( 'NONE', #46, #92, #40, .T. ) ;
#188 = CIRCLE ( 'NONE', #244, 0.07866125999999999674 ) ;
#189 = ORIENTED_EDGE ( 'NONE', *, *, #288, .T. ) ;
#190 =( NAMED_UNIT ( * ) PLANE_ANGLE_UNIT ( ) SI_UNIT ( $, .RADIAN. ) );
#191 = PRODUCT_DEFINITION_CONTEXT ( 'detailed design', #35, 'design' ) ;
#192 = ORIENTED_EDGE ( 'NONE', *, *, #242, .T. ) ;
#193 = FILL_AREA_STYLE ('',( #279 ) ) ;
#194 = DIRECTION ( 'NONE',  ( -0.0000000000000000000, -0.0000000000000000000, -1.000000000000000000 ) ) ;
#195 = LENGTH_MEASURE_WITH_UNIT ( LENGTH_MEASURE( 0.02539999999999999897 ), #24 );
#196 = CIRCLE ( 'NONE', #139, 0.07874000000000000443 ) ;
#197 = PRESENTATION_LAYER_ASSIGNMENT (  '', '', ( #65 ) ) ;
#198 = ORIENTED_EDGE ( 'NONE', *, *, #45, .T. ) ;
#199 = ADVANCED_FACE ( 'NONE', ( #211 ), #108, .T. ) ;
#200 = FACE_OUTER_BOUND ( 'NONE', #75, .T. ) ;
#201 = CARTESIAN_POINT ( 'NONE',  ( 0.0000000000000000000, 0.0000000000000000000, 1.559803000000001383 ) ) ;
#202 = AXIS2_PLACEMENT_3D ( 'NONE', #201, #148, #259 ) ;
#203 = CARTESIAN_POINT ( 'NONE',  ( 0.0000000000000000000, 0.0000000000000000000, 1.574802999999999953 ) ) ;
#204 = ORIENTED_EDGE ( 'NONE', *, *, #272, .T. ) ;
#205 = FACE_OUTER_BOUND ( 'NONE', #297, .T. ) ;
#206 = ORIENTED_EDGE ( 'NONE', *, *, #161, .F. ) ;
#207 = CLOSED_SHELL ( 'NONE', ( #231, #96, #104, #264, #199, #177, #167, #54, #11, #89 ) ) ;
#208 =( NAMED_UNIT ( * ) PLANE_ANGLE_UNIT ( ) SI_UNIT ( $, .RADIAN. ) );
#209 = LINE ( 'NONE', #93, #298 ) ;
#210 = PRODUCT_RELATED_PRODUCT_CATEGORY ( 'part', '', ( #253 ) ) ;
#211 = FACE_OUTER_BOUND ( 'NONE', #81, .T. ) ;
#212 = EDGE_LOOP ( 'NONE', ( #260, #238, #189, #121 ) ) ;
#213 = AXIS2_PLACEMENT_3D ( 'NONE', #131, #236, #183 ) ;
#214 = DIRECTION ( 'NONE',  ( -1.224646799147353454E-16, -0.0000000000000000000, -1.000000000000000000 ) ) ;
#215 =( NAMED_UNIT ( * ) PLANE_ANGLE_UNIT ( ) SI_UNIT ( $, .RADIAN. ) );
#216 = CARTESIAN_POINT ( 'NONE',  ( 7.232163918832687459E-17, 0.0000000000000000000, 0.5905510000000000481 ) ) ;
#217 = UNCERTAINTY_MEASURE_WITH_UNIT (LENGTH_MEASURE( 1.000000000000000082E-05 ), #61, 'distance_accuracy_value', 'NONE');
#218 = ORIENTED_EDGE ( 'NONE', *, *, #36, .T. ) ;
#219 = AXIS2_PLACEMENT_3D ( 'NONE', #155, #86, #33 ) ;
#220 = ORIENTED_EDGE ( 'NONE', *, *, #242, .F. ) ;
#221 = CYLINDRICAL_SURFACE ( 'NONE', #178, 0.07874000000000000443 ) ;
#222 = ORIENTED_EDGE ( 'NONE', *, *, #187, .T. ) ;
#223 = ORIENTED_EDGE ( 'NONE', *, *, #240, .T. ) ;
#224 = VECTOR ( 'NONE', #14, 39.37007874015748143 ) ;
#225 = CARTESIAN_POINT ( 'NONE',  ( 0.07874000000000000443, 9.642868896486256968E-18, 1.559803000000001383 ) ) ;
#226 = DIRECTION ( 'NONE',  ( -1.224646799147353454E-16, -0.0000000000000000000, -1.000000000000000000 ) ) ;
#227 = LENGTH_MEASURE_WITH_UNIT ( LENGTH_MEASURE( 0.02539999999999999897 ), #159 );
#228 = CARTESIAN_POINT ( 'NONE',  ( 0.0000000000000000000, 0.0000000000000000000, 0.0000000000000000000 ) ) ;
#229 = AXIS2_PLACEMENT_3D ( 'NONE', #113, #255, #50 ) ;
#230 = CARTESIAN_POINT ( 'NONE',  ( 0.06374000000000125399, 8.724383797125819593E-18, 1.574802999999999953 ) ) ;
#231 = ADVANCED_FACE ( 'NONE', ( #274 ), #186, .T. ) ;
#232 = CARTESIAN_POINT ( 'NONE',  ( 0.06374000000000125399, 7.805898697765382218E-18, 1.574802999999999953 ) ) ;
#233 = DIRECTION ( 'NONE',  ( -1.224646799147353454E-16, -0.0000000000000000000, -1.000000000000000000 ) ) ;
#234 = ORIENTED_EDGE ( 'NONE', *, *, #68, .T. ) ;
#235 = CARTESIAN_POINT ( 'NONE',  ( 0.07874000000000000443, 9.642868896486256968E-18, 1.574802999999999953 ) ) ;
#236 = DIRECTION ( 'NONE',  ( 0.0000000000000000000, 0.0000000000000000000, 1.000000000000000000 ) ) ;
#237 = AXIS2_PLACEMENT_3D ( 'NONE', #299, #48, #71 ) ;
#238 = ORIENTED_EDGE ( 'NONE', *, *, #187, .F. ) ;
#239 = CARTESIAN_POINT ( 'NONE',  ( -0.07874000000000000443, 0.0000000000000000000, 1.574802999999999953 ) ) ;
#240 = EDGE_CURVE ( 'NONE', #82, #101, #165, .T. ) ;
#241 = CARTESIAN_POINT ( 'NONE',  ( -0.07873999999999993504, 0.0000000000000000000, 0.5909975567304769362 ) ) ;
#242 = EDGE_CURVE ( 'NONE', #132, #110, #31, .T. ) ;
#243 = ORIENTED_EDGE ( 'NONE', *, *, #288, .F. ) ;
#244 = AXIS2_PLACEMENT_3D ( 'NONE', #57, #174, #172 ) ;
#245 = ORIENTED_EDGE ( 'NONE', *, *, #45, .F. ) ;
#246 =( LENGTH_UNIT ( ) NAMED_UNIT ( * ) SI_UNIT ( $, .METRE. ) );
#247 = CARTESIAN_POINT ( 'NONE',  ( 0.0000000000000000000, 0.0000000000000000000, 1.574802999999999953 ) ) ;
#248 = EDGE_CURVE ( 'NONE', #82, #132, #184, .T. ) ;
#249 = ORIENTED_EDGE ( 'NONE', *, *, #272, .F. ) ;
#250 = CARTESIAN_POINT ( 'NONE',  ( -0.07866125999999989959, 9.638047462038014686E-18, 0.5905510000000000481 ) ) ;
#251 = SURFACE_STYLE_USAGE ( .BOTH. , #126 ) ;
#252 = STYLED_ITEM ( 'NONE', ( #39 ), #111 ) ;
#253 = PRODUCT ( 'Micro_SFLM-040-20', 'Micro_SFLM-040-20', '', ( #163 ) ) ;
#254 = FACE_OUTER_BOUND ( 'NONE', #212, .T. ) ;
#255 = DIRECTION ( 'NONE',  ( -1.224646799147353454E-16, -0.0000000000000000000, -1.000000000000000000 ) ) ;
#256 = DIRECTION ( 'NONE',  ( -0.1736481776669310528, 2.126576849575781776E-17, 0.9848077530122080203 ) ) ;
#257 = CONICAL_SURFACE ( 'NONE', #124, 0.07866125999999996898, 0.1745329251994337805 ) ;
#258 = CARTESIAN_POINT ( 'NONE',  ( -0.07866125999999996898, 0.0000000000000000000, 9.633226027589770864E-18 ) ) ;
#259 = DIRECTION ( 'NONE',  ( 1.000000000000000000, 0.0000000000000000000, 0.0000000000000000000 ) ) ;
#260 = ORIENTED_EDGE ( 'NONE', *, *, #127, .F. ) ;
#261 = ORIENTED_EDGE ( 'NONE', *, *, #74, .T. ) ;
#262 = VECTOR ( 'NONE', #29, 39.37007874015748143 ) ;
#263 = CARTESIAN_POINT ( 'NONE',  ( 0.0000000000000000000, 0.0000000000000000000, 1.559803000000001383 ) ) ;
#264 = ADVANCED_FACE ( 'NONE', ( #67 ), #221, .T. ) ;
#265 = VERTEX_POINT ( 'NONE', #241 ) ;
#266 = DIRECTION ( 'NONE',  ( 0.1736481776669312749, 0.0000000000000000000, 0.9848077530122077983 ) ) ;
#267 = AXIS2_PLACEMENT_3D ( 'NONE', #293, #233, #273 ) ;
#268 = FACE_OUTER_BOUND ( 'NONE', #79, .T. ) ;
#269 = CARTESIAN_POINT ( 'NONE',  ( -0.06374000000000125399, 0.0000000000000000000, 1.574802999999999953 ) ) ;
#270 = DIRECTION ( 'NONE',  ( 1.000000000000000000, 0.0000000000000000000, 0.0000000000000000000 ) ) ;
#271 =( GEOMETRIC_REPRESENTATION_CONTEXT ( 3 ) GLOBAL_UNCERTAINTY_ASSIGNED_CONTEXT ( ( #141 ) ) GLOBAL_UNIT_ASSIGNED_CONTEXT ( ( #116, #190, #120 ) ) REPRESENTATION_CONTEXT ( 'NONE', 'WORKASPACE' ) );
#272 = EDGE_CURVE ( 'NONE', #171, #265, #173, .T. ) ;
#273 = DIRECTION ( 'NONE',  ( -1.000000000000000000, 0.0000000000000000000, 1.224646799147353454E-16 ) ) ;
#274 = FACE_OUTER_BOUND ( 'NONE', #175, .T. ) ;
#275 = COLOUR_RGB ( '',0.7921568627450980005, 0.8196078431372548767, 0.9333333333333333481 ) ;
#276 = ORIENTED_EDGE ( 'NONE', *, *, #36, .F. ) ;
#277 = CARTESIAN_POINT ( 'NONE',  ( -0.07874000000000000443, 0.0000000000000000000, 1.559803000000001383 ) ) ;
#278 = AXIS2_PLACEMENT_3D ( 'NONE', #247, #32, #123 ) ;
#279 = FILL_AREA_STYLE_COLOUR ( '', #41 ) ;
#280 = EDGE_LOOP ( 'NONE', ( #218, #261, #10, #3 ) ) ;
#281 = DIRECTION ( 'NONE',  ( -1.000000000000000000, 0.0000000000000000000, 0.0000000000000000000 ) ) ;
#282 = ORIENTED_EDGE ( 'NONE', *, *, #20, .F. ) ;
#283 = SURFACE_STYLE_USAGE ( .BOTH. , #1 ) ;
#284 = AXIS2_PLACEMENT_3D ( 'NONE', #216, #122, #76 ) ;
#285 = CARTESIAN_POINT ( 'NONE',  ( 7.232163918832687459E-17, 0.0000000000000000000, 0.5905510000000000481 ) ) ;
#286 = VERTEX_POINT ( 'NONE', #277 ) ;
#287 = CARTESIAN_POINT ( 'NONE',  ( 0.0000000000000000000, 0.0000000000000000000, 0.0000000000000000000 ) ) ;
#288 = EDGE_CURVE ( 'NONE', #46, #286, #2, .T. ) ;
#289 =( GEOMETRIC_REPRESENTATION_CONTEXT ( 3 ) GLOBAL_UNCERTAINTY_ASSIGNED_CONTEXT ( ( #69 ) ) GLOBAL_UNIT_ASSIGNED_CONTEXT ( ( #47, #215, #25 ) ) REPRESENTATION_CONTEXT ( 'NONE', 'WORKASPACE' ) );
#290 = LINE ( 'NONE', #179, #27 ) ;
#291 = DIRECTION ( 'NONE',  ( 1.000000000000000000, 0.0000000000000000000, -0.0000000000000000000 ) ) ;
#292 = SHAPE_DEFINITION_REPRESENTATION ( #160, #169 ) ;
#293 = CARTESIAN_POINT ( 'NONE',  ( 0.0000000000000000000, 0.0000000000000000000, 0.0000000000000000000 ) ) ;
#294 = CIRCLE ( 'NONE', #83, 0.07866125999999999674 ) ;
#295 = CARTESIAN_POINT ( 'NONE',  ( 0.07866125999999999674, 9.633226027589770864E-18, -1.895600338963814870E-33 ) ) ;
#296 = CARTESIAN_POINT ( 'NONE',  ( 0.0000000000000000000, 0.0000000000000000000, 1.574802999999999953 ) ) ;
#297 = EDGE_LOOP ( 'NONE', ( #245, #106, #276, #243 ) ) ;
#298 = VECTOR ( 'NONE', #256, 39.37007874015748854 ) ;
#299 = CARTESIAN_POINT ( 'NONE',  ( 0.0000000000000000000, 0.0000000000000000000, 1.574802999999999953 ) ) ;
ENDSEC;
END-ISO-10303-21;
