ISO-10303-21;
HEADER;
FILE_DESCRIPTION (( 'STEP AP214' ),
    '1' );
FILE_NAME ('24647.STEP',
    '2023-06-22T17:24:34',
    ( '' ),
    ( '' ),
    'SwSTEP 2.0',
    'SolidWorks 2023',
    '' );
FILE_SCHEMA (( 'AUTOMOTIVE_DESIGN' ));
ENDSEC;

DATA;
#1 = DIRECTION ( 'NONE',  ( -0.000000000000000000, -1.000000000000000000, -0.000000000000000000 ) ) ;
#2 =( NAMED_UNIT ( * ) SI_UNIT ( $, .STERADIAN. ) SOLID_ANGLE_UNIT ( ) );
#3 = VERTEX_POINT ( 'NONE', #229 ) ;
#4 = CIRCLE ( 'NONE', #129, 0.6250000000000000000 ) ;
#5 = EDGE_CURVE ( 'NONE', #204, #225, #106, .T. ) ;
#6 = PRESENTATION_STYLE_ASSIGNMENT (( #293 ) ) ;
#7 = VERTEX_POINT ( 'NONE', #120 ) ;
#8 = CIRCLE ( 'NONE', #177, 0.6250000000000000000 ) ;
#9 = LENGTH_MEASURE_WITH_UNIT ( LENGTH_MEASURE( 0.02539999999999999897 ), #28 );
#10 = EDGE_LOOP ( 'NONE', ( #274, #151, #178, #290 ) ) ;
#11 =( LENGTH_UNIT ( ) NAMED_UNIT ( * ) SI_UNIT ( $, .METRE. ) );
#12 = EDGE_CURVE ( 'NONE', #294, #266, #199, .T. ) ;
#13 = COLOUR_RGB ( '',1.000000000000000000, 0.000000000000000000, 0.000000000000000000 ) ;
#14 = EDGE_LOOP ( 'NONE', ( #296, #175 ) ) ;
#15 = DIMENSIONAL_EXPONENTS ( 1.000000000000000000, 0.000000000000000000, 0.000000000000000000, 0.000000000000000000, 0.000000000000000000, 0.000000000000000000, 0.000000000000000000 ) ;
#16 = CARTESIAN_POINT ( 'NONE',  ( 0.000000000000000000, 3.250000000000000000, 0.000000000000000000 ) ) ;
#17 =( NAMED_UNIT ( * ) SI_UNIT ( $, .STERADIAN. ) SOLID_ANGLE_UNIT ( ) );
#18 = CLOSED_SHELL ( 'NONE', ( #131, #209, #195, #190 ) ) ;
#19 = DIRECTION ( 'NONE',  ( -2.226630543904284693E-17, 1.000000000000000000, -0.000000000000000000 ) ) ;
#20 =( CONVERSION_BASED_UNIT ( 'INCH', #187 ) LENGTH_UNIT ( ) NAMED_UNIT ( #126 ) );
#21 = AXIS2_PLACEMENT_3D ( 'NONE', #16, #211, #278 ) ;
#22 = CARTESIAN_POINT ( 'NONE',  ( 0.6250000000000000000, 6.000000000000000888, 7.654042494670957853E-17 ) ) ;
#23 = FILL_AREA_STYLE_COLOUR ( '', #13 ) ;
#24 = ORIENTED_EDGE ( 'NONE', *, *, #163, .T. ) ;
#25 = ORIENTED_EDGE ( 'NONE', *, *, #217, .T. ) ;
#26 =( NAMED_UNIT ( * ) SI_UNIT ( $, .STERADIAN. ) SOLID_ANGLE_UNIT ( ) );
#27 = EDGE_LOOP ( 'NONE', ( #154, #52 ) ) ;
#28 =( LENGTH_UNIT ( ) NAMED_UNIT ( * ) SI_UNIT ( $, .METRE. ) );
#29 = VERTEX_POINT ( 'NONE', #70 ) ;
#30 = VECTOR ( 'NONE', #240, 39.37007874015748143 ) ;
#31 = DIRECTION ( 'NONE',  ( 0.000000000000000000, 0.000000000000000000, -1.000000000000000000 ) ) ;
#32 = COLOUR_RGB ( '',1.000000000000000000, 0.000000000000000000, 0.000000000000000000 ) ;
#33 = SURFACE_STYLE_FILL_AREA ( #164 ) ;
#34 = PRODUCT_RELATED_PRODUCT_CATEGORY ( 'part', '', ( #145 ) ) ;
#35 = DIRECTION ( 'NONE',  ( -1.000000000000000000, 0.000000000000000000, 0.000000000000000000 ) ) ;
#36 = UNCERTAINTY_MEASURE_WITH_UNIT (LENGTH_MEASURE( 1.000000000000000082E-05 ), #95, 'distance_accuracy_value', 'NONE');
#37 = CIRCLE ( 'NONE', #58, 0.6250000000000000000 ) ;
#38 = CARTESIAN_POINT ( 'NONE',  ( 0.6250000000000000000, 6.000000000000000888, 7.654042494670957853E-17 ) ) ;
#39 = DIRECTION ( 'NONE',  ( 0.000000000000000000, 0.000000000000000000, -1.000000000000000000 ) ) ;
#40 = PRESENTATION_STYLE_ASSIGNMENT (( #171 ) ) ;
#41 = DIRECTION ( 'NONE',  ( -1.000000000000000000, -2.226630543904284693E-17, 0.000000000000000000 ) ) ;
#42 = CARTESIAN_POINT ( 'NONE',  ( 0.000000000000000000, 0.000000000000000000, 0.000000000000000000 ) ) ;
#43 = DIRECTION ( 'NONE',  ( -0.000000000000000000, -1.000000000000000000, -0.000000000000000000 ) ) ;
#44 = DIMENSIONAL_EXPONENTS ( 1.000000000000000000, 0.000000000000000000, 0.000000000000000000, 0.000000000000000000, 0.000000000000000000, 0.000000000000000000, 0.000000000000000000 ) ;
#45 = CARTESIAN_POINT ( 'NONE',  ( 7.654042494670957853E-17, 3.250000000000000000, 0.6250000000000000000 ) ) ;
#46 = ORIENTED_EDGE ( 'NONE', *, *, #12, .T. ) ;
#47 =( CONVERSION_BASED_UNIT ( 'INCH', #250 ) LENGTH_UNIT ( ) NAMED_UNIT ( #133 ) );
#48 = ORIENTED_EDGE ( 'NONE', *, *, #156, .F. ) ;
#49 = UNCERTAINTY_MEASURE_WITH_UNIT (LENGTH_MEASURE( 1.000000000000000082E-05 ), #20, 'distance_accuracy_value', 'NONE');
#50 = DIRECTION ( 'NONE',  ( 0.000000000000000000, 0.000000000000000000, -1.000000000000000000 ) ) ;
#51 = AXIS2_PLACEMENT_3D ( 'NONE', #116, #144, #93 ) ;
#52 = ORIENTED_EDGE ( 'NONE', *, *, #156, .T. ) ;
#53 = CARTESIAN_POINT ( 'NONE',  ( 0.000000000000000000, 0.000000000000000000, -0.6250000000000000000 ) ) ;
#54 = ORIENTED_EDGE ( 'NONE', *, *, #124, .T. ) ;
#55 = PRESENTATION_STYLE_ASSIGNMENT (( #179 ) ) ;
#56 = STYLED_ITEM ( 'NONE', ( #6 ), #209 ) ;
#57 = DIRECTION ( 'NONE',  ( 2.226630543904284693E-17, -1.000000000000000000, 0.000000000000000000 ) ) ;
#58 = AXIS2_PLACEMENT_3D ( 'NONE', #233, #110, #35 ) ;
#59 =( CONVERSION_BASED_UNIT ( 'INCH', #165 ) LENGTH_UNIT ( ) NAMED_UNIT ( #76 ) );
#60 = EDGE_CURVE ( 'NONE', #29, #173, #180, .T. ) ;
#61 = AXIS2_PLACEMENT_3D ( 'NONE', #295, #185, #83 ) ;
#62 = SURFACE_STYLE_USAGE ( .BOTH. , #280 ) ;
#63 = DIRECTION ( 'NONE',  ( -0.000000000000000000, -1.000000000000000000, -0.000000000000000000 ) ) ;
#64 =( NAMED_UNIT ( * ) PLANE_ANGLE_UNIT ( ) SI_UNIT ( $, .RADIAN. ) );
#65 = MECHANICAL_DESIGN_GEOMETRIC_PRESENTATION_REPRESENTATION (  '', ( #99 ), #277 ) ;
#66 = LINE ( 'NONE', #38, #30 ) ;
#67 = SURFACE_STYLE_USAGE ( .BOTH. , #284 ) ;
#68 = PRESENTATION_STYLE_ASSIGNMENT (( #67 ) ) ;
#69 = ADVANCED_FACE ( 'NONE', ( #162 ), #207, .T. ) ;
#70 = CARTESIAN_POINT ( 'NONE',  ( -0.6250000000000000000, 6.000000000000000888, 0.000000000000000000 ) ) ;
#71 = FILL_AREA_STYLE ('',( #119 ) ) ;
#72 = EDGE_LOOP ( 'NONE', ( #79, #249 ) ) ;
#73 = EDGE_CURVE ( 'NONE', #3, #7, #37, .T. ) ;
#74 = CLOSED_SHELL ( 'NONE', ( #224, #170, #69, #97 ) ) ;
#75 = CARTESIAN_POINT ( 'NONE',  ( 0.000000000000000000, 0.000000000000000000, 0.000000000000000000 ) ) ;
#76 = DIMENSIONAL_EXPONENTS ( 1.000000000000000000, 0.000000000000000000, 0.000000000000000000, 0.000000000000000000, 0.000000000000000000, 0.000000000000000000, 0.000000000000000000 ) ;
#77 =( GEOMETRIC_REPRESENTATION_CONTEXT ( 3 ) GLOBAL_UNCERTAINTY_ASSIGNED_CONTEXT ( ( #183 ) ) GLOBAL_UNIT_ASSIGNED_CONTEXT ( ( #59, #64, #113 ) ) REPRESENTATION_CONTEXT ( 'NONE', 'WORKASPACE' ) );
#78 =( CONVERSION_BASED_UNIT ( 'INCH', #9 ) LENGTH_UNIT ( ) NAMED_UNIT ( #208 ) );
#79 = ORIENTED_EDGE ( 'NONE', *, *, #124, .F. ) ;
#80 = AXIS2_PLACEMENT_3D ( 'NONE', #244, #262, #261 ) ;
#81 = MECHANICAL_DESIGN_GEOMETRIC_PRESENTATION_REPRESENTATION (  '', ( #121 ), #77 ) ;
#82 = CYLINDRICAL_SURFACE ( 'NONE', #272, 0.6250000000000000000 ) ;
#83 = DIRECTION ( 'NONE',  ( 1.000000000000000000, 0.000000000000000000, 0.000000000000000000 ) ) ;
#84 = PRESENTATION_STYLE_ASSIGNMENT (( #62 ) ) ;
#85 = AXIS2_PLACEMENT_3D ( 'NONE', #168, #142, #169 ) ;
#86 = AXIS2_PLACEMENT_3D ( 'NONE', #191, #281, #41 ) ;
#87 =( CONVERSION_BASED_UNIT ( 'INCH', #89 ) LENGTH_UNIT ( ) NAMED_UNIT ( #160 ) );
#88 = DIRECTION ( 'NONE',  ( -2.226630543904284693E-17, 1.000000000000000000, -0.000000000000000000 ) ) ;
#89 = LENGTH_MEASURE_WITH_UNIT ( LENGTH_MEASURE( 0.02539999999999999897 ), #302 );
#90 = VECTOR ( 'NONE', #43, 39.37007874015748143 ) ;
#91 =( NAMED_UNIT ( * ) SI_UNIT ( $, .STERADIAN. ) SOLID_ANGLE_UNIT ( ) );
#92 = CARTESIAN_POINT ( 'NONE',  ( 0.000000000000000000, 0.000000000000000000, 0.000000000000000000 ) ) ;
#93 = DIRECTION ( 'NONE',  ( 0.000000000000000000, 0.000000000000000000, -1.000000000000000000 ) ) ;
#94 = PRESENTATION_LAYER_ASSIGNMENT (  '', '', ( #128 ) ) ;
#95 =( CONVERSION_BASED_UNIT ( 'INCH', #259 ) LENGTH_UNIT ( ) NAMED_UNIT ( #15 ) );
#96 = MANIFOLD_SOLID_BREP ( 'Revolve - Cutting Edge', #18 ) ;
#97 = ADVANCED_FACE ( 'NONE', ( #214 ), #210, .F. ) ;
#98 = COLOUR_RGB ( '',1.000000000000000000, 0.000000000000000000, 0.000000000000000000 ) ;
#99 = STYLED_ITEM ( 'NONE', ( #268 ), #301 ) ;
#100 = CARTESIAN_POINT ( 'NONE',  ( 7.654042494670957853E-17, 0.000000000000000000, 0.6250000000000000000 ) ) ;
#101 = DIRECTION ( 'NONE',  ( 0.000000000000000000, -0.000000000000000000, 1.000000000000000000 ) ) ;
#102 = PLANE ( 'NONE',  #269 ) ;
#103 = EDGE_CURVE ( 'NONE', #7, #29, #161, .T. ) ;
#104 = FILL_AREA_STYLE_COLOUR ( '', #243 ) ;
#105 = ORIENTED_EDGE ( 'NONE', *, *, #73, .T. ) ;
#106 = LINE ( 'NONE', #206, #90 ) ;
#107 = FILL_AREA_STYLE_COLOUR ( '', #304 ) ;
#108 = SURFACE_SIDE_STYLE ('',( #33 ) ) ;
#109 = VECTOR ( 'NONE', #88, 39.37007874015748143 ) ;
#110 = DIRECTION ( 'NONE',  ( -2.226630543904284693E-17, 1.000000000000000000, -0.000000000000000000 ) ) ;
#111 = UNCERTAINTY_MEASURE_WITH_UNIT (LENGTH_MEASURE( 1.000000000000000082E-05 ), #47, 'distance_accuracy_value', 'NONE');
#112 =( GEOMETRIC_REPRESENTATION_CONTEXT ( 3 ) GLOBAL_UNCERTAINTY_ASSIGNED_CONTEXT ( ( #212 ) ) GLOBAL_UNIT_ASSIGNED_CONTEXT ( ( #78, #226, #2 ) ) REPRESENTATION_CONTEXT ( 'NONE', 'WORKASPACE' ) );
#113 =( NAMED_UNIT ( * ) SI_UNIT ( $, .STERADIAN. ) SOLID_ANGLE_UNIT ( ) );
#114 = FACE_OUTER_BOUND ( 'NONE', #202, .T. ) ;
#115 = UNCERTAINTY_MEASURE_WITH_UNIT (LENGTH_MEASURE( 1.000000000000000082E-05 ), #235, 'distance_accuracy_value', 'NONE');
#116 = CARTESIAN_POINT ( 'NONE',  ( 0.000000000000000000, 3.250000000000000000, 0.000000000000000000 ) ) ;
#117 = CARTESIAN_POINT ( 'NONE',  ( 0.000000000000000000, 0.000000000000000000, 0.000000000000000000 ) ) ;
#118 = EDGE_CURVE ( 'NONE', #294, #204, #286, .T. ) ;
#119 = FILL_AREA_STYLE_COLOUR ( '', #238 ) ;
#120 = CARTESIAN_POINT ( 'NONE',  ( -0.6250000000000000000, 3.250000000000000000, 0.000000000000000000 ) ) ;
#121 = STYLED_ITEM ( 'NONE', ( #84 ), #131 ) ;
#122 = PRODUCT_DEFINITION_FORMATION_WITH_SPECIFIED_SOURCE ( 'ANY', '', #145, .NOT_KNOWN. ) ;
#123 = ORIENTED_EDGE ( 'NONE', *, *, #136, .F. ) ;
#124 = EDGE_CURVE ( 'NONE', #7, #3, #236, .T. ) ;
#125 = FACE_OUTER_BOUND ( 'NONE', #14, .T. ) ;
#126 = DIMENSIONAL_EXPONENTS ( 1.000000000000000000, 0.000000000000000000, 0.000000000000000000, 0.000000000000000000, 0.000000000000000000, 0.000000000000000000, 0.000000000000000000 ) ;
#127 = ORIENTED_EDGE ( 'NONE', *, *, #60, .F. ) ;
#128 = STYLED_ITEM ( 'NONE', ( #40 ), #190 ) ;
#129 = AXIS2_PLACEMENT_3D ( 'NONE', #42, #222, #174 ) ;
#130 = ORIENTED_EDGE ( 'NONE', *, *, #167, .T. ) ;
#131 = ADVANCED_FACE ( 'NONE', ( #232 ), #82, .T. ) ;
#132 = CARTESIAN_POINT ( 'NONE',  ( 0.6250000000000000000, 6.000000000000000888, 0.000000000000000000 ) ) ;
#133 = DIMENSIONAL_EXPONENTS ( 1.000000000000000000, 0.000000000000000000, 0.000000000000000000, 0.000000000000000000, 0.000000000000000000, 0.000000000000000000, 0.000000000000000000 ) ;
#134 = DIRECTION ( 'NONE',  ( 1.000000000000000000, 2.226630543904284693E-17, 0.000000000000000000 ) ) ;
#135 = AXIS2_PLACEMENT_3D ( 'NONE', #138, #19, #254 ) ;
#136 = EDGE_CURVE ( 'NONE', #3, #173, #66, .T. ) ;
#137 = PRODUCT_CONTEXT ( 'NONE', #230, 'mechanical' ) ;
#138 = CARTESIAN_POINT ( 'NONE',  ( -6.123233995736784525E-17, 6.000000000000000888, 0.000000000000000000 ) ) ;
#139 = STYLED_ITEM ( 'NONE', ( #68 ), #195 ) ;
#140 = DIRECTION ( 'NONE',  ( -1.000000000000000000, 0.000000000000000000, 0.000000000000000000 ) ) ;
#141 =( GEOMETRIC_REPRESENTATION_CONTEXT ( 3 ) GLOBAL_UNCERTAINTY_ASSIGNED_CONTEXT ( ( #36 ) ) GLOBAL_UNIT_ASSIGNED_CONTEXT ( ( #95, #282, #283 ) ) REPRESENTATION_CONTEXT ( 'NONE', 'WORKASPACE' ) );
#142 = DIRECTION ( 'NONE',  ( -2.226630543904284693E-17, 1.000000000000000000, -0.000000000000000000 ) ) ;
#143 = PRESENTATION_LAYER_ASSIGNMENT (  '', '', ( #139 ) ) ;
#144 = DIRECTION ( 'NONE',  ( -0.000000000000000000, -1.000000000000000000, -0.000000000000000000 ) ) ;
#145 = PRODUCT ( '24647', '24647', '', ( #137 ) ) ;
#146 = FACE_OUTER_BOUND ( 'NONE', #10, .T. ) ;
#147 = MECHANICAL_DESIGN_GEOMETRIC_PRESENTATION_REPRESENTATION (  '', ( #128 ), #141 ) ;
#148 =( LENGTH_UNIT ( ) NAMED_UNIT ( * ) SI_UNIT ( $, .METRE. ) );
#149 = MECHANICAL_DESIGN_GEOMETRIC_PRESENTATION_REPRESENTATION (  '', ( #139 ), #189 ) ;
#150 = DIRECTION ( 'NONE',  ( -2.226630543904284693E-17, 1.000000000000000000, -0.000000000000000000 ) ) ;
#151 = ORIENTED_EDGE ( 'NONE', *, *, #118, .T. ) ;
#152 = CARTESIAN_POINT ( 'NONE',  ( 0.000000000000000000, 3.250000000000000000, -0.6250000000000000000 ) ) ;
#153 = ORIENTED_EDGE ( 'NONE', *, *, #103, .T. ) ;
#154 = ORIENTED_EDGE ( 'NONE', *, *, #60, .T. ) ;
#155 = FILL_AREA_STYLE ('',( #104 ) ) ;
#156 = EDGE_CURVE ( 'NONE', #173, #29, #192, .T. ) ;
#157 = ORIENTED_EDGE ( 'NONE', *, *, #136, .T. ) ;
#158 = AXIS2_PLACEMENT_3D ( 'NONE', #305, #234, #31 ) ;
#159 =( LENGTH_UNIT ( ) NAMED_UNIT ( * ) SI_UNIT ( $, .METRE. ) );
#160 = DIMENSIONAL_EXPONENTS ( 1.000000000000000000, 0.000000000000000000, 0.000000000000000000, 0.000000000000000000, 0.000000000000000000, 0.000000000000000000, 0.000000000000000000 ) ;
#161 = LINE ( 'NONE', #231, #109 ) ;
#162 = FACE_OUTER_BOUND ( 'NONE', #271, .T. ) ;
#163 = EDGE_CURVE ( 'NONE', #204, #294, #166, .T. ) ;
#164 = FILL_AREA_STYLE ('',( #107 ) ) ;
#165 = LENGTH_MEASURE_WITH_UNIT ( LENGTH_MEASURE( 0.02539999999999999897 ), #303 );
#166 = CIRCLE ( 'NONE', #51, 0.6250000000000000000 ) ;
#167 = EDGE_CURVE ( 'NONE', #266, #225, #8, .T. ) ;
#168 = CARTESIAN_POINT ( 'NONE',  ( -6.123233995736784525E-17, 6.000000000000000888, 0.000000000000000000 ) ) ;
#169 = DIRECTION ( 'NONE',  ( -1.000000000000000000, 0.000000000000000000, 0.000000000000000000 ) ) ;
#170 = ADVANCED_FACE ( 'NONE', ( #237 ), #215, .F. ) ;
#171 = SURFACE_STYLE_USAGE ( .BOTH. , #308 ) ;
#172 =( GEOMETRIC_REPRESENTATION_CONTEXT ( 3 ) GLOBAL_UNCERTAINTY_ASSIGNED_CONTEXT ( ( #193 ) ) GLOBAL_UNIT_ASSIGNED_CONTEXT ( ( #87, #228, #255 ) ) REPRESENTATION_CONTEXT ( 'NONE', 'WORKASPACE' ) );
#173 = VERTEX_POINT ( 'NONE', #22 ) ;
#174 = DIRECTION ( 'NONE',  ( 0.000000000000000000, 0.000000000000000000, -1.000000000000000000 ) ) ;
#175 = ORIENTED_EDGE ( 'NONE', *, *, #118, .F. ) ;
#176 = SURFACE_SIDE_STYLE ('',( #203 ) ) ;
#177 = AXIS2_PLACEMENT_3D ( 'NONE', #92, #1, #194 ) ;
#178 = ORIENTED_EDGE ( 'NONE', *, *, #5, .T. ) ;
#179 = SURFACE_STYLE_USAGE ( .BOTH. , #108 ) ;
#180 = CIRCLE ( 'NONE', #135, 0.6250000000000000000 ) ;
#181 = MECHANICAL_DESIGN_GEOMETRIC_PRESENTATION_REPRESENTATION (  '', ( #56 ), #112 ) ;
#182 = SURFACE_STYLE_FILL_AREA ( #300 ) ;
#183 = UNCERTAINTY_MEASURE_WITH_UNIT (LENGTH_MEASURE( 1.000000000000000082E-05 ), #59, 'distance_accuracy_value', 'NONE');
#184 = FILL_AREA_STYLE_COLOUR ( '', #98 ) ;
#185 = DIRECTION ( 'NONE',  ( 0.000000000000000000, 0.000000000000000000, 1.000000000000000000 ) ) ;
#186 = PRODUCT_DEFINITION_CONTEXT ( 'detailed design', #239, 'design' ) ;
#187 = LENGTH_MEASURE_WITH_UNIT ( LENGTH_MEASURE( 0.02539999999999999897 ), #159 );
#188 = PRESENTATION_LAYER_ASSIGNMENT (  '', '', ( #121 ) ) ;
#189 =( GEOMETRIC_REPRESENTATION_CONTEXT ( 3 ) GLOBAL_UNCERTAINTY_ASSIGNED_CONTEXT ( ( #111 ) ) GLOBAL_UNIT_ASSIGNED_CONTEXT ( ( #47, #265, #26 ) ) REPRESENTATION_CONTEXT ( 'NONE', 'WORKASPACE' ) );
#190 = ADVANCED_FACE ( 'NONE', ( #114 ), #197, .T. ) ;
#191 = CARTESIAN_POINT ( 'NONE',  ( 1.549338618452340907E-34, 3.250000000000000000, 0.000000000000000000 ) ) ;
#192 = CIRCLE ( 'NONE', #85, 0.6250000000000000000 ) ;
#193 = UNCERTAINTY_MEASURE_WITH_UNIT (LENGTH_MEASURE( 1.000000000000000082E-05 ), #87, 'distance_accuracy_value', 'NONE');
#194 = DIRECTION ( 'NONE',  ( 0.000000000000000000, 0.000000000000000000, -1.000000000000000000 ) ) ;
#195 = ADVANCED_FACE ( 'NONE', ( #146 ), #241, .T. ) ;
#196 = SURFACE_STYLE_FILL_AREA ( #285 ) ;
#197 = PLANE ( 'NONE',  #80 ) ;
#198 = CYLINDRICAL_SURFACE ( 'NONE', #298, 0.6250000000000000000 ) ;
#199 = LINE ( 'NONE', #100, #256 ) ;
#200 = DIRECTION ( 'NONE',  ( -1.000000000000000000, 0.000000000000000000, 0.000000000000000000 ) ) ;
#201 = SURFACE_SIDE_STYLE ('',( #219 ) ) ;
#202 = EDGE_LOOP ( 'NONE', ( #25, #130 ) ) ;
#203 = SURFACE_STYLE_FILL_AREA ( #155 ) ;
#204 = VERTEX_POINT ( 'NONE', #152 ) ;
#205 = SHAPE_DEFINITION_REPRESENTATION ( #260, #247 ) ;
#206 = CARTESIAN_POINT ( 'NONE',  ( 0.000000000000000000, 0.000000000000000000, -0.6250000000000000000 ) ) ;
#207 = CYLINDRICAL_SURFACE ( 'NONE', #291, 0.6250000000000000000 ) ;
#208 = DIMENSIONAL_EXPONENTS ( 1.000000000000000000, 0.000000000000000000, 0.000000000000000000, 0.000000000000000000, 0.000000000000000000, 0.000000000000000000, 0.000000000000000000 ) ;
#209 = ADVANCED_FACE ( 'NONE', ( #125 ), #102, .T. ) ;
#210 = PLANE ( 'NONE',  #213 ) ;
#211 = DIRECTION ( 'NONE',  ( -2.226630543904284693E-17, 1.000000000000000000, -0.000000000000000000 ) ) ;
#212 = UNCERTAINTY_MEASURE_WITH_UNIT (LENGTH_MEASURE( 1.000000000000000082E-05 ), #78, 'distance_accuracy_value', 'NONE');
#213 = AXIS2_PLACEMENT_3D ( 'NONE', #132, #57, #134 ) ;
#214 = FACE_OUTER_BOUND ( 'NONE', #27, .T. ) ;
#215 = PLANE ( 'NONE',  #86 ) ;
#216 = FILL_AREA_STYLE ('',( #264 ) ) ;
#217 = EDGE_CURVE ( 'NONE', #225, #266, #4, .T. ) ;
#218 = MECHANICAL_DESIGN_GEOMETRIC_PRESENTATION_REPRESENTATION (  '', ( #242 ), #227 ) ;
#219 = SURFACE_STYLE_FILL_AREA ( #71 ) ;
#220 = EDGE_LOOP ( 'NONE', ( #54, #157, #127, #292 ) ) ;
#221 = PRESENTATION_LAYER_ASSIGNMENT (  '', '', ( #99 ) ) ;
#222 = DIRECTION ( 'NONE',  ( -0.000000000000000000, -1.000000000000000000, -0.000000000000000000 ) ) ;
#223 = ORIENTED_EDGE ( 'NONE', *, *, #5, .F. ) ;
#224 = ADVANCED_FACE ( 'NONE', ( #267 ), #198, .T. ) ;
#225 = VERTEX_POINT ( 'NONE', #53 ) ;
#226 =( NAMED_UNIT ( * ) PLANE_ANGLE_UNIT ( ) SI_UNIT ( $, .RADIAN. ) );
#227 =( GEOMETRIC_REPRESENTATION_CONTEXT ( 3 ) GLOBAL_UNCERTAINTY_ASSIGNED_CONTEXT ( ( #115 ) ) GLOBAL_UNIT_ASSIGNED_CONTEXT ( ( #235, #258, #91 ) ) REPRESENTATION_CONTEXT ( 'NONE', 'WORKASPACE' ) );
#228 =( NAMED_UNIT ( * ) PLANE_ANGLE_UNIT ( ) SI_UNIT ( $, .RADIAN. ) );
#229 = CARTESIAN_POINT ( 'NONE',  ( 0.6250000000000000000, 3.250000000000000000, 7.654042494670957853E-17 ) ) ;
#230 = APPLICATION_CONTEXT ( 'automotive_design' ) ;
#231 = CARTESIAN_POINT ( 'NONE',  ( -0.6250000000000000000, 6.000000000000000888, 0.000000000000000000 ) ) ;
#232 = FACE_OUTER_BOUND ( 'NONE', #251, .T. ) ;
#233 = CARTESIAN_POINT ( 'NONE',  ( 0.000000000000000000, 3.250000000000000000, 0.000000000000000000 ) ) ;
#234 = DIRECTION ( 'NONE',  ( -0.000000000000000000, -1.000000000000000000, -0.000000000000000000 ) ) ;
#235 =( CONVERSION_BASED_UNIT ( 'INCH', #297 ) LENGTH_UNIT ( ) NAMED_UNIT ( #44 ) );
#236 = CIRCLE ( 'NONE', #21, 0.6250000000000000000 ) ;
#237 = FACE_OUTER_BOUND ( 'NONE', #72, .T. ) ;
#238 = COLOUR_RGB ( '',0.7921568627450980005, 0.8196078431372548767, 0.9333333333333333481 ) ;
#239 = APPLICATION_CONTEXT ( 'automotive_design' ) ;
#240 = DIRECTION ( 'NONE',  ( -2.226630543904284693E-17, 1.000000000000000000, -0.000000000000000000 ) ) ;
#241 = CYLINDRICAL_SURFACE ( 'NONE', #252, 0.6250000000000000000 ) ;
#242 = STYLED_ITEM ( 'NONE', ( #55 ), #96 ) ;
#243 = COLOUR_RGB ( '',1.000000000000000000, 0.000000000000000000, 0.000000000000000000 ) ;
#244 = CARTESIAN_POINT ( 'NONE',  ( 0.000000000000000000, 0.000000000000000000, 0.000000000000000000 ) ) ;
#245 = CARTESIAN_POINT ( 'NONE',  ( 7.654042494670957853E-17, 0.000000000000000000, 0.6250000000000000000 ) ) ;
#246 = ORIENTED_EDGE ( 'NONE', *, *, #217, .F. ) ;
#247 = ADVANCED_BREP_SHAPE_REPRESENTATION ( '24647', ( #96, #301, #61 ), #172 ) ;
#248 = CARTESIAN_POINT ( 'NONE',  ( -6.123233995736784525E-17, 6.000000000000000888, 0.000000000000000000 ) ) ;
#249 = ORIENTED_EDGE ( 'NONE', *, *, #73, .F. ) ;
#250 = LENGTH_MEASURE_WITH_UNIT ( LENGTH_MEASURE( 0.02539999999999999897 ), #11 );
#251 = EDGE_LOOP ( 'NONE', ( #24, #46, #246, #223 ) ) ;
#252 = AXIS2_PLACEMENT_3D ( 'NONE', #75, #270, #50 ) ;
#253 =( LENGTH_UNIT ( ) NAMED_UNIT ( * ) SI_UNIT ( $, .METRE. ) );
#254 = DIRECTION ( 'NONE',  ( -1.000000000000000000, 0.000000000000000000, 0.000000000000000000 ) ) ;
#255 =( NAMED_UNIT ( * ) SI_UNIT ( $, .STERADIAN. ) SOLID_ANGLE_UNIT ( ) );
#256 = VECTOR ( 'NONE', #289, 39.37007874015748143 ) ;
#257 = PRODUCT_DEFINITION ( 'UNKNOWN', '', #122, #186 ) ;
#258 =( NAMED_UNIT ( * ) PLANE_ANGLE_UNIT ( ) SI_UNIT ( $, .RADIAN. ) );
#259 = LENGTH_MEASURE_WITH_UNIT ( LENGTH_MEASURE( 0.02539999999999999897 ), #148 );
#260 = PRODUCT_DEFINITION_SHAPE ( 'NONE', 'NONE',  #257 ) ;
#261 = DIRECTION ( 'NONE',  ( 0.000000000000000000, 0.000000000000000000, -1.000000000000000000 ) ) ;
#262 = DIRECTION ( 'NONE',  ( 0.000000000000000000, -1.000000000000000000, -0.000000000000000000 ) ) ;
#263 = PRESENTATION_LAYER_ASSIGNMENT (  '', '', ( #242 ) ) ;
#264 = FILL_AREA_STYLE_COLOUR ( '', #32 ) ;
#265 =( NAMED_UNIT ( * ) PLANE_ANGLE_UNIT ( ) SI_UNIT ( $, .RADIAN. ) );
#266 = VERTEX_POINT ( 'NONE', #245 ) ;
#267 = FACE_OUTER_BOUND ( 'NONE', #220, .T. ) ;
#268 = PRESENTATION_STYLE_ASSIGNMENT (( #288 ) ) ;
#269 = AXIS2_PLACEMENT_3D ( 'NONE', #287, #273, #101 ) ;
#270 = DIRECTION ( 'NONE',  ( -0.000000000000000000, -1.000000000000000000, -0.000000000000000000 ) ) ;
#271 = EDGE_LOOP ( 'NONE', ( #123, #105, #153, #48 ) ) ;
#272 = AXIS2_PLACEMENT_3D ( 'NONE', #117, #63, #39 ) ;
#273 = DIRECTION ( 'NONE',  ( 0.000000000000000000, 1.000000000000000000, 0.000000000000000000 ) ) ;
#274 = ORIENTED_EDGE ( 'NONE', *, *, #12, .F. ) ;
#275 =( NAMED_UNIT ( * ) PLANE_ANGLE_UNIT ( ) SI_UNIT ( $, .RADIAN. ) );
#276 = CARTESIAN_POINT ( 'NONE',  ( -6.123233995736784525E-17, 6.000000000000000888, 0.000000000000000000 ) ) ;
#277 =( GEOMETRIC_REPRESENTATION_CONTEXT ( 3 ) GLOBAL_UNCERTAINTY_ASSIGNED_CONTEXT ( ( #49 ) ) GLOBAL_UNIT_ASSIGNED_CONTEXT ( ( #20, #275, #17 ) ) REPRESENTATION_CONTEXT ( 'NONE', 'WORKASPACE' ) );
#278 = DIRECTION ( 'NONE',  ( -1.000000000000000000, 0.000000000000000000, 0.000000000000000000 ) ) ;
#279 = APPLICATION_PROTOCOL_DEFINITION ( 'draft international standard', 'automotive_design', 1998, #230 ) ;
#280 = SURFACE_SIDE_STYLE ('',( #182 ) ) ;
#281 = DIRECTION ( 'NONE',  ( -2.226630543904284693E-17, 1.000000000000000000, 0.000000000000000000 ) ) ;
#282 =( NAMED_UNIT ( * ) PLANE_ANGLE_UNIT ( ) SI_UNIT ( $, .RADIAN. ) );
#283 =( NAMED_UNIT ( * ) SI_UNIT ( $, .STERADIAN. ) SOLID_ANGLE_UNIT ( ) );
#284 = SURFACE_SIDE_STYLE ('',( #196 ) ) ;
#285 = FILL_AREA_STYLE ('',( #23 ) ) ;
#286 = CIRCLE ( 'NONE', #158, 0.6250000000000000000 ) ;
#287 = CARTESIAN_POINT ( 'NONE',  ( 0.000000000000000000, 3.250000000000000000, 0.000000000000000000 ) ) ;
#288 = SURFACE_STYLE_USAGE ( .BOTH. , #201 ) ;
#289 = DIRECTION ( 'NONE',  ( -0.000000000000000000, -1.000000000000000000, -0.000000000000000000 ) ) ;
#290 = ORIENTED_EDGE ( 'NONE', *, *, #167, .F. ) ;
#291 = AXIS2_PLACEMENT_3D ( 'NONE', #276, #307, #140 ) ;
#292 = ORIENTED_EDGE ( 'NONE', *, *, #103, .F. ) ;
#293 = SURFACE_STYLE_USAGE ( .BOTH. , #176 ) ;
#294 = VERTEX_POINT ( 'NONE', #45 ) ;
#295 = CARTESIAN_POINT ( 'NONE',  ( 0.000000000000000000, 0.000000000000000000, 0.000000000000000000 ) ) ;
#296 = ORIENTED_EDGE ( 'NONE', *, *, #163, .F. ) ;
#297 = LENGTH_MEASURE_WITH_UNIT ( LENGTH_MEASURE( 0.02539999999999999897 ), #253 );
#298 = AXIS2_PLACEMENT_3D ( 'NONE', #248, #150, #200 ) ;
#299 = APPLICATION_PROTOCOL_DEFINITION ( 'draft international standard', 'automotive_design', 1998, #239 ) ;
#300 = FILL_AREA_STYLE ('',( #184 ) ) ;
#301 = MANIFOLD_SOLID_BREP ( 'Revolve - Tool Body (Straight Shanked)', #74 ) ;
#302 =( LENGTH_UNIT ( ) NAMED_UNIT ( * ) SI_UNIT ( $, .METRE. ) );
#303 =( LENGTH_UNIT ( ) NAMED_UNIT ( * ) SI_UNIT ( $, .METRE. ) );
#304 = COLOUR_RGB ( '',0.7921568627450980005, 0.8196078431372548767, 0.9333333333333333481 ) ;
#305 = CARTESIAN_POINT ( 'NONE',  ( 0.000000000000000000, 3.250000000000000000, 0.000000000000000000 ) ) ;
#306 = PRESENTATION_LAYER_ASSIGNMENT (  '', '', ( #56 ) ) ;
#307 = DIRECTION ( 'NONE',  ( -2.226630543904284693E-17, 1.000000000000000000, -0.000000000000000000 ) ) ;
#308 = SURFACE_SIDE_STYLE ('',( #309 ) ) ;
#309 = SURFACE_STYLE_FILL_AREA ( #216 ) ;
ENDSEC;
END-ISO-10303-21;
