ISO-10303-21;
HEADER;
FILE_DESCRIPTION (( 'STEP AP214' ),
    '1' );
FILE_NAME ('82595.STEP',
    '2023-06-30T22:48:51',
    ( '' ),
    ( '' ),
    'SwSTEP 2.0',
    'SolidWorks 2023',
    '' );
FILE_SCHEMA (( 'AUTOMOTIVE_DESIGN' ));
ENDSEC;

DATA;
#1 = ORIENTED_EDGE ( 'NONE', *, *, #212, .T. ) ;
#2 =( LENGTH_UNIT ( ) NAMED_UNIT ( * ) SI_UNIT ( $, .METRE. ) );
#3 = AXIS2_PLACEMENT_3D ( 'NONE', #357, #215, #187 ) ;
#4 = STYLED_ITEM ( 'NONE', ( #132 ), #167 ) ;
#5 = FACE_OUTER_BOUND ( 'NONE', #10, .T. ) ;
#6 = EDGE_CURVE ( 'NONE', #174, #203, #254, .T. ) ;
#7 =( LENGTH_UNIT ( ) NAMED_UNIT ( * ) SI_UNIT ( $, .METRE. ) );
#8 = ORIENTED_EDGE ( 'NONE', *, *, #241, .F. ) ;
#9 = CARTESIAN_POINT ( 'NONE',  ( -1.530808498934191509E-17, 0.1250000000000000278, 0.000000000000000000 ) ) ;
#10 = EDGE_LOOP ( 'NONE', ( #59, #88, #234, #8, #323 ) ) ;
#11 = SURFACE_STYLE_FILL_AREA ( #182 ) ;
#12 = ADVANCED_FACE ( 'NONE', ( #184 ), #101, .T. ) ;
#13 = CARTESIAN_POINT ( 'NONE',  ( -1.530808498934191509E-17, 0.1250000000000000278, 0.000000000000000000 ) ) ;
#14 = COLOUR_RGB ( '',1.000000000000000000, 0.000000000000000000, 0.000000000000000000 ) ;
#15 =( NAMED_UNIT ( * ) SI_UNIT ( $, .STERADIAN. ) SOLID_ANGLE_UNIT ( ) );
#16 = DIRECTION ( 'NONE',  ( 0.000000000000000000, 0.000000000000000000, -1.000000000000000000 ) ) ;
#17 = ORIENTED_EDGE ( 'NONE', *, *, #212, .F. ) ;
#18 = EDGE_CURVE ( 'NONE', #140, #48, #163, .T. ) ;
#19 = PRESENTATION_LAYER_ASSIGNMENT (  '', '', ( #269 ) ) ;
#20 = VECTOR ( 'NONE', #272, 39.37007874015748143 ) ;
#21 =( LENGTH_UNIT ( ) NAMED_UNIT ( * ) SI_UNIT ( $, .METRE. ) );
#22 = SURFACE_STYLE_FILL_AREA ( #257 ) ;
#23 = SURFACE_STYLE_USAGE ( .BOTH. , #306 ) ;
#24 =( NAMED_UNIT ( * ) SI_UNIT ( $, .STERADIAN. ) SOLID_ANGLE_UNIT ( ) );
#25 = MECHANICAL_DESIGN_GEOMETRIC_PRESENTATION_REPRESENTATION (  '', ( #236 ), #223 ) ;
#26 = CIRCLE ( 'NONE', #68, 0.1250000000000000278 ) ;
#27 =( CONVERSION_BASED_UNIT ( 'INCH', #366 ) LENGTH_UNIT ( ) NAMED_UNIT ( #242 ) );
#28 = LENGTH_MEASURE_WITH_UNIT ( LENGTH_MEASURE( 0.02539999999999999897 ), #50 );
#29 =( CONVERSION_BASED_UNIT ( 'INCH', #333 ) LENGTH_UNIT ( ) NAMED_UNIT ( #124 ) );
#30 = CIRCLE ( 'NONE', #219, 0.1249999999999999029 ) ;
#31 = MECHANICAL_DESIGN_GEOMETRIC_PRESENTATION_REPRESENTATION (  '', ( #226 ), #335 ) ;
#32 = ORIENTED_EDGE ( 'NONE', *, *, #53, .F. ) ;
#33 = FACE_OUTER_BOUND ( 'NONE', #294, .T. ) ;
#34 = FILL_AREA_STYLE ('',( #342 ) ) ;
#35 = ORIENTED_EDGE ( 'NONE', *, *, #111, .F. ) ;
#36 = EDGE_CURVE ( 'NONE', #138, #325, #54, .T. ) ;
#37 = ORIENTED_EDGE ( 'NONE', *, *, #369, .F. ) ;
#38 = MANIFOLD_SOLID_BREP ( 'Revolve - Cutting Edge', #365 ) ;
#39 = DIRECTION ( 'NONE',  ( -0.000000000000000000, -1.000000000000000000, -0.000000000000000000 ) ) ;
#40 = MECHANICAL_DESIGN_GEOMETRIC_PRESENTATION_REPRESENTATION (  '', ( #312 ), #288 ) ;
#41 = MECHANICAL_DESIGN_GEOMETRIC_PRESENTATION_REPRESENTATION (  '', ( #4 ), #296 ) ;
#42 =( NAMED_UNIT ( * ) SI_UNIT ( $, .STERADIAN. ) SOLID_ANGLE_UNIT ( ) );
#43 = CARTESIAN_POINT ( 'NONE',  ( 0.000000000000000000, 0.1250000000000001110, 0.000000000000000000 ) ) ;
#44 = DIRECTION ( 'NONE',  ( -1.150609540472573494E-16, 1.000000000000000000, -0.000000000000000000 ) ) ;
#45 = FILL_AREA_STYLE_COLOUR ( '', #78 ) ;
#46 = APPLICATION_PROTOCOL_DEFINITION ( 'draft international standard', 'automotive_design', 1998, #337 ) ;
#47 = DIRECTION ( 'NONE',  ( 0.000000000000000000, 0.000000000000000000, -1.000000000000000000 ) ) ;
#48 = VERTEX_POINT ( 'NONE', #76 ) ;
#49 = CARTESIAN_POINT ( 'NONE',  ( 0.1250000000000000278, 0.1250000000000001110, 0.000000000000000000 ) ) ;
#50 =( LENGTH_UNIT ( ) NAMED_UNIT ( * ) SI_UNIT ( $, .METRE. ) );
#51 = CYLINDRICAL_SURFACE ( 'NONE', #139, 0.1249999999999999584 ) ;
#52 = UNCERTAINTY_MEASURE_WITH_UNIT (LENGTH_MEASURE( 1.000000000000000082E-05 ), #107, 'distance_accuracy_value', 'NONE');
#53 = EDGE_CURVE ( 'NONE', #265, #145, #291, .T. ) ;
#54 = CIRCLE ( 'NONE', #268, 0.1250000000000000278 ) ;
#55 = PRESENTATION_LAYER_ASSIGNMENT (  '', '', ( #331 ) ) ;
#56 = PRESENTATION_STYLE_ASSIGNMENT (( #315 ) ) ;
#57 = ORIENTED_EDGE ( 'NONE', *, *, #6, .T. ) ;
#58 = AXIS2_PLACEMENT_3D ( 'NONE', #158, #209, #247 ) ;
#59 = ORIENTED_EDGE ( 'NONE', *, *, #177, .F. ) ;
#60 = PRODUCT_RELATED_PRODUCT_CATEGORY ( 'part', '', ( #134 ) ) ;
#61 =( NAMED_UNIT ( * ) PLANE_ANGLE_UNIT ( ) SI_UNIT ( $, .RADIAN. ) );
#62 =( NAMED_UNIT ( * ) PLANE_ANGLE_UNIT ( ) SI_UNIT ( $, .RADIAN. ) );
#63 = ORIENTED_EDGE ( 'NONE', *, *, #369, .T. ) ;
#64 = PRESENTATION_STYLE_ASSIGNMENT (( #202 ) ) ;
#65 = ORIENTED_EDGE ( 'NONE', *, *, #292, .F. ) ;
#66 = DIRECTION ( 'NONE',  ( -1.000000000000000000, 0.000000000000000000, 0.000000000000000000 ) ) ;
#67 = ADVANCED_FACE ( 'NONE', ( #192 ), #229, .F. ) ;
#68 = AXIS2_PLACEMENT_3D ( 'NONE', #43, #329, #349 ) ;
#69 = EDGE_LOOP ( 'NONE', ( #318, #129, #248, #37 ) ) ;
#70 = CARTESIAN_POINT ( 'NONE',  ( 0.1249999999999999029, 1.250000000000000000, 1.530808498934186887E-17 ) ) ;
#71 = DIRECTION ( 'NONE',  ( 0.000000000000000000, 0.000000000000000000, -1.000000000000000000 ) ) ;
#72 = FACE_OUTER_BOUND ( 'NONE', #355, .T. ) ;
#73 = MECHANICAL_DESIGN_GEOMETRIC_PRESENTATION_REPRESENTATION (  '', ( #331 ), #119 ) ;
#74 = APPLICATION_PROTOCOL_DEFINITION ( 'draft international standard', 'automotive_design', 1998, #251 ) ;
#75 = EDGE_CURVE ( 'NONE', #145, #327, #170, .T. ) ;
#76 = CARTESIAN_POINT ( 'NONE',  ( 1.530808498934190893E-17, 1.250000000000000000, 0.1249999999999999029 ) ) ;
#77 = AXIS2_PLACEMENT_3D ( 'NONE', #98, #128, #71 ) ;
#78 = COLOUR_RGB ( '',1.000000000000000000, 0.000000000000000000, 0.000000000000000000 ) ;
#79 = AXIS2_PLACEMENT_3D ( 'NONE', #300, #44, #66 ) ;
#80 = UNCERTAINTY_MEASURE_WITH_UNIT (LENGTH_MEASURE( 1.000000000000000082E-05 ), #27, 'distance_accuracy_value', 'NONE');
#81 = CARTESIAN_POINT ( 'NONE',  ( 0.000000000000000000, 1.250000000000000000, 0.000000000000000000 ) ) ;
#82 =( NAMED_UNIT ( * ) PLANE_ANGLE_UNIT ( ) SI_UNIT ( $, .RADIAN. ) );
#83 = CARTESIAN_POINT ( 'NONE',  ( 2.449293598294705921E-16, 3.000000000000000444, 0.000000000000000000 ) ) ;
#84 =( NAMED_UNIT ( * ) PLANE_ANGLE_UNIT ( ) SI_UNIT ( $, .RADIAN. ) );
#85 = ORIENTED_EDGE ( 'NONE', *, *, #150, .F. ) ;
#86 =( NAMED_UNIT ( * ) SI_UNIT ( $, .STERADIAN. ) SOLID_ANGLE_UNIT ( ) );
#87 = FACE_OUTER_BOUND ( 'NONE', #69, .T. ) ;
#88 = ORIENTED_EDGE ( 'NONE', *, *, #111, .T. ) ;
#89 = DIRECTION ( 'NONE',  ( 0.000000000000000000, 0.000000000000000000, -1.000000000000000000 ) ) ;
#90 = ORIENTED_EDGE ( 'NONE', *, *, #75, .F. ) ;
#91 = CARTESIAN_POINT ( 'NONE',  ( 0.000000000000000000, 0.1250000000000001110, 0.000000000000000000 ) ) ;
#92 = DIRECTION ( 'NONE',  ( -0.000000000000000000, -1.000000000000000000, -0.000000000000000000 ) ) ;
#93 = SURFACE_SIDE_STYLE ('',( #11 ) ) ;
#94 = VECTOR ( 'NONE', #373, 39.37007874015748143 ) ;
#95 = CARTESIAN_POINT ( 'NONE',  ( -0.1249999999999994171, 3.000000000000000444, 0.000000000000000000 ) ) ;
#96 = ORIENTED_EDGE ( 'NONE', *, *, #307, .T. ) ;
#97 = PLANE ( 'NONE',  #186 ) ;
#98 = CARTESIAN_POINT ( 'NONE',  ( 0.000000000000000000, 0.1250000000000001110, 0.000000000000000000 ) ) ;
#99 = COLOUR_RGB ( '',0.7921568627450980005, 0.8196078431372548767, 0.9333333333333333481 ) ;
#100 = FILL_AREA_STYLE ('',( #45 ) ) ;
#101 = CYLINDRICAL_SURFACE ( 'NONE', #3, 0.1249999999999995559 ) ;
#102 = COLOUR_RGB ( '',0.7921568627450980005, 0.8196078431372548767, 0.9333333333333333481 ) ;
#103 = SURFACE_STYLE_FILL_AREA ( #137 ) ;
#104 = DIRECTION ( 'NONE',  ( -1.000000000000000000, 0.000000000000000000, 0.000000000000000000 ) ) ;
#105 = ADVANCED_FACE ( 'NONE', ( #336 ), #372, .T. ) ;
#106 = DIMENSIONAL_EXPONENTS ( 1.000000000000000000, 0.000000000000000000, 0.000000000000000000, 0.000000000000000000, 0.000000000000000000, 0.000000000000000000, 0.000000000000000000 ) ;
#107 =( CONVERSION_BASED_UNIT ( 'INCH', #28 ) LENGTH_UNIT ( ) NAMED_UNIT ( #216 ) );
#108 = VECTOR ( 'NONE', #92, 39.37007874015748143 ) ;
#109 = UNCERTAINTY_MEASURE_WITH_UNIT (LENGTH_MEASURE( 1.000000000000000082E-05 ), #282, 'distance_accuracy_value', 'NONE');
#110 = SURFACE_SIDE_STYLE ('',( #22 ) ) ;
#111 = EDGE_CURVE ( 'NONE', #48, #140, #30, .T. ) ;
#112 = CIRCLE ( 'NONE', #371, 0.1249999999999994588 ) ;
#113 = DIRECTION ( 'NONE',  ( -1.150609540472573494E-16, 1.000000000000000000, -0.000000000000000000 ) ) ;
#114 = CARTESIAN_POINT ( 'NONE',  ( 1.530808498934191817E-17, 0.1250000000000001110, 0.1250000000000000278 ) ) ;
#115 = DIRECTION ( 'NONE',  ( 1.000000000000000000, 0.000000000000000000, 0.000000000000000000 ) ) ;
#116 = SURFACE_STYLE_USAGE ( .BOTH. , #93 ) ;
#117 = SURFACE_STYLE_FILL_AREA ( #34 ) ;
#118 = EDGE_LOOP ( 'NONE', ( #345, #176, #271, #235, #65 ) ) ;
#119 =( GEOMETRIC_REPRESENTATION_CONTEXT ( 3 ) GLOBAL_UNCERTAINTY_ASSIGNED_CONTEXT ( ( #80 ) ) GLOBAL_UNIT_ASSIGNED_CONTEXT ( ( #27, #82, #368 ) ) REPRESENTATION_CONTEXT ( 'NONE', 'WORKASPACE' ) );
#120 = DIRECTION ( 'NONE',  ( 0.000000000000000000, 0.000000000000000000, -1.000000000000000000 ) ) ;
#121 = CARTESIAN_POINT ( 'NONE',  ( 0.000000000000000000, 0.1250000000000001110, 0.000000000000000000 ) ) ;
#122 = SPHERICAL_SURFACE ( 'NONE', #135, 0.1250000000000000278 ) ;
#123 = ORIENTED_EDGE ( 'NONE', *, *, #36, .T. ) ;
#124 = DIMENSIONAL_EXPONENTS ( 1.000000000000000000, 0.000000000000000000, 0.000000000000000000, 0.000000000000000000, 0.000000000000000000, 0.000000000000000000, 0.000000000000000000 ) ;
#125 = PRESENTATION_STYLE_ASSIGNMENT (( #116 ) ) ;
#126 = FILL_AREA_STYLE_COLOUR ( '', #102 ) ;
#127 = ADVANCED_FACE ( 'NONE', ( #5 ), #317, .T. ) ;
#128 = DIRECTION ( 'NONE',  ( -0.000000000000000000, -1.000000000000000000, -0.000000000000000000 ) ) ;
#129 = ORIENTED_EDGE ( 'NONE', *, *, #313, .T. ) ;
#130 = ADVANCED_FACE ( 'NONE', ( #359 ), #122, .T. ) ;
#131 =( NAMED_UNIT ( * ) SI_UNIT ( $, .STERADIAN. ) SOLID_ANGLE_UNIT ( ) );
#132 = PRESENTATION_STYLE_ASSIGNMENT (( #141 ) ) ;
#133 = DIRECTION ( 'NONE',  ( 1.000000000000000000, 1.150609540472573494E-16, 0.000000000000000000 ) ) ;
#134 = PRODUCT ( '82595', '82595', '', ( #304 ) ) ;
#135 = AXIS2_PLACEMENT_3D ( 'NONE', #9, #213, #356 ) ;
#136 = SURFACE_STYLE_FILL_AREA ( #230 ) ;
#137 = FILL_AREA_STYLE ('',( #275 ) ) ;
#138 = VERTEX_POINT ( 'NONE', #49 ) ;
#139 = AXIS2_PLACEMENT_3D ( 'NONE', #370, #160, #293 ) ;
#140 = VERTEX_POINT ( 'NONE', #217 ) ;
#141 = SURFACE_STYLE_USAGE ( .BOTH. , #168 ) ;
#142 = ORIENTED_EDGE ( 'NONE', *, *, #150, .T. ) ;
#143 =( NAMED_UNIT ( * ) PLANE_ANGLE_UNIT ( ) SI_UNIT ( $, .RADIAN. ) );
#144 = DIRECTION ( 'NONE',  ( 0.000000000000000000, 0.000000000000000000, -1.000000000000000000 ) ) ;
#145 = VERTEX_POINT ( 'NONE', #95 ) ;
#146 = PRESENTATION_LAYER_ASSIGNMENT (  '', '', ( #4 ) ) ;
#147 = CIRCLE ( 'NONE', #245, 0.1250000000000000278 ) ;
#148 =( LENGTH_UNIT ( ) NAMED_UNIT ( * ) SI_UNIT ( $, .METRE. ) );
#149 = VERTEX_POINT ( 'NONE', #70 ) ;
#150 = EDGE_CURVE ( 'NONE', #203, #325, #262, .T. ) ;
#151 = SURFACE_STYLE_USAGE ( .BOTH. , #220 ) ;
#152 = ORIENTED_EDGE ( 'NONE', *, *, #75, .T. ) ;
#153 = MANIFOLD_SOLID_BREP ( 'Revolve - Tool Body (Straight Shanked)', #286 ) ;
#154 = DIMENSIONAL_EXPONENTS ( 1.000000000000000000, 0.000000000000000000, 0.000000000000000000, 0.000000000000000000, 0.000000000000000000, 0.000000000000000000, 0.000000000000000000 ) ;
#155 = DIRECTION ( 'NONE',  ( 1.000000000000000000, 0.000000000000000000, -1.224646799147353207E-16 ) ) ;
#156 = MECHANICAL_DESIGN_GEOMETRIC_PRESENTATION_REPRESENTATION (  '', ( #159 ), #314 ) ;
#157 = SHAPE_DEFINITION_REPRESENTATION ( #162, #221 ) ;
#158 = CARTESIAN_POINT ( 'NONE',  ( 0.000000000000000000, 0.000000000000000000, 0.000000000000000000 ) ) ;
#159 = STYLED_ITEM ( 'NONE', ( #361 ), #153 ) ;
#160 = DIRECTION ( 'NONE',  ( -0.000000000000000000, -1.000000000000000000, -0.000000000000000000 ) ) ;
#161 = CARTESIAN_POINT ( 'NONE',  ( 0.1249999999999999029, 3.000000000000000444, 0.000000000000000000 ) ) ;
#162 = PRODUCT_DEFINITION_SHAPE ( 'NONE', 'NONE',  #260 ) ;
#163 = CIRCLE ( 'NONE', #218, 0.1249999999999999029 ) ;
#164 = COLOUR_RGB ( '',1.000000000000000000, 0.000000000000000000, 0.000000000000000000 ) ;
#165 = PRESENTATION_LAYER_ASSIGNMENT (  '', '', ( #226 ) ) ;
#166 = DIRECTION ( 'NONE',  ( -1.000000000000000000, 0.000000000000000000, 0.000000000000000000 ) ) ;
#167 = ADVANCED_FACE ( 'NONE', ( #171 ), #51, .T. ) ;
#168 = SURFACE_SIDE_STYLE ('',( #103 ) ) ;
#169 = ORIENTED_EDGE ( 'NONE', *, *, #36, .F. ) ;
#170 = CIRCLE ( 'NONE', #334, 0.1249999999999996531 ) ;
#171 = FACE_OUTER_BOUND ( 'NONE', #118, .T. ) ;
#172 = CIRCLE ( 'NONE', #199, 0.1249999999999996531 ) ;
#173 = DIRECTION ( 'NONE',  ( 0.000000000000000000, 0.000000000000000000, 1.000000000000000000 ) ) ;
#174 = VERTEX_POINT ( 'NONE', #114 ) ;
#175 = CARTESIAN_POINT ( 'NONE',  ( 0.000000000000000000, 1.250000000000000000, 0.000000000000000000 ) ) ;
#176 = ORIENTED_EDGE ( 'NONE', *, *, #177, .T. ) ;
#177 = EDGE_CURVE ( 'NONE', #48, #174, #343, .T. ) ;
#178 = CARTESIAN_POINT ( 'NONE',  ( -7.654042494670956004E-18, 0.000000000000000000, 0.000000000000000000 ) ) ;
#179 = PRESENTATION_STYLE_ASSIGNMENT (( #151 ) ) ;
#180 = DIRECTION ( 'NONE',  ( 0.000000000000000000, 1.000000000000000000, 0.000000000000000000 ) ) ;
#181 = CARTESIAN_POINT ( 'NONE',  ( -1.530808498934191509E-17, 0.1250000000000000278, 0.000000000000000000 ) ) ;
#182 = FILL_AREA_STYLE ('',( #322 ) ) ;
#183 = SURFACE_STYLE_FILL_AREA ( #100 ) ;
#184 = FACE_OUTER_BOUND ( 'NONE', #352, .T. ) ;
#185 = VECTOR ( 'NONE', #311, 39.37007874015748143 ) ;
#186 = AXIS2_PLACEMENT_3D ( 'NONE', #175, #180, #298 ) ;
#187 = DIRECTION ( 'NONE',  ( -1.000000000000000000, 0.000000000000000000, 0.000000000000000000 ) ) ;
#188 = DIRECTION ( 'NONE',  ( -1.000000000000000000, -1.150609540472573494E-16, 0.000000000000000000 ) ) ;
#189 = CIRCLE ( 'NONE', #244, 0.1250000000000000278 ) ;
#190 = UNCERTAINTY_MEASURE_WITH_UNIT (LENGTH_MEASURE( 1.000000000000000082E-05 ), #332, 'distance_accuracy_value', 'NONE');
#191 =( GEOMETRIC_REPRESENTATION_CONTEXT ( 3 ) GLOBAL_UNCERTAINTY_ASSIGNED_CONTEXT ( ( #284 ) ) GLOBAL_UNIT_ASSIGNED_CONTEXT ( ( #214, #61, #278 ) ) REPRESENTATION_CONTEXT ( 'NONE', 'WORKASPACE' ) );
#192 = FACE_OUTER_BOUND ( 'NONE', #341, .T. ) ;
#193 = DIRECTION ( 'NONE',  ( 1.000000000000000000, 0.000000000000000000, 0.000000000000000000 ) ) ;
#194 = ADVANCED_FACE ( 'NONE', ( #87 ), #231, .T. ) ;
#195 = UNCERTAINTY_MEASURE_WITH_UNIT (LENGTH_MEASURE( 1.000000000000000082E-05 ), #29, 'distance_accuracy_value', 'NONE');
#196 = PRESENTATION_LAYER_ASSIGNMENT (  '', '', ( #312 ) ) ;
#197 = FILL_AREA_STYLE_COLOUR ( '', #164 ) ;
#198 =( GEOMETRIC_REPRESENTATION_CONTEXT ( 3 ) GLOBAL_UNCERTAINTY_ASSIGNED_CONTEXT ( ( #190 ) ) GLOBAL_UNIT_ASSIGNED_CONTEXT ( ( #332, #354, #246 ) ) REPRESENTATION_CONTEXT ( 'NONE', 'WORKASPACE' ) );
#199 = AXIS2_PLACEMENT_3D ( 'NONE', #270, #243, #324 ) ;
#200 = CARTESIAN_POINT ( 'NONE',  ( -0.1249999999999993200, 3.000000000000000444, 0.000000000000000000 ) ) ;
#201 = ORIENTED_EDGE ( 'NONE', *, *, #313, .F. ) ;
#202 = SURFACE_STYLE_USAGE ( .BOTH. , #344 ) ;
#203 = VERTEX_POINT ( 'NONE', #287 ) ;
#204 = DIRECTION ( 'NONE',  ( -1.000000000000000000, 0.000000000000000000, 0.000000000000000000 ) ) ;
#205 = ORIENTED_EDGE ( 'NONE', *, *, #241, .T. ) ;
#206 = CARTESIAN_POINT ( 'NONE',  ( 0.1249999999999997918, 3.000000000000000444, 1.530808498934185962E-17 ) ) ;
#207 = ORIENTED_EDGE ( 'NONE', *, *, #326, .T. ) ;
#208 = CARTESIAN_POINT ( 'NONE',  ( 0.000000000000000000, 0.1250000000000001110, -0.1250000000000000278 ) ) ;
#209 = DIRECTION ( 'NONE',  ( -0.000000000000000000, -1.000000000000000000, -0.000000000000000000 ) ) ;
#210 = LENGTH_MEASURE_WITH_UNIT ( LENGTH_MEASURE( 0.02539999999999999897 ), #2 );
#211 = DIMENSIONAL_EXPONENTS ( 1.000000000000000000, 0.000000000000000000, 0.000000000000000000, 0.000000000000000000, 0.000000000000000000, 0.000000000000000000, 0.000000000000000000 ) ;
#212 = EDGE_CURVE ( 'NONE', #265, #149, #112, .T. ) ;
#213 = DIRECTION ( 'NONE',  ( 0.000000000000000000, 0.000000000000000000, 1.000000000000000000 ) ) ;
#214 =( CONVERSION_BASED_UNIT ( 'INCH', #239 ) LENGTH_UNIT ( ) NAMED_UNIT ( #237 ) );
#215 = DIRECTION ( 'NONE',  ( -1.150609540472573494E-16, 1.000000000000000000, -0.000000000000000000 ) ) ;
#216 = DIMENSIONAL_EXPONENTS ( 1.000000000000000000, 0.000000000000000000, 0.000000000000000000, 0.000000000000000000, 0.000000000000000000, 0.000000000000000000, 0.000000000000000000 ) ;
#217 = CARTESIAN_POINT ( 'NONE',  ( 0.000000000000000000, 1.250000000000000000, -0.1249999999999999029 ) ) ;
#218 = AXIS2_PLACEMENT_3D ( 'NONE', #305, #276, #47 ) ;
#219 = AXIS2_PLACEMENT_3D ( 'NONE', #81, #233, #144 ) ;
#220 = SURFACE_SIDE_STYLE ('',( #183 ) ) ;
#221 = ADVANCED_BREP_SHAPE_REPRESENTATION ( '82595', ( #38, #153, #340 ), #191 ) ;
#222 = PLANE ( 'NONE',  #308 ) ;
#223 =( GEOMETRIC_REPRESENTATION_CONTEXT ( 3 ) GLOBAL_UNCERTAINTY_ASSIGNED_CONTEXT ( ( #310 ) ) GLOBAL_UNIT_ASSIGNED_CONTEXT ( ( #350, #62, #15 ) ) REPRESENTATION_CONTEXT ( 'NONE', 'WORKASPACE' ) );
#224 = UNCERTAINTY_MEASURE_WITH_UNIT (LENGTH_MEASURE( 1.000000000000000082E-05 ), #295, 'distance_accuracy_value', 'NONE');
#225 = ADVANCED_FACE ( 'NONE', ( #33 ), #222, .F. ) ;
#226 = STYLED_ITEM ( 'NONE', ( #125 ), #297 ) ;
#227 = DIRECTION ( 'NONE',  ( -1.000000000000000000, 0.000000000000000000, 0.000000000000000000 ) ) ;
#228 = DIMENSIONAL_EXPONENTS ( 1.000000000000000000, 0.000000000000000000, 0.000000000000000000, 0.000000000000000000, 0.000000000000000000, 0.000000000000000000, 0.000000000000000000 ) ;
#229 = PLANE ( 'NONE',  #360 ) ;
#230 = FILL_AREA_STYLE ('',( #197 ) ) ;
#231 = CYLINDRICAL_SURFACE ( 'NONE', #280, 0.1249999999999995559 ) ;
#232 = COLOUR_RGB ( '',1.000000000000000000, 0.000000000000000000, 0.000000000000000000 ) ;
#233 = DIRECTION ( 'NONE',  ( -0.000000000000000000, -1.000000000000000000, -0.000000000000000000 ) ) ;
#234 = ORIENTED_EDGE ( 'NONE', *, *, #292, .T. ) ;
#235 = ORIENTED_EDGE ( 'NONE', *, *, #326, .F. ) ;
#236 = STYLED_ITEM ( 'NONE', ( #64 ), #127 ) ;
#237 = DIMENSIONAL_EXPONENTS ( 1.000000000000000000, 0.000000000000000000, 0.000000000000000000, 0.000000000000000000, 0.000000000000000000, 0.000000000000000000, 0.000000000000000000 ) ;
#238 = LENGTH_MEASURE_WITH_UNIT ( LENGTH_MEASURE( 0.02539999999999999897 ), #148 );
#239 = LENGTH_MEASURE_WITH_UNIT ( LENGTH_MEASURE( 0.02539999999999999897 ), #7 );
#240 = LINE ( 'NONE', #266, #108 ) ;
#241 = EDGE_CURVE ( 'NONE', #203, #347, #189, .T. ) ;
#242 = DIMENSIONAL_EXPONENTS ( 1.000000000000000000, 0.000000000000000000, 0.000000000000000000, 0.000000000000000000, 0.000000000000000000, 0.000000000000000000, 0.000000000000000000 ) ;
#243 = DIRECTION ( 'NONE',  ( -1.150609540472573494E-16, 1.000000000000000000, -0.000000000000000000 ) ) ;
#244 = AXIS2_PLACEMENT_3D ( 'NONE', #121, #353, #89 ) ;
#245 = AXIS2_PLACEMENT_3D ( 'NONE', #91, #39, #120 ) ;
#246 =( NAMED_UNIT ( * ) SI_UNIT ( $, .STERADIAN. ) SOLID_ANGLE_UNIT ( ) );
#247 = DIRECTION ( 'NONE',  ( 0.000000000000000000, 0.000000000000000000, -1.000000000000000000 ) ) ;
#248 = ORIENTED_EDGE ( 'NONE', *, *, #53, .T. ) ;
#249 = SURFACE_STYLE_FILL_AREA ( #330 ) ;
#250 = PRODUCT_DEFINITION_CONTEXT ( 'detailed design', #251, 'design' ) ;
#251 = APPLICATION_CONTEXT ( 'automotive_design' ) ;
#252 = EDGE_CURVE ( 'NONE', #149, #327, #346, .T. ) ;
#253 = DIRECTION ( 'NONE',  ( -1.150609540472573494E-16, 1.000000000000000000, -0.000000000000000000 ) ) ;
#254 = CIRCLE ( 'NONE', #77, 0.1250000000000000278 ) ;
#255 = MECHANICAL_DESIGN_GEOMETRIC_PRESENTATION_REPRESENTATION (  '', ( #269 ), #198 ) ;
#256 = LENGTH_MEASURE_WITH_UNIT ( LENGTH_MEASURE( 0.02539999999999999897 ), #364 );
#257 = FILL_AREA_STYLE ('',( #263 ) ) ;
#258 =( LENGTH_UNIT ( ) NAMED_UNIT ( * ) SI_UNIT ( $, .METRE. ) );
#259 = EDGE_LOOP ( 'NONE', ( #57, #142, #169, #96 ) ) ;
#260 = PRODUCT_DEFINITION ( 'UNKNOWN', '', #290, #250 ) ;
#261 = CARTESIAN_POINT ( 'NONE',  ( 4.462860294121709536E-16, 1.250000000000000000, 0.000000000000000000 ) ) ;
#262 = CIRCLE ( 'NONE', #277, 0.1250000000000000278 ) ;
#263 = FILL_AREA_STYLE_COLOUR ( '', #99 ) ;
#264 = CARTESIAN_POINT ( 'NONE',  ( 4.462860294121709536E-16, 1.250000000000000000, 0.000000000000000000 ) ) ;
#265 = VERTEX_POINT ( 'NONE', #351 ) ;
#266 = CARTESIAN_POINT ( 'NONE',  ( 0.000000000000000000, 0.000000000000000000, -0.1249999999999999584 ) ) ;
#267 = CARTESIAN_POINT ( 'NONE',  ( -1.530808498934191509E-17, 0.1250000000000000278, 0.000000000000000000 ) ) ;
#268 = AXIS2_PLACEMENT_3D ( 'NONE', #13, #16, #104 ) ;
#269 = STYLED_ITEM ( 'NONE', ( #179 ), #130 ) ;
#270 = CARTESIAN_POINT ( 'NONE',  ( 2.449293598294705921E-16, 3.000000000000000444, 0.000000000000000000 ) ) ;
#271 = ORIENTED_EDGE ( 'NONE', *, *, #307, .F. ) ;
#272 = DIRECTION ( 'NONE',  ( -1.150609540472573494E-16, 1.000000000000000000, -0.000000000000000000 ) ) ;
#273 =( LENGTH_UNIT ( ) NAMED_UNIT ( * ) SI_UNIT ( $, .METRE. ) );
#274 = CARTESIAN_POINT ( 'NONE',  ( 0.1249999999999999029, 3.000000000000000444, 1.530808498934186887E-17 ) ) ;
#275 = FILL_AREA_STYLE_COLOUR ( '', #232 ) ;
#276 = DIRECTION ( 'NONE',  ( -0.000000000000000000, -1.000000000000000000, -0.000000000000000000 ) ) ;
#277 = AXIS2_PLACEMENT_3D ( 'NONE', #181, #299, #155 ) ;
#278 =( NAMED_UNIT ( * ) SI_UNIT ( $, .STERADIAN. ) SOLID_ANGLE_UNIT ( ) );
#279 = EDGE_LOOP ( 'NONE', ( #85, #205, #207, #123 ) ) ;
#280 = AXIS2_PLACEMENT_3D ( 'NONE', #83, #316, #166 ) ;
#281 =( NAMED_UNIT ( * ) PLANE_ANGLE_UNIT ( ) SI_UNIT ( $, .RADIAN. ) );
#282 =( CONVERSION_BASED_UNIT ( 'INCH', #256 ) LENGTH_UNIT ( ) NAMED_UNIT ( #211 ) );
#283 = CARTESIAN_POINT ( 'NONE',  ( 1.530808498934191201E-17, 0.000000000000000000, 0.1249999999999999584 ) ) ;
#284 = UNCERTAINTY_MEASURE_WITH_UNIT (LENGTH_MEASURE( 1.000000000000000082E-05 ), #214, 'distance_accuracy_value', 'NONE');
#285 = SURFACE_SIDE_STYLE ('',( #136 ) ) ;
#286 = CLOSED_SHELL ( 'NONE', ( #12, #225, #194, #67 ) ) ;
#287 = CARTESIAN_POINT ( 'NONE',  ( -0.1250000000000000278, 0.1250000000000001110, 1.530808498934191817E-17 ) ) ;
#288 =( GEOMETRIC_REPRESENTATION_CONTEXT ( 3 ) GLOBAL_UNCERTAINTY_ASSIGNED_CONTEXT ( ( #109 ) ) GLOBAL_UNIT_ASSIGNED_CONTEXT ( ( #282, #84, #24 ) ) REPRESENTATION_CONTEXT ( 'NONE', 'WORKASPACE' ) );
#289 = ORIENTED_EDGE ( 'NONE', *, *, #18, .F. ) ;
#290 = PRODUCT_DEFINITION_FORMATION_WITH_SPECIFIED_SOURCE ( 'ANY', '', #134, .NOT_KNOWN. ) ;
#291 = LINE ( 'NONE', #200, #185 ) ;
#292 = EDGE_CURVE ( 'NONE', #140, #347, #240, .T. ) ;
#293 = DIRECTION ( 'NONE',  ( 0.000000000000000000, 0.000000000000000000, -1.000000000000000000 ) ) ;
#294 = EDGE_LOOP ( 'NONE', ( #17, #201 ) ) ;
#295 =( CONVERSION_BASED_UNIT ( 'INCH', #210 ) LENGTH_UNIT ( ) NAMED_UNIT ( #154 ) );
#296 =( GEOMETRIC_REPRESENTATION_CONTEXT ( 3 ) GLOBAL_UNCERTAINTY_ASSIGNED_CONTEXT ( ( #195 ) ) GLOBAL_UNIT_ASSIGNED_CONTEXT ( ( #29, #363, #131 ) ) REPRESENTATION_CONTEXT ( 'NONE', 'WORKASPACE' ) );
#297 = ADVANCED_FACE ( 'NONE', ( #72 ), #97, .T. ) ;
#298 = DIRECTION ( 'NONE',  ( 0.000000000000000000, -0.000000000000000000, 1.000000000000000000 ) ) ;
#299 = DIRECTION ( 'NONE',  ( 1.224646799147353207E-16, -0.000000000000000000, 1.000000000000000000 ) ) ;
#300 = CARTESIAN_POINT ( 'NONE',  ( 4.462860294121709536E-16, 1.250000000000000000, 0.000000000000000000 ) ) ;
#301 = LENGTH_MEASURE_WITH_UNIT ( LENGTH_MEASURE( 0.02539999999999999897 ), #273 );
#302 = CARTESIAN_POINT ( 'NONE',  ( 0.000000000000000000, 0.000000000000000000, 0.000000000000000000 ) ) ;
#303 = PRESENTATION_LAYER_ASSIGNMENT (  '', '', ( #236 ) ) ;
#304 = PRODUCT_CONTEXT ( 'NONE', #337, 'mechanical' ) ;
#305 = CARTESIAN_POINT ( 'NONE',  ( 0.000000000000000000, 1.250000000000000000, 0.000000000000000000 ) ) ;
#306 = SURFACE_SIDE_STYLE ('',( #249 ) ) ;
#307 = EDGE_CURVE ( 'NONE', #138, #174, #26, .T. ) ;
#308 = AXIS2_PLACEMENT_3D ( 'NONE', #264, #319, #188 ) ;
#309 = DIRECTION ( 'NONE',  ( 1.150609540472573494E-16, -1.000000000000000000, 0.000000000000000000 ) ) ;
#310 = UNCERTAINTY_MEASURE_WITH_UNIT (LENGTH_MEASURE( 1.000000000000000082E-05 ), #350, 'distance_accuracy_value', 'NONE');
#311 = DIRECTION ( 'NONE',  ( -1.150609540472573494E-16, 1.000000000000000000, -0.000000000000000000 ) ) ;
#312 = STYLED_ITEM ( 'NONE', ( #362 ), #38 ) ;
#313 = EDGE_CURVE ( 'NONE', #149, #265, #348, .T. ) ;
#314 =( GEOMETRIC_REPRESENTATION_CONTEXT ( 3 ) GLOBAL_UNCERTAINTY_ASSIGNED_CONTEXT ( ( #52 ) ) GLOBAL_UNIT_ASSIGNED_CONTEXT ( ( #107, #281, #86 ) ) REPRESENTATION_CONTEXT ( 'NONE', 'WORKASPACE' ) );
#315 = SURFACE_STYLE_USAGE ( .BOTH. , #285 ) ;
#316 = DIRECTION ( 'NONE',  ( -1.150609540472573494E-16, 1.000000000000000000, -0.000000000000000000 ) ) ;
#317 = CYLINDRICAL_SURFACE ( 'NONE', #58, 0.1249999999999999584 ) ;
#318 = ORIENTED_EDGE ( 'NONE', *, *, #252, .F. ) ;
#319 = DIRECTION ( 'NONE',  ( -1.150609540472573494E-16, 1.000000000000000000, 0.000000000000000000 ) ) ;
#320 = PRESENTATION_LAYER_ASSIGNMENT (  '', '', ( #159 ) ) ;
#321 = ORIENTED_EDGE ( 'NONE', *, *, #252, .T. ) ;
#322 = FILL_AREA_STYLE_COLOUR ( '', #328 ) ;
#323 = ORIENTED_EDGE ( 'NONE', *, *, #6, .F. ) ;
#324 = DIRECTION ( 'NONE',  ( -1.000000000000000000, 0.000000000000000000, 0.000000000000000000 ) ) ;
#325 = VERTEX_POINT ( 'NONE', #178 ) ;
#326 = EDGE_CURVE ( 'NONE', #347, #138, #147, .T. ) ;
#327 = VERTEX_POINT ( 'NONE', #274 ) ;
#328 = COLOUR_RGB ( '',1.000000000000000000, 0.000000000000000000, 0.000000000000000000 ) ;
#329 = DIRECTION ( 'NONE',  ( -0.000000000000000000, -1.000000000000000000, -0.000000000000000000 ) ) ;
#330 = FILL_AREA_STYLE ('',( #126 ) ) ;
#331 = STYLED_ITEM ( 'NONE', ( #56 ), #105 ) ;
#332 =( CONVERSION_BASED_UNIT ( 'INCH', #301 ) LENGTH_UNIT ( ) NAMED_UNIT ( #106 ) );
#333 = LENGTH_MEASURE_WITH_UNIT ( LENGTH_MEASURE( 0.02539999999999999897 ), #21 );
#334 = AXIS2_PLACEMENT_3D ( 'NONE', #367, #253, #227 ) ;
#335 =( GEOMETRIC_REPRESENTATION_CONTEXT ( 3 ) GLOBAL_UNCERTAINTY_ASSIGNED_CONTEXT ( ( #224 ) ) GLOBAL_UNIT_ASSIGNED_CONTEXT ( ( #295, #143, #42 ) ) REPRESENTATION_CONTEXT ( 'NONE', 'WORKASPACE' ) );
#336 = FACE_OUTER_BOUND ( 'NONE', #259, .T. ) ;
#337 = APPLICATION_CONTEXT ( 'automotive_design' ) ;
#338 = SURFACE_STYLE_USAGE ( .BOTH. , #110 ) ;
#339 = AXIS2_PLACEMENT_3D ( 'NONE', #267, #173, #115 ) ;
#340 = AXIS2_PLACEMENT_3D ( 'NONE', #302, #358, #193 ) ;
#341 = EDGE_LOOP ( 'NONE', ( #152, #63 ) ) ;
#342 = FILL_AREA_STYLE_COLOUR ( '', #14 ) ;
#343 = LINE ( 'NONE', #283, #94 ) ;
#344 = SURFACE_SIDE_STYLE ('',( #117 ) ) ;
#345 = ORIENTED_EDGE ( 'NONE', *, *, #18, .T. ) ;
#346 = LINE ( 'NONE', #206, #20 ) ;
#347 = VERTEX_POINT ( 'NONE', #208 ) ;
#348 = CIRCLE ( 'NONE', #79, 0.1249999999999994588 ) ;
#349 = DIRECTION ( 'NONE',  ( 0.000000000000000000, 0.000000000000000000, -1.000000000000000000 ) ) ;
#350 =( CONVERSION_BASED_UNIT ( 'INCH', #238 ) LENGTH_UNIT ( ) NAMED_UNIT ( #228 ) );
#351 = CARTESIAN_POINT ( 'NONE',  ( -0.1249999999999990147, 1.250000000000000000, 0.000000000000000000 ) ) ;
#352 = EDGE_LOOP ( 'NONE', ( #1, #321, #90, #32 ) ) ;
#353 = DIRECTION ( 'NONE',  ( -0.000000000000000000, -1.000000000000000000, -0.000000000000000000 ) ) ;
#354 =( NAMED_UNIT ( * ) PLANE_ANGLE_UNIT ( ) SI_UNIT ( $, .RADIAN. ) );
#355 = EDGE_LOOP ( 'NONE', ( #289, #35 ) ) ;
#356 = DIRECTION ( 'NONE',  ( 1.000000000000000000, 0.000000000000000000, 0.000000000000000000 ) ) ;
#357 = CARTESIAN_POINT ( 'NONE',  ( 2.449293598294705921E-16, 3.000000000000000444, 0.000000000000000000 ) ) ;
#358 = DIRECTION ( 'NONE',  ( 0.000000000000000000, 0.000000000000000000, 1.000000000000000000 ) ) ;
#359 = FACE_OUTER_BOUND ( 'NONE', #279, .T. ) ;
#360 = AXIS2_PLACEMENT_3D ( 'NONE', #161, #309, #133 ) ;
#361 = PRESENTATION_STYLE_ASSIGNMENT (( #23 ) ) ;
#362 = PRESENTATION_STYLE_ASSIGNMENT (( #338 ) ) ;
#363 =( NAMED_UNIT ( * ) PLANE_ANGLE_UNIT ( ) SI_UNIT ( $, .RADIAN. ) );
#364 =( LENGTH_UNIT ( ) NAMED_UNIT ( * ) SI_UNIT ( $, .METRE. ) );
#365 = CLOSED_SHELL ( 'NONE', ( #105, #167, #297, #127, #130 ) ) ;
#366 = LENGTH_MEASURE_WITH_UNIT ( LENGTH_MEASURE( 0.02539999999999999897 ), #258 );
#367 = CARTESIAN_POINT ( 'NONE',  ( 2.449293598294705921E-16, 3.000000000000000444, 0.000000000000000000 ) ) ;
#368 =( NAMED_UNIT ( * ) SI_UNIT ( $, .STERADIAN. ) SOLID_ANGLE_UNIT ( ) );
#369 = EDGE_CURVE ( 'NONE', #327, #145, #172, .T. ) ;
#370 = CARTESIAN_POINT ( 'NONE',  ( 0.000000000000000000, 0.000000000000000000, 0.000000000000000000 ) ) ;
#371 = AXIS2_PLACEMENT_3D ( 'NONE', #261, #113, #204 ) ;
#372 = SPHERICAL_SURFACE ( 'NONE', #339, 0.1250000000000000278 ) ;
#373 = DIRECTION ( 'NONE',  ( -0.000000000000000000, -1.000000000000000000, -0.000000000000000000 ) ) ;
ENDSEC;
END-ISO-10303-21;
