ISO-10303-21;
HEADER;
FILE_DESCRIPTION (( 'STEP AP214' ),
    '1' );
FILE_NAME ('Micro_BEM-375-02X.STEP',
    '2021-09-03T13:12:25',
    ( '' ),
    ( '' ),
    'SwSTEP 2.0',
    'SolidWorks 2020',
    '' );
FILE_SCHEMA (( 'AUTOMOTIVE_DESIGN' ));
ENDSEC;

DATA;
#1 = DIRECTION ( 'NONE',  ( 1.224646799147353207E-16, 0.0000000000000000000, 1.000000000000000000 ) ) ;
#2 = ORIENTED_EDGE ( 'NONE', *, *, #129, .F. ) ;
#3 =( GEOMETRIC_REPRESENTATION_CONTEXT ( 3 ) GLOBAL_UNCERTAINTY_ASSIGNED_CONTEXT ( ( #179 ) ) GLOBAL_UNIT_ASSIGNED_CONTEXT ( ( #8, #310, #180 ) ) REPRESENTATION_CONTEXT ( 'NONE', 'WORKASPACE' ) );
#4 = DIRECTION ( 'NONE',  ( 1.000000000000000000, 0.0000000000000000000, 0.0000000000000000000 ) ) ;
#5 = DIRECTION ( 'NONE',  ( 0.0000000000000000000, 0.0000000000000000000, -1.000000000000000000 ) ) ;
#6 = ORIENTED_EDGE ( 'NONE', *, *, #22, .T. ) ;
#7 = ORIENTED_EDGE ( 'NONE', *, *, #282, .T. ) ;
#8 =( CONVERSION_BASED_UNIT ( 'INCH', #72 ) LENGTH_UNIT ( ) NAMED_UNIT ( #264 ) );
#9 = PRODUCT_DEFINITION_SHAPE ( 'NONE', 'NONE',  #259 ) ;
#10 = ORIENTED_EDGE ( 'NONE', *, *, #66, .F. ) ;
#11 = ORIENTED_EDGE ( 'NONE', *, *, #22, .F. ) ;
#12 = LINE ( 'NONE', #290, #298 ) ;
#13 = AXIS2_PLACEMENT_3D ( 'NONE', #76, #187, #167 ) ;
#14 = AXIS2_PLACEMENT_3D ( 'NONE', #253, #86, #252 ) ;
#15 = SHAPE_DEFINITION_REPRESENTATION ( #9, #198 ) ;
#16 = DIRECTION ( 'NONE',  ( 1.000000000000000000, 0.0000000000000000000, -0.0000000000000000000 ) ) ;
#17 = EDGE_CURVE ( 'NONE', #67, #106, #272, .T. ) ;
#18 = ORIENTED_EDGE ( 'NONE', *, *, #312, .T. ) ;
#19 = LENGTH_MEASURE_WITH_UNIT ( LENGTH_MEASURE( 0.02539999999999999897 ), #142 );
#20 = AXIS2_PLACEMENT_3D ( 'NONE', #212, #138, #205 ) ;
#21 = FACE_OUTER_BOUND ( 'NONE', #165, .T. ) ;
#22 = EDGE_CURVE ( 'NONE', #124, #248, #92, .T. ) ;
#23 = CARTESIAN_POINT ( 'NONE',  ( 0.0000000000000000000, 0.0000000000000000000, 2.500000000000000000 ) ) ;
#24 = EDGE_CURVE ( 'NONE', #67, #124, #12, .T. ) ;
#25 =( NAMED_UNIT ( * ) PLANE_ANGLE_UNIT ( ) SI_UNIT ( $, .RADIAN. ) );
#26 = FILL_AREA_STYLE_COLOUR ( '', #232 ) ;
#27 = AXIS2_PLACEMENT_3D ( 'NONE', #321, #244, #322 ) ;
#28 = LINE ( 'NONE', #105, #251 ) ;
#29 = LINE ( 'NONE', #283, #93 ) ;
#30 = VERTEX_POINT ( 'NONE', #90 ) ;
#31 = CARTESIAN_POINT ( 'NONE',  ( 0.1873124999999999929, 2.293916535652885596E-17, -2.293916535652885596E-17 ) ) ;
#32 = ORIENTED_EDGE ( 'NONE', *, *, #24, .F. ) ;
#33 = AXIS2_PLACEMENT_3D ( 'NONE', #226, #173, #131 ) ;
#34 = CONICAL_SURFACE ( 'NONE', #14, 0.1873125000000000207, 0.1745329251994338915 ) ;
#35 = CARTESIAN_POINT ( 'NONE',  ( 0.0000000000000000000, 0.0000000000000000000, 2.500000000000000000 ) ) ;
#36 = CARTESIAN_POINT ( 'NONE',  ( -0.1873124999999999929, 0.0000000000000000000, 2.293916535652885596E-17 ) ) ;
#37 = ORIENTED_EDGE ( 'NONE', *, *, #273, .F. ) ;
#38 = SURFACE_SIDE_STYLE ('',( #43 ) ) ;
#39 = DIRECTION ( 'NONE',  ( 0.1736481776669313859, 0.0000000000000000000, 0.9848077530122077983 ) ) ;
#40 = ADVANCED_FACE ( 'NONE', ( #184 ), #113, .T. ) ;
#41 = AXIS2_PLACEMENT_3D ( 'NONE', #213, #79, #190 ) ;
#42 = AXIS2_PLACEMENT_3D ( 'NONE', #83, #104, #197 ) ;
#43 = SURFACE_STYLE_FILL_AREA ( #181 ) ;
#44 = ADVANCED_FACE ( 'NONE', ( #257 ), #207, .T. ) ;
#45 = ORIENTED_EDGE ( 'NONE', *, *, #316, .F. ) ;
#46 = APPLICATION_CONTEXT ( 'automotive_design' ) ;
#47 = DIRECTION ( 'NONE',  ( -1.224646799147353207E-16, -0.0000000000000000000, -1.000000000000000000 ) ) ;
#48 = AXIS2_PLACEMENT_3D ( 'NONE', #63, #58, #87 ) ;
#49 = CARTESIAN_POINT ( 'NONE',  ( 0.1873125000000001317, 0.0000000000000000000, 0.8750000000000000000 ) ) ;
#50 = CYLINDRICAL_SURFACE ( 'NONE', #267, 0.1873124999999999929 ) ;
#51 = DIRECTION ( 'NONE',  ( -1.000000000000000000, 1.224646799147352961E-16, 0.0000000000000000000 ) ) ;
#52 = ADVANCED_FACE ( 'NONE', ( #287 ), #288, .T. ) ;
#53 = CARTESIAN_POINT ( 'NONE',  ( -0.1873124999999999096, 2.295064642027087123E-17, 0.8750000000000000000 ) ) ;
#54 = CARTESIAN_POINT ( 'NONE',  ( 0.1875000000000000833, 2.296212748401288650E-17, 0.8760633653411783461 ) ) ;
#55 = CARTESIAN_POINT ( 'NONE',  ( 2.293916535652885596E-17, 0.0000000000000000000, 0.1873124999999999929 ) ) ;
#56 = AXIS2_PLACEMENT_3D ( 'NONE', #132, #162, #230 ) ;
#57 = LINE ( 'NONE', #31, #208 ) ;
#58 = DIRECTION ( 'NONE',  ( -1.224646799147353207E-16, -0.0000000000000000000, -1.000000000000000000 ) ) ;
#59 = ORIENTED_EDGE ( 'NONE', *, *, #242, .F. ) ;
#60 = SPHERICAL_SURFACE ( 'NONE', #33, 0.1873124999999999929 ) ;
#61 = AXIS2_PLACEMENT_3D ( 'NONE', #102, #218, #77 ) ;
#62 = CIRCLE ( 'NONE', #275, 0.1873124999999999929 ) ;
#63 = CARTESIAN_POINT ( 'NONE',  ( 1.072868196215332272E-16, 0.0000000000000000000, 0.8760633653411783461 ) ) ;
#64 = ORIENTED_EDGE ( 'NONE', *, *, #242, .T. ) ;
#65 = APPLICATION_PROTOCOL_DEFINITION ( 'draft international standard', 'automotive_design', 1998, #68 ) ;
#66 = EDGE_CURVE ( 'NONE', #30, #156, #307, .T. ) ;
#67 = VERTEX_POINT ( 'NONE', #49 ) ;
#68 = APPLICATION_CONTEXT ( 'automotive_design' ) ;
#69 = FILL_AREA_STYLE_COLOUR ( '', #227 ) ;
#70 = ORIENTED_EDGE ( 'NONE', *, *, #263, .F. ) ;
#71 = AXIS2_PLACEMENT_3D ( 'NONE', #23, #78, #169 ) ;
#72 = LENGTH_MEASURE_WITH_UNIT ( LENGTH_MEASURE( 0.02539999999999999897 ), #164 );
#73 = ORIENTED_EDGE ( 'NONE', *, *, #17, .T. ) ;
#74 = CARTESIAN_POINT ( 'NONE',  ( 0.0000000000000000000, 0.0000000000000000000, 0.0000000000000000000 ) ) ;
#75 = SURFACE_STYLE_USAGE ( .BOTH. , #38 ) ;
#76 = CARTESIAN_POINT ( 'NONE',  ( 0.0000000000000000000, 0.0000000000000000000, 2.500000000000000000 ) ) ;
#77 = DIRECTION ( 'NONE',  ( -1.000000000000000000, 0.0000000000000000000, 0.0000000000000000000 ) ) ;
#78 = DIRECTION ( 'NONE',  ( -0.0000000000000000000, -0.0000000000000000000, -1.000000000000000000 ) ) ;
#79 = DIRECTION ( 'NONE',  ( -1.224646799147353207E-16, -0.0000000000000000000, -1.000000000000000000 ) ) ;
#80 = CARTESIAN_POINT ( 'NONE',  ( -0.1875000000000000278, 0.0000000000000000000, 2.484999999999999432 ) ) ;
#81 = CARTESIAN_POINT ( 'NONE',  ( 0.1875000000000000278, 2.296212748401287726E-17, 2.500000000000000000 ) ) ;
#82 = DIRECTION ( 'NONE',  ( 1.224646799147353207E-16, 0.0000000000000000000, 1.000000000000000000 ) ) ;
#83 = CARTESIAN_POINT ( 'NONE',  ( 2.293916535652885596E-17, 0.0000000000000000000, 0.1873124999999999929 ) ) ;
#84 = VECTOR ( 'NONE', #241, 39.37007874015748143 ) ;
#85 = ORIENTED_EDGE ( 'NONE', *, *, #263, .T. ) ;
#86 = DIRECTION ( 'NONE',  ( 1.224646799147353207E-16, 0.0000000000000000000, 1.000000000000000000 ) ) ;
#87 = DIRECTION ( 'NONE',  ( 1.000000000000000000, 0.0000000000000000000, 0.0000000000000000000 ) ) ;
#88 = EDGE_LOOP ( 'NONE', ( #286, #182, #123, #6 ) ) ;
#89 = ADVANCED_FACE ( 'NONE', ( #291 ), #193, .T. ) ;
#90 = CARTESIAN_POINT ( 'NONE',  ( 0.1724999999999995981, 2.204364238465233357E-17, 2.500000000000000000 ) ) ;
#91 = VERTEX_POINT ( 'NONE', #80 ) ;
#92 = CIRCLE ( 'NONE', #121, 0.1875000000000000278 ) ;
#93 = VECTOR ( 'NONE', #178, 39.37007874015747433 ) ;
#94 = CARTESIAN_POINT ( 'NONE',  ( 2.293916535652885596E-17, 0.0000000000000000000, 0.1873124999999999929 ) ) ;
#95 = EDGE_LOOP ( 'NONE', ( #163, #45, #96, #70 ) ) ;
#96 = ORIENTED_EDGE ( 'NONE', *, *, #120, .T. ) ;
#97 = SURFACE_STYLE_USAGE ( .BOTH. , #216 ) ;
#98 = ADVANCED_FACE ( 'NONE', ( #270 ), #188, .T. ) ;
#99 = LINE ( 'NONE', #119, #279 ) ;
#100 =( GEOMETRIC_REPRESENTATION_CONTEXT ( 3 ) GLOBAL_UNCERTAINTY_ASSIGNED_CONTEXT ( ( #204 ) ) GLOBAL_UNIT_ASSIGNED_CONTEXT ( ( #147, #25, #324 ) ) REPRESENTATION_CONTEXT ( 'NONE', 'WORKASPACE' ) );
#101 = MANIFOLD_SOLID_BREP ( 'Fillet1', #217 ) ;
#102 = CARTESIAN_POINT ( 'NONE',  ( 0.0000000000000000000, 0.0000000000000000000, 2.500000000000000000 ) ) ;
#103 = DIRECTION ( 'NONE',  ( 0.0000000000000000000, -1.000000000000000000, 0.0000000000000000000 ) ) ;
#104 = DIRECTION ( 'NONE',  ( 1.224646799147353207E-16, 0.0000000000000000000, 1.000000000000000000 ) ) ;
#105 = CARTESIAN_POINT ( 'NONE',  ( -0.1875000000000000278, 0.0000000000000000000, 2.500000000000000000 ) ) ;
#106 = VERTEX_POINT ( 'NONE', #53 ) ;
#107 = DIRECTION ( 'NONE',  ( -0.0000000000000000000, -0.0000000000000000000, -1.000000000000000000 ) ) ;
#108 = FACE_OUTER_BOUND ( 'NONE', #88, .T. ) ;
#109 = ORIENTED_EDGE ( 'NONE', *, *, #305, .T. ) ;
#110 = ADVANCED_FACE ( 'NONE', ( #118 ), #50, .T. ) ;
#111 = ORIENTED_EDGE ( 'NONE', *, *, #273, .T. ) ;
#112 = ORIENTED_EDGE ( 'NONE', *, *, #209, .T. ) ;
#113 = PLANE ( 'NONE',  #153 ) ;
#114 = EDGE_LOOP ( 'NONE', ( #177, #64, #111, #115 ) ) ;
#115 = ORIENTED_EDGE ( 'NONE', *, *, #211, .F. ) ;
#116 = EDGE_CURVE ( 'NONE', #106, #67, #318, .T. ) ;
#117 = FACE_OUTER_BOUND ( 'NONE', #228, .T. ) ;
#118 = FACE_OUTER_BOUND ( 'NONE', #229, .T. ) ;
#119 = CARTESIAN_POINT ( 'NONE',  ( 0.1724999999999995981, 2.112515728529179297E-17, 2.500000000000000000 ) ) ;
#120 = EDGE_CURVE ( 'NONE', #156, #91, #295, .T. ) ;
#121 = AXIS2_PLACEMENT_3D ( 'NONE', #135, #255, #206 ) ;
#122 = CARTESIAN_POINT ( 'NONE',  ( 0.1875000000000000278, 2.296212748401287726E-17, 2.484999999999999432 ) ) ;
#123 = ORIENTED_EDGE ( 'NONE', *, *, #24, .T. ) ;
#124 = VERTEX_POINT ( 'NONE', #54 ) ;
#125 = DIRECTION ( 'NONE',  ( -1.224646799147353207E-16, -0.0000000000000000000, -1.000000000000000000 ) ) ;
#126 = EDGE_CURVE ( 'NONE', #30, #309, #99, .T. ) ;
#127 = CIRCLE ( 'NONE', #281, 0.1873124999999999929 ) ;
#128 = LINE ( 'NONE', #36, #171 ) ;
#129 = EDGE_CURVE ( 'NONE', #309, #124, #293, .T. ) ;
#130 = ORIENTED_EDGE ( 'NONE', *, *, #316, .T. ) ;
#131 = DIRECTION ( 'NONE',  ( 1.000000000000000000, 0.0000000000000000000, 0.0000000000000000000 ) ) ;
#132 = CARTESIAN_POINT ( 'NONE',  ( 0.0000000000000000000, 0.0000000000000000000, 0.0000000000000000000 ) ) ;
#133 = ORIENTED_EDGE ( 'NONE', *, *, #209, .F. ) ;
#134 = CONICAL_SURFACE ( 'NONE', #203, 0.1873125000000000207, 0.1745329251994338915 ) ;
#135 = CARTESIAN_POINT ( 'NONE',  ( 1.072868196215332272E-16, 0.0000000000000000000, 0.8760633653411783461 ) ) ;
#136 = APPLICATION_PROTOCOL_DEFINITION ( 'draft international standard', 'automotive_design', 1998, #46 ) ;
#137 = ADVANCED_FACE ( 'NONE', ( #170 ), #146, .T. ) ;
#138 = DIRECTION ( 'NONE',  ( -1.224646799147353207E-16, -0.0000000000000000000, -1.000000000000000000 ) ) ;
#139 = ORIENTED_EDGE ( 'NONE', *, *, #268, .F. ) ;
#140 = VERTEX_POINT ( 'NONE', #265 ) ;
#141 = DIRECTION ( 'NONE',  ( -0.7071067811865385799, 0.0000000000000000000, -0.7071067811865563435 ) ) ;
#142 =( LENGTH_UNIT ( ) NAMED_UNIT ( * ) SI_UNIT ( $, .METRE. ) );
#143 = AXIS2_PLACEMENT_3D ( 'NONE', #74, #47, #233 ) ;
#144 =( GEOMETRIC_REPRESENTATION_CONTEXT ( 3 ) GLOBAL_UNCERTAINTY_ASSIGNED_CONTEXT ( ( #159 ) ) GLOBAL_UNIT_ASSIGNED_CONTEXT ( ( #300, #277, #183 ) ) REPRESENTATION_CONTEXT ( 'NONE', 'WORKASPACE' ) );
#145 = CARTESIAN_POINT ( 'NONE',  ( -0.1724999999999995981, 0.0000000000000000000, 2.500000000000000000 ) ) ;
#146 = CYLINDRICAL_SURFACE ( 'NONE', #71, 0.1875000000000000278 ) ;
#147 =( CONVERSION_BASED_UNIT ( 'INCH', #19 ) LENGTH_UNIT ( ) NAMED_UNIT ( #240 ) );
#148 = CARTESIAN_POINT ( 'NONE',  ( 0.0000000000000000000, 0.0000000000000000000, 2.484999999999999432 ) ) ;
#149 = DIRECTION ( 'NONE',  ( -1.224646799147353207E-16, -0.0000000000000000000, -1.000000000000000000 ) ) ;
#150 = EDGE_LOOP ( 'NONE', ( #249, #7, #112, #32 ) ) ;
#151 = ORIENTED_EDGE ( 'NONE', *, *, #66, .T. ) ;
#152 = EDGE_CURVE ( 'NONE', #311, #140, #323, .T. ) ;
#153 = AXIS2_PLACEMENT_3D ( 'NONE', #160, #315, #16 ) ;
#154 = DIRECTION ( 'NONE',  ( -1.000000000000000000, 0.0000000000000000000, 0.0000000000000000000 ) ) ;
#155 = DIRECTION ( 'NONE',  ( -0.0000000000000000000, -0.0000000000000000000, -1.000000000000000000 ) ) ;
#156 = VERTEX_POINT ( 'NONE', #237 ) ;
#157 = PRESENTATION_STYLE_ASSIGNMENT (( #75 ) ) ;
#158 = VERTEX_POINT ( 'NONE', #191 ) ;
#159 = UNCERTAINTY_MEASURE_WITH_UNIT (LENGTH_MEASURE( 1.000000000000000082E-05 ), #300, 'distance_accuracy_value', 'NONE');
#160 = CARTESIAN_POINT ( 'NONE',  ( 0.0000000000000000000, 0.0000000000000000000, 2.500000000000000000 ) ) ;
#161 = PRESENTATION_LAYER_ASSIGNMENT (  '', '', ( #274 ) ) ;
#162 = DIRECTION ( 'NONE',  ( 0.0000000000000000000, 0.0000000000000000000, 1.000000000000000000 ) ) ;
#163 = ORIENTED_EDGE ( 'NONE', *, *, #126, .F. ) ;
#164 =( LENGTH_UNIT ( ) NAMED_UNIT ( * ) SI_UNIT ( $, .METRE. ) );
#165 = EDGE_LOOP ( 'NONE', ( #317, #262, #246 ) ) ;
#166 = ADVANCED_FACE ( 'NONE', ( #21 ), #60, .T. ) ;
#167 = DIRECTION ( 'NONE',  ( 1.000000000000000000, 0.0000000000000000000, 0.0000000000000000000 ) ) ;
#168 = AXIS2_PLACEMENT_3D ( 'NONE', #200, #196, #303 ) ;
#169 = DIRECTION ( 'NONE',  ( -1.000000000000000000, 0.0000000000000000000, 0.0000000000000000000 ) ) ;
#170 = FACE_OUTER_BOUND ( 'NONE', #254, .T. ) ;
#171 = VECTOR ( 'NONE', #125, 39.37007874015748143 ) ;
#172 = PRESENTATION_LAYER_ASSIGNMENT (  '', '', ( #256 ) ) ;
#173 = DIRECTION ( 'NONE',  ( 0.0000000000000000000, 1.000000000000000000, 0.0000000000000000000 ) ) ;
#174 = CIRCLE ( 'NONE', #42, 0.1873124999999999929 ) ;
#175 = DIRECTION ( 'NONE',  ( 0.0000000000000000000, 0.0000000000000000000, -1.000000000000000000 ) ) ;
#176 = PRODUCT_RELATED_PRODUCT_CATEGORY ( 'part', '', ( #223 ) ) ;
#177 = ORIENTED_EDGE ( 'NONE', *, *, #116, .T. ) ;
#178 = DIRECTION ( 'NONE',  ( -0.1736481776669311916, 2.126576849575783316E-17, 0.9848077530122080203 ) ) ;
#179 = UNCERTAINTY_MEASURE_WITH_UNIT (LENGTH_MEASURE( 1.000000000000000082E-05 ), #8, 'distance_accuracy_value', 'NONE');
#180 =( NAMED_UNIT ( * ) SI_UNIT ( $, .STERADIAN. ) SOLID_ANGLE_UNIT ( ) );
#181 = FILL_AREA_STYLE ('',( #69 ) ) ;
#182 = ORIENTED_EDGE ( 'NONE', *, *, #17, .F. ) ;
#183 =( NAMED_UNIT ( * ) SI_UNIT ( $, .STERADIAN. ) SOLID_ANGLE_UNIT ( ) );
#184 = FACE_OUTER_BOUND ( 'NONE', #220, .T. ) ;
#185 = ORIENTED_EDGE ( 'NONE', *, *, #129, .T. ) ;
#186 = ADVANCED_FACE ( 'NONE', ( #117 ), #306, .T. ) ;
#187 = DIRECTION ( 'NONE',  ( 0.0000000000000000000, 0.0000000000000000000, 1.000000000000000000 ) ) ;
#188 = CONICAL_SURFACE ( 'NONE', #61, 0.1724999999999995981, 0.7853981633974357335 ) ;
#189 = PRODUCT_DEFINITION_FORMATION_WITH_SPECIFIED_SOURCE ( 'ANY', '', #223, .NOT_KNOWN. ) ;
#190 = DIRECTION ( 'NONE',  ( -1.000000000000000000, 0.0000000000000000000, 0.0000000000000000000 ) ) ;
#191 = CARTESIAN_POINT ( 'NONE',  ( 0.1873125000000000207, 2.293916535652885596E-17, 0.1873124999999999374 ) ) ;
#192 = DIRECTION ( 'NONE',  ( 1.224646799147353207E-16, 1.000000000000000000, -0.0000000000000000000 ) ) ;
#193 = CONICAL_SURFACE ( 'NONE', #27, 0.1724999999999995981, 0.7853981633974357335 ) ;
#194 = AXIS2_PLACEMENT_3D ( 'NONE', #35, #155, #154 ) ;
#195 = DIRECTION ( 'NONE',  ( 1.000000000000000000, 0.0000000000000000000, 0.0000000000000000000 ) ) ;
#196 = DIRECTION ( 'NONE',  ( 0.0000000000000000000, 0.0000000000000000000, 1.000000000000000000 ) ) ;
#197 = DIRECTION ( 'NONE',  ( -1.000000000000000000, 0.0000000000000000000, 1.823055050827002517E-16 ) ) ;
#198 = ADVANCED_BREP_SHAPE_REPRESENTATION ( 'Micro_BEM-375-02X', ( #101, #56 ), #144 ) ;
#199 = EDGE_LOOP ( 'NONE', ( #139, #285, #37 ) ) ;
#200 = CARTESIAN_POINT ( 'NONE',  ( 0.0000000000000000000, 0.0000000000000000000, 2.500000000000000000 ) ) ;
#201 = CARTESIAN_POINT ( 'NONE',  ( -0.1874999999999999167, 0.0000000000000000000, 0.8760633653411783461 ) ) ;
#202 = MECHANICAL_DESIGN_GEOMETRIC_PRESENTATION_REPRESENTATION (  '', ( #274 ), #100 ) ;
#203 = AXIS2_PLACEMENT_3D ( 'NONE', #325, #82, #4 ) ;
#204 = UNCERTAINTY_MEASURE_WITH_UNIT (LENGTH_MEASURE( 1.000000000000000082E-05 ), #147, 'distance_accuracy_value', 'NONE');
#205 = DIRECTION ( 'NONE',  ( -1.000000000000000000, 0.0000000000000000000, 0.0000000000000000000 ) ) ;
#206 = DIRECTION ( 'NONE',  ( 1.000000000000000000, 0.0000000000000000000, 0.0000000000000000000 ) ) ;
#207 = SPHERICAL_SURFACE ( 'NONE', #250, 0.1873124999999999929 ) ;
#208 = VECTOR ( 'NONE', #149, 39.37007874015748143 ) ;
#209 = EDGE_CURVE ( 'NONE', #248, #124, #308, .T. ) ;
#210 = ORIENTED_EDGE ( 'NONE', *, *, #302, .F. ) ;
#211 = EDGE_CURVE ( 'NONE', #106, #140, #128, .T. ) ;
#212 = CARTESIAN_POINT ( 'NONE',  ( 1.071565949253934025E-16, 0.0000000000000000000, 0.8750000000000000000 ) ) ;
#213 = CARTESIAN_POINT ( 'NONE',  ( 1.071565949253934025E-16, 0.0000000000000000000, 0.8750000000000000000 ) ) ;
#214 = PRESENTATION_STYLE_ASSIGNMENT (( #97 ) ) ;
#215 = CARTESIAN_POINT ( 'NONE',  ( 2.293916535652885596E-17, 0.0000000000000000000, 0.1873124999999999929 ) ) ;
#216 = SURFACE_SIDE_STYLE ('',( #243 ) ) ;
#217 = CLOSED_SHELL ( 'NONE', ( #44, #52, #224, #98, #137, #186, #40, #89, #289, #110, #166 ) ) ;
#218 = DIRECTION ( 'NONE',  ( 0.0000000000000000000, 0.0000000000000000000, -1.000000000000000000 ) ) ;
#219 = CARTESIAN_POINT ( 'NONE',  ( 3.440874803479328548E-17, 0.0000000000000000000, 0.0000000000000000000 ) ) ;
#220 = EDGE_LOOP ( 'NONE', ( #130, #151 ) ) ;
#221 = MECHANICAL_DESIGN_GEOMETRIC_PRESENTATION_REPRESENTATION (  '', ( #256 ), #3 ) ;
#222 = DIRECTION ( 'NONE',  ( 1.000000000000000000, 0.0000000000000000000, 0.0000000000000000000 ) ) ;
#223 = PRODUCT ( 'Micro_BEM-375-02X', 'Micro_BEM-375-02X', '', ( #260 ) ) ;
#224 = ADVANCED_FACE ( 'NONE', ( #271 ), #34, .T. ) ;
#225 = CARTESIAN_POINT ( 'NONE',  ( 2.293916535652885596E-17, 0.0000000000000000000, 0.1873124999999999929 ) ) ;
#226 = CARTESIAN_POINT ( 'NONE',  ( 2.293916535652885596E-17, 0.0000000000000000000, 0.1873124999999999929 ) ) ;
#227 = COLOUR_RGB ( '',0.7921568627450980005, 0.8196078431372548767, 0.9333333333333333481 ) ;
#228 = EDGE_LOOP ( 'NONE', ( #2, #85, #109, #11 ) ) ;
#229 = EDGE_LOOP ( 'NONE', ( #59, #73, #235, #18 ) ) ;
#230 = DIRECTION ( 'NONE',  ( 1.000000000000000000, 0.0000000000000000000, 0.0000000000000000000 ) ) ;
#231 = ORIENTED_EDGE ( 'NONE', *, *, #126, .T. ) ;
#232 = COLOUR_RGB ( '',0.7921568627450980005, 0.8196078431372548767, 0.9333333333333333481 ) ;
#233 = DIRECTION ( 'NONE',  ( -1.000000000000000000, 0.0000000000000000000, 1.224646799147352961E-16 ) ) ;
#234 = CIRCLE ( 'NONE', #168, 0.1724999999999995981 ) ;
#235 = ORIENTED_EDGE ( 'NONE', *, *, #211, .T. ) ;
#236 = DIRECTION ( 'NONE',  ( -1.224646799147353207E-16, -0.0000000000000000000, -1.000000000000000000 ) ) ;
#237 = CARTESIAN_POINT ( 'NONE',  ( -0.1724999999999995981, 0.0000000000000000000, 2.500000000000000000 ) ) ;
#238 = AXIS2_PLACEMENT_3D ( 'NONE', #215, #192, #51 ) ;
#239 = CIRCLE ( 'NONE', #292, 0.1875000000000000278 ) ;
#240 = DIMENSIONAL_EXPONENTS ( 1.000000000000000000, 0.0000000000000000000, 0.0000000000000000000, 0.0000000000000000000, 0.0000000000000000000, 0.0000000000000000000, 0.0000000000000000000 ) ;
#241 = DIRECTION ( 'NONE',  ( -0.0000000000000000000, -0.0000000000000000000, -1.000000000000000000 ) ) ;
#242 = EDGE_CURVE ( 'NONE', #67, #158, #57, .T. ) ;
#243 = SURFACE_STYLE_FILL_AREA ( #266 ) ;
#244 = DIRECTION ( 'NONE',  ( 0.0000000000000000000, 0.0000000000000000000, -1.000000000000000000 ) ) ;
#245 = DIRECTION ( 'NONE',  ( 0.0000000000000000000, 0.0000000000000000000, -1.000000000000000000 ) ) ;
#246 = ORIENTED_EDGE ( 'NONE', *, *, #312, .F. ) ;
#247 = CARTESIAN_POINT ( 'NONE',  ( 0.0000000000000000000, 0.0000000000000000000, 2.484999999999999432 ) ) ;
#248 = VERTEX_POINT ( 'NONE', #201 ) ;
#249 = ORIENTED_EDGE ( 'NONE', *, *, #116, .F. ) ;
#250 = AXIS2_PLACEMENT_3D ( 'NONE', #94, #258, #314 ) ;
#251 = VECTOR ( 'NONE', #107, 39.37007874015748143 ) ;
#252 = DIRECTION ( 'NONE',  ( 1.000000000000000000, 0.0000000000000000000, 0.0000000000000000000 ) ) ;
#253 = CARTESIAN_POINT ( 'NONE',  ( 1.071565949253934025E-16, 0.0000000000000000000, 0.8750000000000000000 ) ) ;
#254 = EDGE_LOOP ( 'NONE', ( #301, #185, #133, #261 ) ) ;
#255 = DIRECTION ( 'NONE',  ( -1.224646799147353207E-16, -0.0000000000000000000, -1.000000000000000000 ) ) ;
#256 = STYLED_ITEM ( 'NONE', ( #157 ), #198 ) ;
#257 = FACE_OUTER_BOUND ( 'NONE', #199, .T. ) ;
#258 = DIRECTION ( 'NONE',  ( 0.0000000000000000000, 1.000000000000000000, 0.0000000000000000000 ) ) ;
#259 = PRODUCT_DEFINITION ( 'UNKNOWN', '', #189, #280 ) ;
#260 = PRODUCT_CONTEXT ( 'NONE', #46, 'mechanical' ) ;
#261 = ORIENTED_EDGE ( 'NONE', *, *, #305, .F. ) ;
#262 = ORIENTED_EDGE ( 'NONE', *, *, #268, .T. ) ;
#263 = EDGE_CURVE ( 'NONE', #309, #91, #239, .T. ) ;
#264 = DIMENSIONAL_EXPONENTS ( 1.000000000000000000, 0.0000000000000000000, 0.0000000000000000000, 0.0000000000000000000, 0.0000000000000000000, 0.0000000000000000000, 0.0000000000000000000 ) ;
#265 = CARTESIAN_POINT ( 'NONE',  ( -0.1873124999999999374, 0.0000000000000000000, 0.1873125000000000207 ) ) ;
#266 = FILL_AREA_STYLE ('',( #26 ) ) ;
#267 = AXIS2_PLACEMENT_3D ( 'NONE', #294, #236, #269 ) ;
#268 = EDGE_CURVE ( 'NONE', #311, #158, #62, .T. ) ;
#269 = DIRECTION ( 'NONE',  ( -1.000000000000000000, 0.0000000000000000000, 1.224646799147352961E-16 ) ) ;
#270 = FACE_OUTER_BOUND ( 'NONE', #284, .T. ) ;
#271 = FACE_OUTER_BOUND ( 'NONE', #150, .T. ) ;
#272 = CIRCLE ( 'NONE', #20, 0.1873125000000000207 ) ;
#273 = EDGE_CURVE ( 'NONE', #158, #140, #127, .T. ) ;
#274 = STYLED_ITEM ( 'NONE', ( #214 ), #101 ) ;
#275 = AXIS2_PLACEMENT_3D ( 'NONE', #225, #103, #5 ) ;
#276 =( LENGTH_UNIT ( ) NAMED_UNIT ( * ) SI_UNIT ( $, .METRE. ) );
#277 =( NAMED_UNIT ( * ) PLANE_ANGLE_UNIT ( ) SI_UNIT ( $, .RADIAN. ) );
#278 = LENGTH_MEASURE_WITH_UNIT ( LENGTH_MEASURE( 0.02539999999999999897 ), #276 );
#279 = VECTOR ( 'NONE', #319, 39.37007874015748854 ) ;
#280 = PRODUCT_DEFINITION_CONTEXT ( 'detailed design', #68, 'design' ) ;
#281 = AXIS2_PLACEMENT_3D ( 'NONE', #55, #1, #296 ) ;
#282 = EDGE_CURVE ( 'NONE', #106, #248, #29, .T. ) ;
#283 = CARTESIAN_POINT ( 'NONE',  ( -0.1873124999999999096, 2.293916535652885904E-17, 0.8750000000000000000 ) ) ;
#284 = EDGE_LOOP ( 'NONE', ( #10, #231, #210, #304 ) ) ;
#285 = ORIENTED_EDGE ( 'NONE', *, *, #152, .T. ) ;
#286 = ORIENTED_EDGE ( 'NONE', *, *, #282, .F. ) ;
#287 = FACE_OUTER_BOUND ( 'NONE', #114, .T. ) ;
#288 = CYLINDRICAL_SURFACE ( 'NONE', #143, 0.1873124999999999929 ) ;
#289 = ADVANCED_FACE ( 'NONE', ( #108 ), #134, .T. ) ;
#290 = CARTESIAN_POINT ( 'NONE',  ( 0.1873125000000001317, 0.0000000000000000000, 0.8750000000000000000 ) ) ;
#291 = FACE_OUTER_BOUND ( 'NONE', #95, .T. ) ;
#292 = AXIS2_PLACEMENT_3D ( 'NONE', #247, #175, #195 ) ;
#293 = LINE ( 'NONE', #81, #84 ) ;
#294 = CARTESIAN_POINT ( 'NONE',  ( 0.0000000000000000000, 0.0000000000000000000, 0.0000000000000000000 ) ) ;
#295 = LINE ( 'NONE', #145, #313 ) ;
#296 = DIRECTION ( 'NONE',  ( -1.000000000000000000, 0.0000000000000000000, 1.823055050827002517E-16 ) ) ;
#297 = DIMENSIONAL_EXPONENTS ( 1.000000000000000000, 0.0000000000000000000, 0.0000000000000000000, 0.0000000000000000000, 0.0000000000000000000, 0.0000000000000000000, 0.0000000000000000000 ) ;
#298 = VECTOR ( 'NONE', #39, 39.37007874015748143 ) ;
#299 = AXIS2_PLACEMENT_3D ( 'NONE', #148, #245, #222 ) ;
#300 =( CONVERSION_BASED_UNIT ( 'INCH', #278 ) LENGTH_UNIT ( ) NAMED_UNIT ( #297 ) );
#301 = ORIENTED_EDGE ( 'NONE', *, *, #302, .T. ) ;
#302 = EDGE_CURVE ( 'NONE', #91, #309, #320, .T. ) ;
#303 = DIRECTION ( 'NONE',  ( 1.000000000000000000, 0.0000000000000000000, 0.0000000000000000000 ) ) ;
#304 = ORIENTED_EDGE ( 'NONE', *, *, #120, .F. ) ;
#305 = EDGE_CURVE ( 'NONE', #91, #248, #28, .T. ) ;
#306 = CYLINDRICAL_SURFACE ( 'NONE', #194, 0.1875000000000000278 ) ;
#307 = CIRCLE ( 'NONE', #13, 0.1724999999999995981 ) ;
#308 = CIRCLE ( 'NONE', #48, 0.1875000000000000278 ) ;
#309 = VERTEX_POINT ( 'NONE', #122 ) ;
#310 =( NAMED_UNIT ( * ) PLANE_ANGLE_UNIT ( ) SI_UNIT ( $, .RADIAN. ) );
#311 = VERTEX_POINT ( 'NONE', #219 ) ;
#312 = EDGE_CURVE ( 'NONE', #140, #158, #174, .T. ) ;
#313 = VECTOR ( 'NONE', #141, 39.37007874015748854 ) ;
#314 = DIRECTION ( 'NONE',  ( 1.000000000000000000, 0.0000000000000000000, 0.0000000000000000000 ) ) ;
#315 = DIRECTION ( 'NONE',  ( 0.0000000000000000000, 0.0000000000000000000, 1.000000000000000000 ) ) ;
#316 = EDGE_CURVE ( 'NONE', #156, #30, #234, .T. ) ;
#317 = ORIENTED_EDGE ( 'NONE', *, *, #152, .F. ) ;
#318 = CIRCLE ( 'NONE', #41, 0.1873125000000000207 ) ;
#319 = DIRECTION ( 'NONE',  ( 0.7071067811865385799, 8.659560562354823157E-17, -0.7071067811865563435 ) ) ;
#320 = CIRCLE ( 'NONE', #299, 0.1875000000000000278 ) ;
#321 = CARTESIAN_POINT ( 'NONE',  ( 0.0000000000000000000, 0.0000000000000000000, 2.500000000000000000 ) ) ;
#322 = DIRECTION ( 'NONE',  ( -1.000000000000000000, 0.0000000000000000000, 0.0000000000000000000 ) ) ;
#323 = CIRCLE ( 'NONE', #238, 0.1873124999999999929 ) ;
#324 =( NAMED_UNIT ( * ) SI_UNIT ( $, .STERADIAN. ) SOLID_ANGLE_UNIT ( ) );
#325 = CARTESIAN_POINT ( 'NONE',  ( 1.071565949253934025E-16, 0.0000000000000000000, 0.8750000000000000000 ) ) ;
ENDSEC;
END-ISO-10303-21;
