ISO-10303-21;
HEADER;
FILE_DESCRIPTION (( 'STEP AP214' ),
    '1' );
FILE_NAME ('83784.STEP',
    '2023-07-05T16:05:25',
    ( '' ),
    ( '' ),
    'SwSTEP 2.0',
    'SolidWorks 2023',
    '' );
FILE_SCHEMA (( 'AUTOMOTIVE_DESIGN' ));
ENDSEC;

DATA;
#1 = EDGE_LOOP ( 'NONE', ( #126, #61 ) ) ;
#2 = CIRCLE ( 'NONE', #148, 0.09374999999999984734 ) ;
#3 = DIRECTION ( 'NONE',  ( -1.215897659961753384E-16, 1.000000000000000000, -0.000000000000000000 ) ) ;
#4 = CIRCLE ( 'NONE', #40, 0.09375000000000005551 ) ;
#5 = FILL_AREA_STYLE ('',( #165 ) ) ;
#6 = APPLICATION_PROTOCOL_DEFINITION ( 'draft international standard', 'automotive_design', 1998, #264 ) ;
#7 = CARTESIAN_POINT ( 'NONE',  ( 1.148106374200643401E-17, 0.1623797632095817789, -0.09374999999999998612 ) ) ;
#8 = CARTESIAN_POINT ( 'NONE',  ( 1.622034746238156224E-16, 0.1623797632095817789, 0.000000000000000000 ) ) ;
#9 = ORIENTED_EDGE ( 'NONE', *, *, #175, .T. ) ;
#10 =( NAMED_UNIT ( * ) PLANE_ANGLE_UNIT ( ) SI_UNIT ( $, .RADIAN. ) );
#11 = COLOUR_RGB ( '',0.7921568627450980005, 0.8196078431372548767, 0.9333333333333333481 ) ;
#12 = CARTESIAN_POINT ( 'NONE',  ( 0.000000000000000000, 0.000000000000000000, 0.000000000000000000 ) ) ;
#13 = EDGE_LOOP ( 'NONE', ( #111, #169, #60, #31 ) ) ;
#14 = DIRECTION ( 'NONE',  ( 0.000000000000000000, 0.000000000000000000, -1.000000000000000000 ) ) ;
#15 = EDGE_CURVE ( 'NONE', #54, #235, #4, .T. ) ;
#16 = DIRECTION ( 'NONE',  ( -1.215897659961753384E-16, 1.000000000000000000, -0.000000000000000000 ) ) ;
#17 = DIRECTION ( 'NONE',  ( -1.215897659961753384E-16, 1.000000000000000000, 0.000000000000000000 ) ) ;
#18 = MECHANICAL_DESIGN_GEOMETRIC_PRESENTATION_REPRESENTATION (  '', ( #237 ), #161 ) ;
#19 = VERTEX_POINT ( 'NONE', #213 ) ;
#20 = CARTESIAN_POINT ( 'NONE',  ( 0.000000000000000000, 0.1623797632095817789, 0.000000000000000000 ) ) ;
#21 = CYLINDRICAL_SURFACE ( 'NONE', #197, 0.09374999999999994449 ) ;
#22 = ADVANCED_FACE ( 'NONE', ( #65 ), #145, .F. ) ;
#23 =( NAMED_UNIT ( * ) PLANE_ANGLE_UNIT ( ) SI_UNIT ( $, .RADIAN. ) );
#24 =( GEOMETRIC_REPRESENTATION_CONTEXT ( 3 ) GLOBAL_UNCERTAINTY_ASSIGNED_CONTEXT ( ( #209 ) ) GLOBAL_UNIT_ASSIGNED_CONTEXT ( ( #138, #23, #253 ) ) REPRESENTATION_CONTEXT ( 'NONE', 'WORKASPACE' ) );
#25 = STYLED_ITEM ( 'NONE', ( #241 ), #141 ) ;
#26 = FACE_OUTER_BOUND ( 'NONE', #172, .T. ) ;
#27 = VERTEX_POINT ( 'NONE', #254 ) ;
#28 = CARTESIAN_POINT ( 'NONE',  ( 0.000000000000000000, 39.37007874015748143, 0.000000000000000000 ) ) ;
#29 = DIRECTION ( 'NONE',  ( 1.215897659961753384E-16, -1.000000000000000000, 0.000000000000000000 ) ) ;
#30 = SURFACE_STYLE_FILL_AREA ( #215 ) ;
#31 = ORIENTED_EDGE ( 'NONE', *, *, #226, .F. ) ;
#32 = SURFACE_STYLE_USAGE ( .BOTH. , #258 ) ;
#33 = AXIS2_PLACEMENT_3D ( 'NONE', #28, #84, #149 ) ;
#34 = EDGE_CURVE ( 'NONE', #27, #235, #192, .T. ) ;
#35 = PRODUCT_DEFINITION ( 'UNKNOWN', '', #57, #228 ) ;
#36 = SURFACE_STYLE_USAGE ( .BOTH. , #252 ) ;
#37 =( NAMED_UNIT ( * ) SI_UNIT ( $, .STERADIAN. ) SOLID_ANGLE_UNIT ( ) );
#38 = VERTEX_POINT ( 'NONE', #7 ) ;
#39 = MANIFOLD_SOLID_BREP ( 'Revolve - Tool Body (Pointed)', #73 ) ;
#40 = AXIS2_PLACEMENT_3D ( 'NONE', #50, #257, #174 ) ;
#41 = AXIS2_PLACEMENT_3D ( 'NONE', #20, #42, #92 ) ;
#42 = DIRECTION ( 'NONE',  ( 0.000000000000000000, 1.000000000000000000, 0.000000000000000000 ) ) ;
#43 = MECHANICAL_DESIGN_GEOMETRIC_PRESENTATION_REPRESENTATION (  '', ( #250 ), #62 ) ;
#44 = FACE_OUTER_BOUND ( 'NONE', #13, .T. ) ;
#45 = CARTESIAN_POINT ( 'NONE',  ( 1.622034746238156224E-16, 0.1623797632095817234, 0.000000000000000000 ) ) ;
#46 = CIRCLE ( 'NONE', #95, 0.09375000000000005551 ) ;
#47 = SURFACE_STYLE_FILL_AREA ( #146 ) ;
#48 = FILL_AREA_STYLE ('',( #130 ) ) ;
#49 = DIRECTION ( 'NONE',  ( 6.123233995736778362E-17, 0.8660254037844380415, -0.5000000000000009992 ) ) ;
#50 = CARTESIAN_POINT ( 'NONE',  ( -6.123233995736763571E-17, 2.000000000000000000, 0.000000000000000000 ) ) ;
#51 = LINE ( 'NONE', #66, #180 ) ;
#52 = EDGE_CURVE ( 'NONE', #27, #19, #69, .T. ) ;
#53 =( NAMED_UNIT ( * ) PLANE_ANGLE_UNIT ( ) SI_UNIT ( $, .RADIAN. ) );
#54 = VERTEX_POINT ( 'NONE', #160 ) ;
#55 = UNCERTAINTY_MEASURE_WITH_UNIT (LENGTH_MEASURE( 1.000000000000000082E-05 ), #102, 'distance_accuracy_value', 'NONE');
#56 =( NAMED_UNIT ( * ) PLANE_ANGLE_UNIT ( ) SI_UNIT ( $, .RADIAN. ) );
#57 = PRODUCT_DEFINITION_FORMATION_WITH_SPECIFIED_SOURCE ( 'ANY', '', #89, .NOT_KNOWN. ) ;
#58 = CARTESIAN_POINT ( 'NONE',  ( -6.123233995736763571E-17, 2.000000000000000000, 0.000000000000000000 ) ) ;
#59 = ADVANCED_FACE ( 'NONE', ( #72 ), #191, .T. ) ;
#60 = ORIENTED_EDGE ( 'NONE', *, *, #162, .T. ) ;
#61 = ORIENTED_EDGE ( 'NONE', *, *, #52, .F. ) ;
#62 =( GEOMETRIC_REPRESENTATION_CONTEXT ( 3 ) GLOBAL_UNCERTAINTY_ASSIGNED_CONTEXT ( ( #163 ) ) GLOBAL_UNIT_ASSIGNED_CONTEXT ( ( #251, #56, #208 ) ) REPRESENTATION_CONTEXT ( 'NONE', 'WORKASPACE' ) );
#63 = MECHANICAL_DESIGN_GEOMETRIC_PRESENTATION_REPRESENTATION (  '', ( #25 ), #134 ) ;
#64 =( CONVERSION_BASED_UNIT ( 'INCH', #87 ) LENGTH_UNIT ( ) NAMED_UNIT ( #115 ) );
#65 = FACE_OUTER_BOUND ( 'NONE', #223, .T. ) ;
#66 = CARTESIAN_POINT ( 'NONE',  ( 0.000000000000000000, 0.000000000000000000, 0.000000000000000000 ) ) ;
#67 = PRESENTATION_STYLE_ASSIGNMENT (( #32 ) ) ;
#68 = LENGTH_MEASURE_WITH_UNIT ( LENGTH_MEASURE( 0.02539999999999999897 ), #219 );
#69 = CIRCLE ( 'NONE', #109, 0.09374999999999984734 ) ;
#70 = COLOUR_RGB ( '',1.000000000000000000, 0.000000000000000000, 0.000000000000000000 ) ;
#71 =( LENGTH_UNIT ( ) NAMED_UNIT ( * ) SI_UNIT ( $, .METRE. ) );
#72 = FACE_OUTER_BOUND ( 'NONE', #81, .T. ) ;
#73 = CLOSED_SHELL ( 'NONE', ( #59, #190, #124, #22 ) ) ;
#74 = AXIS2_PLACEMENT_3D ( 'NONE', #198, #200, #156 ) ;
#75 = SURFACE_STYLE_FILL_AREA ( #5 ) ;
#76 = SURFACE_STYLE_USAGE ( .BOTH. , #120 ) ;
#77 = CLOSED_SHELL ( 'NONE', ( #224, #110, #141 ) ) ;
#78 = SHAPE_DEFINITION_REPRESENTATION ( #227, #182 ) ;
#79 = DIRECTION ( 'NONE',  ( -1.215897659961753384E-16, 1.000000000000000000, -0.000000000000000000 ) ) ;
#80 = FILL_AREA_STYLE_COLOUR ( '', #236 ) ;
#81 = EDGE_LOOP ( 'NONE', ( #100, #238, #116, #140 ) ) ;
#82 = VECTOR ( 'NONE', #101, 39.37007874015748143 ) ;
#83 = FACE_OUTER_BOUND ( 'NONE', #91, .T. ) ;
#84 = DIRECTION ( 'NONE',  ( 0.000000000000000000, 1.000000000000000000, 0.000000000000000000 ) ) ;
#85 = CARTESIAN_POINT ( 'NONE',  ( 0.09374999999999987510, 2.000000000000000000, 1.148106374200642938E-17 ) ) ;
#86 = DIRECTION ( 'NONE',  ( -1.000000000000000000, -1.215897659961753384E-16, 0.000000000000000000 ) ) ;
#87 = LENGTH_MEASURE_WITH_UNIT ( LENGTH_MEASURE( 0.02539999999999999897 ), #178 );
#88 =( GEOMETRIC_REPRESENTATION_CONTEXT ( 3 ) GLOBAL_UNCERTAINTY_ASSIGNED_CONTEXT ( ( #142 ) ) GLOBAL_UNIT_ASSIGNED_CONTEXT ( ( #155, #262, #136 ) ) REPRESENTATION_CONTEXT ( 'NONE', 'WORKASPACE' ) );
#89 = PRODUCT ( '83784', '83784', '', ( #233 ) ) ;
#90 = DIRECTION ( 'NONE',  ( -1.000000000000000000, 0.000000000000000000, 0.000000000000000000 ) ) ;
#91 = EDGE_LOOP ( 'NONE', ( #256, #202, #240 ) ) ;
#92 = DIRECTION ( 'NONE',  ( 0.000000000000000000, -0.000000000000000000, 1.000000000000000000 ) ) ;
#93 = MECHANICAL_DESIGN_GEOMETRIC_PRESENTATION_REPRESENTATION (  '', ( #94 ), #24 ) ;
#94 = STYLED_ITEM ( 'NONE', ( #249 ), #110 ) ;
#95 = AXIS2_PLACEMENT_3D ( 'NONE', #248, #16, #179 ) ;
#96 = DIRECTION ( 'NONE',  ( -1.215897659961753384E-16, 1.000000000000000000, -0.000000000000000000 ) ) ;
#97 = COLOUR_RGB ( '',1.000000000000000000, 0.000000000000000000, 0.000000000000000000 ) ;
#98 = AXIS2_PLACEMENT_3D ( 'NONE', #193, #221, #14 ) ;
#99 =( LENGTH_UNIT ( ) NAMED_UNIT ( * ) SI_UNIT ( $, .METRE. ) );
#100 = ORIENTED_EDGE ( 'NONE', *, *, #242, .T. ) ;
#101 = DIRECTION ( 'NONE',  ( -1.215897659961753384E-16, 1.000000000000000000, -0.000000000000000000 ) ) ;
#102 =( CONVERSION_BASED_UNIT ( 'INCH', #177 ) LENGTH_UNIT ( ) NAMED_UNIT ( #263 ) );
#103 = SURFACE_STYLE_FILL_AREA ( #217 ) ;
#104 = EDGE_LOOP ( 'NONE', ( #204, #122 ) ) ;
#105 = CARTESIAN_POINT ( 'NONE',  ( -0.09375000000000001388, 2.000000000000000000, 0.000000000000000000 ) ) ;
#106 = EDGE_CURVE ( 'NONE', #171, #113, #231, .T. ) ;
#107 = SURFACE_SIDE_STYLE ('',( #103 ) ) ;
#108 = APPLICATION_CONTEXT ( 'automotive_design' ) ;
#109 = AXIS2_PLACEMENT_3D ( 'NONE', #45, #79, #183 ) ;
#110 = ADVANCED_FACE ( 'NONE', ( #112 ), #187, .T. ) ;
#111 = ORIENTED_EDGE ( 'NONE', *, *, #34, .F. ) ;
#112 = FACE_OUTER_BOUND ( 'NONE', #104, .T. ) ;
#113 = VERTEX_POINT ( 'NONE', #117 ) ;
#114 =( NAMED_UNIT ( * ) SI_UNIT ( $, .STERADIAN. ) SOLID_ANGLE_UNIT ( ) );
#115 = DIMENSIONAL_EXPONENTS ( 1.000000000000000000, 0.000000000000000000, 0.000000000000000000, 0.000000000000000000, 0.000000000000000000, 0.000000000000000000, 0.000000000000000000 ) ;
#116 = ORIENTED_EDGE ( 'NONE', *, *, #15, .F. ) ;
#117 = CARTESIAN_POINT ( 'NONE',  ( 0.000000000000000000, 0.1623797632095817789, 0.09374999999999998612 ) ) ;
#118 = CIRCLE ( 'NONE', #98, 0.09374999999999998612 ) ;
#119 = UNCERTAINTY_MEASURE_WITH_UNIT (LENGTH_MEASURE( 1.000000000000000082E-05 ), #64, 'distance_accuracy_value', 'NONE');
#120 = SURFACE_SIDE_STYLE ('',( #47 ) ) ;
#121 = DIRECTION ( 'NONE',  ( -1.000000000000000000, 0.000000000000000000, 0.000000000000000000 ) ) ;
#122 = ORIENTED_EDGE ( 'NONE', *, *, #232, .F. ) ;
#123 = PRESENTATION_LAYER_ASSIGNMENT (  '', '', ( #237 ) ) ;
#124 = ADVANCED_FACE ( 'NONE', ( #44 ), #21, .T. ) ;
#125 = SURFACE_STYLE_FILL_AREA ( #48 ) ;
#126 = ORIENTED_EDGE ( 'NONE', *, *, #242, .F. ) ;
#127 =( LENGTH_UNIT ( ) NAMED_UNIT ( * ) SI_UNIT ( $, .METRE. ) );
#128 = FILL_AREA_STYLE_COLOUR ( '', #11 ) ;
#129 = CARTESIAN_POINT ( 'NONE',  ( 0.09374999999999998612, 2.000000000000000000, 0.000000000000000000 ) ) ;
#130 = FILL_AREA_STYLE_COLOUR ( '', #70 ) ;
#131 = AXIS2_PLACEMENT_3D ( 'NONE', #135, #246, #133 ) ;
#132 = FACE_OUTER_BOUND ( 'NONE', #1, .T. ) ;
#133 = DIRECTION ( 'NONE',  ( 0.000000000000000000, 0.000000000000000000, -1.000000000000000000 ) ) ;
#134 =( GEOMETRIC_REPRESENTATION_CONTEXT ( 3 ) GLOBAL_UNCERTAINTY_ASSIGNED_CONTEXT ( ( #119 ) ) GLOBAL_UNIT_ASSIGNED_CONTEXT ( ( #64, #10, #37 ) ) REPRESENTATION_CONTEXT ( 'NONE', 'WORKASPACE' ) );
#135 = CARTESIAN_POINT ( 'NONE',  ( 0.000000000000000000, 0.1623797632095817789, 0.000000000000000000 ) ) ;
#136 =( NAMED_UNIT ( * ) SI_UNIT ( $, .STERADIAN. ) SOLID_ANGLE_UNIT ( ) );
#137 = LENGTH_MEASURE_WITH_UNIT ( LENGTH_MEASURE( 0.02539999999999999897 ), #71 );
#138 =( CONVERSION_BASED_UNIT ( 'INCH', #230 ) LENGTH_UNIT ( ) NAMED_UNIT ( #159 ) );
#139 = PRODUCT_RELATED_PRODUCT_CATEGORY ( 'part', '', ( #89 ) ) ;
#140 = ORIENTED_EDGE ( 'NONE', *, *, #162, .F. ) ;
#141 = ADVANCED_FACE ( 'NONE', ( #26 ), #206, .T. ) ;
#142 = UNCERTAINTY_MEASURE_WITH_UNIT (LENGTH_MEASURE( 1.000000000000000082E-05 ), #155, 'distance_accuracy_value', 'NONE');
#143 = APPLICATION_PROTOCOL_DEFINITION ( 'draft international standard', 'automotive_design', 1998, #108 ) ;
#144 = SURFACE_STYLE_USAGE ( .BOTH. , #164 ) ;
#145 = PLANE ( 'NONE',  #157 ) ;
#146 = FILL_AREA_STYLE ('',( #80 ) ) ;
#147 = AXIS2_PLACEMENT_3D ( 'NONE', #58, #96, #170 ) ;
#148 = AXIS2_PLACEMENT_3D ( 'NONE', #243, #261, #90 ) ;
#149 = DIRECTION ( 'NONE',  ( 0.000000000000000000, 0.000000000000000000, 1.000000000000000000 ) ) ;
#150 = ORIENTED_EDGE ( 'NONE', *, *, #214, .F. ) ;
#151 = DIRECTION ( 'NONE',  ( 0.000000000000000000, 0.000000000000000000, 1.000000000000000000 ) ) ;
#152 = PLANE ( 'NONE',  #260 ) ;
#153 =( NAMED_UNIT ( * ) PLANE_ANGLE_UNIT ( ) SI_UNIT ( $, .RADIAN. ) );
#154 = PRESENTATION_LAYER_ASSIGNMENT (  '', '', ( #184 ) ) ;
#155 =( CONVERSION_BASED_UNIT ( 'INCH', #68 ) LENGTH_UNIT ( ) NAMED_UNIT ( #244 ) );
#156 = DIRECTION ( 'NONE',  ( 0.000000000000000000, 0.000000000000000000, 1.000000000000000000 ) ) ;
#157 = AXIS2_PLACEMENT_3D ( 'NONE', #129, #29, #216 ) ;
#158 = VECTOR ( 'NONE', #176, 39.37007874015748143 ) ;
#159 = DIMENSIONAL_EXPONENTS ( 1.000000000000000000, 0.000000000000000000, 0.000000000000000000, 0.000000000000000000, 0.000000000000000000, 0.000000000000000000, 0.000000000000000000 ) ;
#160 = CARTESIAN_POINT ( 'NONE',  ( -0.09375000000000012490, 2.000000000000000000, 0.000000000000000000 ) ) ;
#161 =( GEOMETRIC_REPRESENTATION_CONTEXT ( 3 ) GLOBAL_UNCERTAINTY_ASSIGNED_CONTEXT ( ( #55 ) ) GLOBAL_UNIT_ASSIGNED_CONTEXT ( ( #102, #153, #114 ) ) REPRESENTATION_CONTEXT ( 'NONE', 'WORKASPACE' ) );
#162 = EDGE_CURVE ( 'NONE', #19, #54, #173, .T. ) ;
#163 = UNCERTAINTY_MEASURE_WITH_UNIT (LENGTH_MEASURE( 1.000000000000000082E-05 ), #251, 'distance_accuracy_value', 'NONE');
#164 = SURFACE_SIDE_STYLE ('',( #75 ) ) ;
#165 = FILL_AREA_STYLE_COLOUR ( '', #97 ) ;
#166 = PRESENTATION_LAYER_ASSIGNMENT (  '', '', ( #250 ) ) ;
#167 =( GEOMETRIC_REPRESENTATION_CONTEXT ( 3 ) GLOBAL_UNCERTAINTY_ASSIGNED_CONTEXT ( ( #186 ) ) GLOBAL_UNIT_ASSIGNED_CONTEXT ( ( #225, #53, #203 ) ) REPRESENTATION_CONTEXT ( 'NONE', 'WORKASPACE' ) );
#168 = DIRECTION ( 'NONE',  ( 1.000000000000000000, 0.000000000000000000, 0.000000000000000000 ) ) ;
#169 = ORIENTED_EDGE ( 'NONE', *, *, #52, .T. ) ;
#170 = DIRECTION ( 'NONE',  ( -1.000000000000000000, 0.000000000000000000, 0.000000000000000000 ) ) ;
#171 = VERTEX_POINT ( 'NONE', #239 ) ;
#172 = EDGE_LOOP ( 'NONE', ( #150, #196, #9 ) ) ;
#173 = LINE ( 'NONE', #105, #158 ) ;
#174 = DIRECTION ( 'NONE',  ( -1.000000000000000000, 0.000000000000000000, 0.000000000000000000 ) ) ;
#175 = EDGE_CURVE ( 'NONE', #113, #38, #118, .T. ) ;
#176 = DIRECTION ( 'NONE',  ( -1.215897659961753384E-16, 1.000000000000000000, -0.000000000000000000 ) ) ;
#177 = LENGTH_MEASURE_WITH_UNIT ( LENGTH_MEASURE( 0.02539999999999999897 ), #127 );
#178 =( LENGTH_UNIT ( ) NAMED_UNIT ( * ) SI_UNIT ( $, .METRE. ) );
#179 = DIRECTION ( 'NONE',  ( -1.000000000000000000, 0.000000000000000000, 0.000000000000000000 ) ) ;
#180 = VECTOR ( 'NONE', #49, 39.37007874015748143 ) ;
#181 = DIMENSIONAL_EXPONENTS ( 1.000000000000000000, 0.000000000000000000, 0.000000000000000000, 0.000000000000000000, 0.000000000000000000, 0.000000000000000000, 0.000000000000000000 ) ;
#182 = ADVANCED_BREP_SHAPE_REPRESENTATION ( '83784', ( #220, #39, #255 ), #167 ) ;
#183 = DIRECTION ( 'NONE',  ( -1.000000000000000000, 0.000000000000000000, 0.000000000000000000 ) ) ;
#184 = STYLED_ITEM ( 'NONE', ( #67 ), #220 ) ;
#185 = CARTESIAN_POINT ( 'NONE',  ( 0.000000000000000000, 0.000000000000000000, 0.000000000000000000 ) ) ;
#186 = UNCERTAINTY_MEASURE_WITH_UNIT (LENGTH_MEASURE( 1.000000000000000082E-05 ), #225, 'distance_accuracy_value', 'NONE');
#187 = PLANE ( 'NONE',  #41 ) ;
#188 = PRESENTATION_STYLE_ASSIGNMENT (( #76 ) ) ;
#189 = MECHANICAL_DESIGN_GEOMETRIC_PRESENTATION_REPRESENTATION (  '', ( #184 ), #88 ) ;
#190 = ADVANCED_FACE ( 'NONE', ( #132 ), #152, .F. ) ;
#191 = CYLINDRICAL_SURFACE ( 'NONE', #147, 0.09374999999999994449 ) ;
#192 = LINE ( 'NONE', #85, #82 ) ;
#193 = CARTESIAN_POINT ( 'NONE',  ( 0.000000000000000000, 0.1623797632095817789, 0.000000000000000000 ) ) ;
#194 = ORIENTED_EDGE ( 'NONE', *, *, #226, .T. ) ;
#195 = FILL_AREA_STYLE_COLOUR ( '', #245 ) ;
#196 = ORIENTED_EDGE ( 'NONE', *, *, #106, .T. ) ;
#197 = AXIS2_PLACEMENT_3D ( 'NONE', #207, #3, #121 ) ;
#198 = CARTESIAN_POINT ( 'NONE',  ( 0.000000000000000000, 39.37007874015748143, 0.000000000000000000 ) ) ;
#199 = CONICAL_SURFACE ( 'NONE', #74, 22.73032555864674364, 0.5235987755983000369 ) ;
#200 = DIRECTION ( 'NONE',  ( 0.000000000000000000, 1.000000000000000000, 0.000000000000000000 ) ) ;
#201 = CARTESIAN_POINT ( 'NONE',  ( 0.09374999999999998612, 2.000000000000000000, 1.148106374200643555E-17 ) ) ;
#202 = ORIENTED_EDGE ( 'NONE', *, *, #214, .T. ) ;
#203 =( NAMED_UNIT ( * ) SI_UNIT ( $, .STERADIAN. ) SOLID_ANGLE_UNIT ( ) );
#204 = ORIENTED_EDGE ( 'NONE', *, *, #175, .F. ) ;
#205 = DIMENSIONAL_EXPONENTS ( 1.000000000000000000, 0.000000000000000000, 0.000000000000000000, 0.000000000000000000, 0.000000000000000000, 0.000000000000000000, 0.000000000000000000 ) ;
#206 = CONICAL_SURFACE ( 'NONE', #33, 22.73032555864674364, 0.5235987755983000369 ) ;
#207 = CARTESIAN_POINT ( 'NONE',  ( -6.123233995736763571E-17, 2.000000000000000000, 0.000000000000000000 ) ) ;
#208 =( NAMED_UNIT ( * ) SI_UNIT ( $, .STERADIAN. ) SOLID_ANGLE_UNIT ( ) );
#209 = UNCERTAINTY_MEASURE_WITH_UNIT (LENGTH_MEASURE( 1.000000000000000082E-05 ), #138, 'distance_accuracy_value', 'NONE');
#210 = LENGTH_MEASURE_WITH_UNIT ( LENGTH_MEASURE( 0.02539999999999999897 ), #99 );
#211 = ORIENTED_EDGE ( 'NONE', *, *, #15, .T. ) ;
#212 = PRESENTATION_STYLE_ASSIGNMENT (( #36 ) ) ;
#213 = CARTESIAN_POINT ( 'NONE',  ( -0.09374999999999968081, 0.1623797632095817234, 0.000000000000000000 ) ) ;
#214 = EDGE_CURVE ( 'NONE', #171, #38, #51, .T. ) ;
#215 = FILL_AREA_STYLE ('',( #128 ) ) ;
#216 = DIRECTION ( 'NONE',  ( 1.000000000000000000, 1.215897659961753384E-16, 0.000000000000000000 ) ) ;
#217 = FILL_AREA_STYLE ('',( #195 ) ) ;
#218 = PRESENTATION_LAYER_ASSIGNMENT (  '', '', ( #25 ) ) ;
#219 =( LENGTH_UNIT ( ) NAMED_UNIT ( * ) SI_UNIT ( $, .METRE. ) );
#220 = MANIFOLD_SOLID_BREP ( 'Revolve - Cutting Edge', #77 ) ;
#221 = DIRECTION ( 'NONE',  ( -0.000000000000000000, -1.000000000000000000, -0.000000000000000000 ) ) ;
#222 = VECTOR ( 'NONE', #247, 39.37007874015748143 ) ;
#223 = EDGE_LOOP ( 'NONE', ( #211, #194 ) ) ;
#224 = ADVANCED_FACE ( 'NONE', ( #83 ), #199, .T. ) ;
#225 =( CONVERSION_BASED_UNIT ( 'INCH', #137 ) LENGTH_UNIT ( ) NAMED_UNIT ( #181 ) );
#226 = EDGE_CURVE ( 'NONE', #235, #54, #46, .T. ) ;
#227 = PRODUCT_DEFINITION_SHAPE ( 'NONE', 'NONE',  #35 ) ;
#228 = PRODUCT_DEFINITION_CONTEXT ( 'detailed design', #264, 'design' ) ;
#229 = PRESENTATION_LAYER_ASSIGNMENT (  '', '', ( #94 ) ) ;
#230 = LENGTH_MEASURE_WITH_UNIT ( LENGTH_MEASURE( 0.02539999999999999897 ), #234 );
#231 = LINE ( 'NONE', #185, #222 ) ;
#232 = EDGE_CURVE ( 'NONE', #38, #113, #265, .T. ) ;
#233 = PRODUCT_CONTEXT ( 'NONE', #108, 'mechanical' ) ;
#234 =( LENGTH_UNIT ( ) NAMED_UNIT ( * ) SI_UNIT ( $, .METRE. ) );
#235 = VERTEX_POINT ( 'NONE', #201 ) ;
#236 = COLOUR_RGB ( '',0.7921568627450980005, 0.8196078431372548767, 0.9333333333333333481 ) ;
#237 = STYLED_ITEM ( 'NONE', ( #212 ), #224 ) ;
#238 = ORIENTED_EDGE ( 'NONE', *, *, #34, .T. ) ;
#239 = CARTESIAN_POINT ( 'NONE',  ( 0.000000000000000000, 0.000000000000000000, 0.000000000000000000 ) ) ;
#240 = ORIENTED_EDGE ( 'NONE', *, *, #232, .T. ) ;
#241 = PRESENTATION_STYLE_ASSIGNMENT (( #259 ) ) ;
#242 = EDGE_CURVE ( 'NONE', #19, #27, #2, .T. ) ;
#243 = CARTESIAN_POINT ( 'NONE',  ( 1.622034746238156224E-16, 0.1623797632095817234, 0.000000000000000000 ) ) ;
#244 = DIMENSIONAL_EXPONENTS ( 1.000000000000000000, 0.000000000000000000, 0.000000000000000000, 0.000000000000000000, 0.000000000000000000, 0.000000000000000000, 0.000000000000000000 ) ;
#245 = COLOUR_RGB ( '',1.000000000000000000, 0.000000000000000000, 0.000000000000000000 ) ;
#246 = DIRECTION ( 'NONE',  ( -0.000000000000000000, -1.000000000000000000, -0.000000000000000000 ) ) ;
#247 = DIRECTION ( 'NONE',  ( 0.000000000000000000, 0.8660254037844380415, 0.5000000000000009992 ) ) ;
#248 = CARTESIAN_POINT ( 'NONE',  ( -6.123233995736763571E-17, 2.000000000000000000, 0.000000000000000000 ) ) ;
#249 = PRESENTATION_STYLE_ASSIGNMENT (( #144 ) ) ;
#250 = STYLED_ITEM ( 'NONE', ( #188 ), #39 ) ;
#251 =( CONVERSION_BASED_UNIT ( 'INCH', #210 ) LENGTH_UNIT ( ) NAMED_UNIT ( #205 ) );
#252 = SURFACE_SIDE_STYLE ('',( #125 ) ) ;
#253 =( NAMED_UNIT ( * ) SI_UNIT ( $, .STERADIAN. ) SOLID_ANGLE_UNIT ( ) );
#254 = CARTESIAN_POINT ( 'NONE',  ( 0.09374999999999998612, 0.1623797632095817234, 1.148106374200643863E-17 ) ) ;
#255 = AXIS2_PLACEMENT_3D ( 'NONE', #12, #151, #168 ) ;
#256 = ORIENTED_EDGE ( 'NONE', *, *, #106, .F. ) ;
#257 = DIRECTION ( 'NONE',  ( -1.215897659961753384E-16, 1.000000000000000000, -0.000000000000000000 ) ) ;
#258 = SURFACE_SIDE_STYLE ('',( #30 ) ) ;
#259 = SURFACE_STYLE_USAGE ( .BOTH. , #107 ) ;
#260 = AXIS2_PLACEMENT_3D ( 'NONE', #8, #17, #86 ) ;
#261 = DIRECTION ( 'NONE',  ( -1.215897659961753384E-16, 1.000000000000000000, -0.000000000000000000 ) ) ;
#262 =( NAMED_UNIT ( * ) PLANE_ANGLE_UNIT ( ) SI_UNIT ( $, .RADIAN. ) );
#263 = DIMENSIONAL_EXPONENTS ( 1.000000000000000000, 0.000000000000000000, 0.000000000000000000, 0.000000000000000000, 0.000000000000000000, 0.000000000000000000, 0.000000000000000000 ) ;
#264 = APPLICATION_CONTEXT ( 'automotive_design' ) ;
#265 = CIRCLE ( 'NONE', #131, 0.09374999999999998612 ) ;
ENDSEC;
END-ISO-10303-21;
