ISO-10303-21;
HEADER;
FILE_DESCRIPTION (( 'STEP AP214' ),
    '1' );
FILE_NAME ('83828.STEP',
    '2023-07-05T16:13:40',
    ( '' ),
    ( '' ),
    'SwSTEP 2.0',
    'SolidWorks 2023',
    '' );
FILE_SCHEMA (( 'AUTOMOTIVE_DESIGN' ));
ENDSEC;

DATA;
#1 = PLANE ( 'NONE',  #52 ) ;
#2 = DIRECTION ( 'NONE',  ( -1.451753476719974375E-16, 1.000000000000000000, -0.000000000000000000 ) ) ;
#3 =( GEOMETRIC_REPRESENTATION_CONTEXT ( 3 ) GLOBAL_UNCERTAINTY_ASSIGNED_CONTEXT ( ( #255 ) ) GLOBAL_UNIT_ASSIGNED_CONTEXT ( ( #148, #46, #133 ) ) REPRESENTATION_CONTEXT ( 'NONE', 'WORKASPACE' ) );
#4 = CARTESIAN_POINT ( 'NONE',  ( 7.870206804039944582E-19, 0.1082531754730542695, 0.000000000000000000 ) ) ;
#5 = UNCERTAINTY_MEASURE_WITH_UNIT (LENGTH_MEASURE( 1.000000000000000082E-05 ), #7, 'distance_accuracy_value', 'NONE');
#6 = DIMENSIONAL_EXPONENTS ( 1.000000000000000000, 0.000000000000000000, 0.000000000000000000, 0.000000000000000000, 0.000000000000000000, 0.000000000000000000, 0.000000000000000000 ) ;
#7 =( CONVERSION_BASED_UNIT ( 'INCH', #188 ) LENGTH_UNIT ( ) NAMED_UNIT ( #6 ) );
#8 = ORIENTED_EDGE ( 'NONE', *, *, #110, .F. ) ;
#9 = DIMENSIONAL_EXPONENTS ( 1.000000000000000000, 0.000000000000000000, 0.000000000000000000, 0.000000000000000000, 0.000000000000000000, 0.000000000000000000, 0.000000000000000000 ) ;
#10 = SURFACE_SIDE_STYLE ('',( #191 ) ) ;
#11 = FILL_AREA_STYLE_COLOUR ( '', #84 ) ;
#12 = SURFACE_STYLE_USAGE ( .BOTH. , #223 ) ;
#13 = SURFACE_STYLE_FILL_AREA ( #234 ) ;
#14 = VECTOR ( 'NONE', #167, 39.37007874015748143 ) ;
#15 = PRODUCT_DEFINITION_FORMATION_WITH_SPECIFIED_SOURCE ( 'ANY', '', #38, .NOT_KNOWN. ) ;
#16 =( CONVERSION_BASED_UNIT ( 'INCH', #121 ) LENGTH_UNIT ( ) NAMED_UNIT ( #232 ) );
#17 =( NAMED_UNIT ( * ) SI_UNIT ( $, .STERADIAN. ) SOLID_ANGLE_UNIT ( ) );
#18 = SURFACE_STYLE_FILL_AREA ( #199 ) ;
#19 = DIRECTION ( 'NONE',  ( -1.451753476719974375E-16, 1.000000000000000000, -0.000000000000000000 ) ) ;
#20 = FACE_OUTER_BOUND ( 'NONE', #209, .T. ) ;
#21 =( GEOMETRIC_REPRESENTATION_CONTEXT ( 3 ) GLOBAL_UNCERTAINTY_ASSIGNED_CONTEXT ( ( #132 ) ) GLOBAL_UNIT_ASSIGNED_CONTEXT ( ( #186, #248, #233 ) ) REPRESENTATION_CONTEXT ( 'NONE', 'WORKASPACE' ) );
#22 = EDGE_LOOP ( 'NONE', ( #63, #190, #128, #64 ) ) ;
#23 = CLOSED_SHELL ( 'NONE', ( #217, #102, #126 ) ) ;
#24 = CARTESIAN_POINT ( 'NONE',  ( -6.123233995736766036E-17, 2.500000000000000000, 0.000000000000000000 ) ) ;
#25 = DIMENSIONAL_EXPONENTS ( 1.000000000000000000, 0.000000000000000000, 0.000000000000000000, 0.000000000000000000, 0.000000000000000000, 0.000000000000000000, 0.000000000000000000 ) ;
#26 = DIRECTION ( 'NONE',  ( -1.000000000000000000, 0.000000000000000000, 0.000000000000000000 ) ) ;
#27 = ORIENTED_EDGE ( 'NONE', *, *, #163, .F. ) ;
#28 = FILL_AREA_STYLE ('',( #129 ) ) ;
#29 = DIRECTION ( 'NONE',  ( -1.451753476719974375E-16, 1.000000000000000000, -0.000000000000000000 ) ) ;
#30 =( NAMED_UNIT ( * ) PLANE_ANGLE_UNIT ( ) SI_UNIT ( $, .RADIAN. ) );
#31 = FACE_OUTER_BOUND ( 'NONE', #254, .T. ) ;
#32 = FILL_AREA_STYLE_COLOUR ( '', #71 ) ;
#33 = CARTESIAN_POINT ( 'NONE',  ( 2.859903368367275526E-16, 0.1082531754730542140, 0.000000000000000000 ) ) ;
#34 = CARTESIAN_POINT ( 'NONE',  ( -0.1874999999999994449, 0.1082531754730541723, 0.000000000000000000 ) ) ;
#35 = CLOSED_SHELL ( 'NONE', ( #239, #261, #62, #155 ) ) ;
#36 = AXIS2_PLACEMENT_3D ( 'NONE', #156, #135, #158 ) ;
#37 = CARTESIAN_POINT ( 'NONE',  ( 0.000000000000000000, 0.000000000000000000, 0.000000000000000000 ) ) ;
#38 = PRODUCT ( '83828', '83828', '', ( #224 ) ) ;
#39 =( NAMED_UNIT ( * ) PLANE_ANGLE_UNIT ( ) SI_UNIT ( $, .RADIAN. ) );
#40 = APPLICATION_PROTOCOL_DEFINITION ( 'draft international standard', 'automotive_design', 1998, #187 ) ;
#41 =( CONVERSION_BASED_UNIT ( 'INCH', #97 ) LENGTH_UNIT ( ) NAMED_UNIT ( #108 ) );
#42 = ORIENTED_EDGE ( 'NONE', *, *, #55, .T. ) ;
#43 = ORIENTED_EDGE ( 'NONE', *, *, #252, .T. ) ;
#44 = PRESENTATION_STYLE_ASSIGNMENT (( #228 ) ) ;
#45 = SURFACE_SIDE_STYLE ('',( #58 ) ) ;
#46 =( NAMED_UNIT ( * ) PLANE_ANGLE_UNIT ( ) SI_UNIT ( $, .RADIAN. ) );
#47 = CIRCLE ( 'NONE', #207, 0.1875000000000000278 ) ;
#48 = SURFACE_STYLE_USAGE ( .BOTH. , #67 ) ;
#49 = PRESENTATION_STYLE_ASSIGNMENT (( #48 ) ) ;
#50 =( LENGTH_UNIT ( ) NAMED_UNIT ( * ) SI_UNIT ( $, .METRE. ) );
#51 = DIRECTION ( 'NONE',  ( 0.8660254037844397068, 0.4999999999999979461, 1.060575238724908024E-16 ) ) ;
#52 = AXIS2_PLACEMENT_3D ( 'NONE', #194, #72, #74 ) ;
#53 = CARTESIAN_POINT ( 'NONE',  ( -6.123233995736766036E-17, 2.500000000000000000, 0.000000000000000000 ) ) ;
#54 = CARTESIAN_POINT ( 'NONE',  ( 0.1874999999999999722, 2.500000000000000000, 2.296212748401286801E-17 ) ) ;
#55 = EDGE_CURVE ( 'NONE', #247, #250, #161, .T. ) ;
#56 = STYLED_ITEM ( 'NONE', ( #171 ), #202 ) ;
#57 = DIRECTION ( 'NONE',  ( 1.000000000000000000, 0.000000000000000000, 0.000000000000000000 ) ) ;
#58 = SURFACE_STYLE_FILL_AREA ( #82 ) ;
#59 = AXIS2_PLACEMENT_3D ( 'NONE', #177, #114, #200 ) ;
#60 = PRODUCT_DEFINITION_SHAPE ( 'NONE', 'NONE',  #195 ) ;
#61 = LINE ( 'NONE', #165, #14 ) ;
#62 = ADVANCED_FACE ( 'NONE', ( #141 ), #211, .T. ) ;
#63 = ORIENTED_EDGE ( 'NONE', *, *, #242, .T. ) ;
#64 = ORIENTED_EDGE ( 'NONE', *, *, #89, .F. ) ;
#65 = AXIS2_PLACEMENT_3D ( 'NONE', #103, #19, #26 ) ;
#66 = ORIENTED_EDGE ( 'NONE', *, *, #89, .T. ) ;
#67 = SURFACE_SIDE_STYLE ('',( #13 ) ) ;
#68 = DIMENSIONAL_EXPONENTS ( 1.000000000000000000, 0.000000000000000000, 0.000000000000000000, 0.000000000000000000, 0.000000000000000000, 0.000000000000000000, 0.000000000000000000 ) ;
#69 = FILL_AREA_STYLE_COLOUR ( '', #109 ) ;
#70 = CARTESIAN_POINT ( 'NONE',  ( 0.1874999999999998057, 2.500000000000000000, 2.296212748401285877E-17 ) ) ;
#71 = COLOUR_RGB ( '',1.000000000000000000, 0.000000000000000000, 0.000000000000000000 ) ;
#72 = DIRECTION ( 'NONE',  ( 7.270185627024815973E-18, 1.000000000000000000, 0.000000000000000000 ) ) ;
#73 = EDGE_CURVE ( 'NONE', #250, #247, #164, .T. ) ;
#74 = DIRECTION ( 'NONE',  ( -1.000000000000000000, 7.270185627024815973E-18, 0.000000000000000000 ) ) ;
#75 = PRESENTATION_LAYER_ASSIGNMENT (  '', '', ( #262 ) ) ;
#76 = PLANE ( 'NONE',  #85 ) ;
#77 = ORIENTED_EDGE ( 'NONE', *, *, #252, .F. ) ;
#78 = COLOUR_RGB ( '',1.000000000000000000, 0.000000000000000000, 0.000000000000000000 ) ;
#79 = ORIENTED_EDGE ( 'NONE', *, *, #99, .T. ) ;
#80 =( GEOMETRIC_REPRESENTATION_CONTEXT ( 3 ) GLOBAL_UNCERTAINTY_ASSIGNED_CONTEXT ( ( #145 ) ) GLOBAL_UNIT_ASSIGNED_CONTEXT ( ( #185, #166, #17 ) ) REPRESENTATION_CONTEXT ( 'NONE', 'WORKASPACE' ) );
#81 = DIRECTION ( 'NONE',  ( 1.000000000000000000, 0.000000000000000000, 0.000000000000000000 ) ) ;
#82 = FILL_AREA_STYLE ('',( #212 ) ) ;
#83 = DIRECTION ( 'NONE',  ( -7.270185627024815973E-18, -1.000000000000000000, -0.000000000000000000 ) ) ;
#84 = COLOUR_RGB ( '',0.7921568627450980005, 0.8196078431372548767, 0.9333333333333333481 ) ;
#85 = AXIS2_PLACEMENT_3D ( 'NONE', #258, #159, #91 ) ;
#86 = UNCERTAINTY_MEASURE_WITH_UNIT (LENGTH_MEASURE( 1.000000000000000082E-05 ), #16, 'distance_accuracy_value', 'NONE');
#87 =( NAMED_UNIT ( * ) SI_UNIT ( $, .STERADIAN. ) SOLID_ANGLE_UNIT ( ) );
#88 = SURFACE_STYLE_USAGE ( .BOTH. , #10 ) ;
#89 = EDGE_CURVE ( 'NONE', #160, #247, #61, .T. ) ;
#90 = FILL_AREA_STYLE ('',( #11 ) ) ;
#91 = DIRECTION ( 'NONE',  ( -1.000000000000000000, -1.451753476719974375E-16, 0.000000000000000000 ) ) ;
#92 = DIRECTION ( 'NONE',  ( -1.000000000000000000, 0.000000000000000000, 0.000000000000000000 ) ) ;
#93 = CYLINDRICAL_SURFACE ( 'NONE', #256, 0.1874999999999998890 ) ;
#94 = DIRECTION ( 'NONE',  ( 1.000000000000000000, 0.000000000000000000, 0.000000000000000000 ) ) ;
#95 = CARTESIAN_POINT ( 'NONE',  ( 0.1875000000000000278, 0.1082531754730542695, 2.296212748401287726E-17 ) ) ;
#96 = AXIS2_PLACEMENT_3D ( 'NONE', #134, #221, #260 ) ;
#97 = LENGTH_MEASURE_WITH_UNIT ( LENGTH_MEASURE( 0.02539999999999999897 ), #136 );
#98 = VERTEX_POINT ( 'NONE', #231 ) ;
#99 = EDGE_CURVE ( 'NONE', #213, #226, #173, .T. ) ;
#100 = AXIS2_PLACEMENT_3D ( 'NONE', #24, #2, #146 ) ;
#101 = PRESENTATION_LAYER_ASSIGNMENT (  '', '', ( #112 ) ) ;
#102 = ADVANCED_FACE ( 'NONE', ( #143 ), #1, .T. ) ;
#103 = CARTESIAN_POINT ( 'NONE',  ( -6.123233995736764803E-17, 2.500000000000000000, 0.000000000000000000 ) ) ;
#104 =( LENGTH_UNIT ( ) NAMED_UNIT ( * ) SI_UNIT ( $, .METRE. ) );
#105 = CARTESIAN_POINT ( 'NONE',  ( -6.123233995736764803E-17, 2.500000000000000000, 0.000000000000000000 ) ) ;
#106 = PRODUCT_RELATED_PRODUCT_CATEGORY ( 'part', '', ( #38 ) ) ;
#107 = ORIENTED_EDGE ( 'NONE', *, *, #73, .T. ) ;
#108 = DIMENSIONAL_EXPONENTS ( 1.000000000000000000, 0.000000000000000000, 0.000000000000000000, 0.000000000000000000, 0.000000000000000000, 0.000000000000000000, 0.000000000000000000 ) ;
#109 = COLOUR_RGB ( '',1.000000000000000000, 0.000000000000000000, 0.000000000000000000 ) ;
#110 = EDGE_CURVE ( 'NONE', #226, #213, #47, .T. ) ;
#111 = MANIFOLD_SOLID_BREP ( 'Revolve - Cutting Edge', #23 ) ;
#112 = STYLED_ITEM ( 'NONE', ( #150 ), #217 ) ;
#113 =( LENGTH_UNIT ( ) NAMED_UNIT ( * ) SI_UNIT ( $, .METRE. ) );
#114 = DIRECTION ( 'NONE',  ( -1.451753476719974375E-16, 1.000000000000000000, -0.000000000000000000 ) ) ;
#115 = STYLED_ITEM ( 'NONE', ( #259 ), #111 ) ;
#116 = CIRCLE ( 'NONE', #59, 0.1874999999999996947 ) ;
#117 = DIRECTION ( 'NONE',  ( -1.000000000000000000, 0.000000000000000000, 0.000000000000000000 ) ) ;
#118 = EDGE_LOOP ( 'NONE', ( #8, #222 ) ) ;
#119 = LINE ( 'NONE', #205, #244 ) ;
#120 = LINE ( 'NONE', #70, #264 ) ;
#121 = LENGTH_MEASURE_WITH_UNIT ( LENGTH_MEASURE( 0.02539999999999999897 ), #113 );
#122 = ADVANCED_BREP_SHAPE_REPRESENTATION ( '83828', ( #111, #202, #175 ), #249 ) ;
#123 = MECHANICAL_DESIGN_GEOMETRIC_PRESENTATION_REPRESENTATION (  '', ( #112 ), #80 ) ;
#124 = LENGTH_MEASURE_WITH_UNIT ( LENGTH_MEASURE( 0.02539999999999999897 ), #104 );
#125 = ORIENTED_EDGE ( 'NONE', *, *, #242, .F. ) ;
#126 = ADVANCED_FACE ( 'NONE', ( #31 ), #157, .T. ) ;
#127 = ORIENTED_EDGE ( 'NONE', *, *, #206, .F. ) ;
#128 = ORIENTED_EDGE ( 'NONE', *, *, #55, .F. ) ;
#129 = FILL_AREA_STYLE_COLOUR ( '', #174 ) ;
#130 = SURFACE_STYLE_FILL_AREA ( #90 ) ;
#131 =( GEOMETRIC_REPRESENTATION_CONTEXT ( 3 ) GLOBAL_UNCERTAINTY_ASSIGNED_CONTEXT ( ( #86 ) ) GLOBAL_UNIT_ASSIGNED_CONTEXT ( ( #16, #241, #137 ) ) REPRESENTATION_CONTEXT ( 'NONE', 'WORKASPACE' ) );
#132 = UNCERTAINTY_MEASURE_WITH_UNIT (LENGTH_MEASURE( 1.000000000000000082E-05 ), #186, 'distance_accuracy_value', 'NONE');
#133 =( NAMED_UNIT ( * ) SI_UNIT ( $, .STERADIAN. ) SOLID_ANGLE_UNIT ( ) );
#134 = CARTESIAN_POINT ( 'NONE',  ( 2.862277805915282117E-16, 39.37007874015748143, 0.000000000000000000 ) ) ;
#135 = DIRECTION ( 'NONE',  ( 1.451753476719974375E-16, -1.000000000000000000, 0.000000000000000000 ) ) ;
#136 =( LENGTH_UNIT ( ) NAMED_UNIT ( * ) SI_UNIT ( $, .METRE. ) );
#137 =( NAMED_UNIT ( * ) SI_UNIT ( $, .STERADIAN. ) SOLID_ANGLE_UNIT ( ) );
#138 = AXIS2_PLACEMENT_3D ( 'NONE', #105, #183, #180 ) ;
#139 = AXIS2_PLACEMENT_3D ( 'NONE', #33, #201, #154 ) ;
#140 = EDGE_LOOP ( 'NONE', ( #125, #77 ) ) ;
#141 = FACE_OUTER_BOUND ( 'NONE', #243, .T. ) ;
#142 = APPLICATION_PROTOCOL_DEFINITION ( 'draft international standard', 'automotive_design', 1998, #178 ) ;
#143 = FACE_OUTER_BOUND ( 'NONE', #118, .T. ) ;
#144 =( LENGTH_UNIT ( ) NAMED_UNIT ( * ) SI_UNIT ( $, .METRE. ) );
#145 = UNCERTAINTY_MEASURE_WITH_UNIT (LENGTH_MEASURE( 1.000000000000000082E-05 ), #185, 'distance_accuracy_value', 'NONE');
#146 = DIRECTION ( 'NONE',  ( -1.000000000000000000, 0.000000000000000000, 0.000000000000000000 ) ) ;
#147 = LINE ( 'NONE', #37, #219 ) ;
#148 =( CONVERSION_BASED_UNIT ( 'INCH', #218 ) LENGTH_UNIT ( ) NAMED_UNIT ( #25 ) );
#149 = ORIENTED_EDGE ( 'NONE', *, *, #110, .T. ) ;
#150 = PRESENTATION_STYLE_ASSIGNMENT (( #12 ) ) ;
#151 = MECHANICAL_DESIGN_GEOMETRIC_PRESENTATION_REPRESENTATION (  '', ( #56 ), #131 ) ;
#152 = UNCERTAINTY_MEASURE_WITH_UNIT (LENGTH_MEASURE( 1.000000000000000082E-05 ), #41, 'distance_accuracy_value', 'NONE');
#153 = DIRECTION ( 'NONE',  ( -7.270185627024815973E-18, -1.000000000000000000, -0.000000000000000000 ) ) ;
#154 = DIRECTION ( 'NONE',  ( -1.000000000000000000, -1.821231995776178437E-16, 0.000000000000000000 ) ) ;
#155 = ADVANCED_FACE ( 'NONE', ( #176 ), #257, .F. ) ;
#156 = CARTESIAN_POINT ( 'NONE',  ( 0.1874999999999999722, 2.500000000000000000, 0.000000000000000000 ) ) ;
#157 = CONICAL_SURFACE ( 'NONE', #189, 68.19097667594041923, 1.047197551196600074 ) ;
#158 = DIRECTION ( 'NONE',  ( 1.000000000000000000, 1.451753476719974375E-16, 0.000000000000000000 ) ) ;
#159 = DIRECTION ( 'NONE',  ( -1.451753476719974375E-16, 1.000000000000000000, 0.000000000000000000 ) ) ;
#160 = VERTEX_POINT ( 'NONE', #34 ) ;
#161 = CIRCLE ( 'NONE', #65, 0.1875000000000000555 ) ;
#162 =( NAMED_UNIT ( * ) SI_UNIT ( $, .STERADIAN. ) SOLID_ANGLE_UNIT ( ) );
#163 = EDGE_CURVE ( 'NONE', #98, #250, #120, .T. ) ;
#164 = CIRCLE ( 'NONE', #138, 0.1875000000000000555 ) ;
#165 = CARTESIAN_POINT ( 'NONE',  ( -0.1874999999999999445, 2.500000000000000000, 0.000000000000000000 ) ) ;
#166 =( NAMED_UNIT ( * ) PLANE_ANGLE_UNIT ( ) SI_UNIT ( $, .RADIAN. ) );
#167 = DIRECTION ( 'NONE',  ( -1.451753476719974375E-16, 1.000000000000000000, -0.000000000000000000 ) ) ;
#168 = STYLED_ITEM ( 'NONE', ( #44 ), #102 ) ;
#169 = SURFACE_STYLE_USAGE ( .BOTH. , #253 ) ;
#170 = ORIENTED_EDGE ( 'NONE', *, *, #206, .T. ) ;
#171 = PRESENTATION_STYLE_ASSIGNMENT (( #88 ) ) ;
#172 = CARTESIAN_POINT ( 'NONE',  ( 7.870206804039944582E-19, 0.1082531754730542695, 0.000000000000000000 ) ) ;
#173 = CIRCLE ( 'NONE', #197, 0.1875000000000000278 ) ;
#174 = COLOUR_RGB ( '',0.7921568627450980005, 0.8196078431372548767, 0.9333333333333333481 ) ;
#175 = AXIS2_PLACEMENT_3D ( 'NONE', #179, #181, #57 ) ;
#176 = FACE_OUTER_BOUND ( 'NONE', #215, .T. ) ;
#177 = CARTESIAN_POINT ( 'NONE',  ( 2.859903368367275526E-16, 0.1082531754730542140, 0.000000000000000000 ) ) ;
#178 = APPLICATION_CONTEXT ( 'automotive_design' ) ;
#179 = CARTESIAN_POINT ( 'NONE',  ( 0.000000000000000000, 0.000000000000000000, 0.000000000000000000 ) ) ;
#180 = DIRECTION ( 'NONE',  ( -1.000000000000000000, 0.000000000000000000, 0.000000000000000000 ) ) ;
#181 = DIRECTION ( 'NONE',  ( 0.000000000000000000, 0.000000000000000000, 1.000000000000000000 ) ) ;
#182 = PRESENTATION_LAYER_ASSIGNMENT (  '', '', ( #115 ) ) ;
#183 = DIRECTION ( 'NONE',  ( -1.451753476719974375E-16, 1.000000000000000000, -0.000000000000000000 ) ) ;
#184 = PRESENTATION_LAYER_ASSIGNMENT (  '', '', ( #56 ) ) ;
#185 =( CONVERSION_BASED_UNIT ( 'INCH', #229 ) LENGTH_UNIT ( ) NAMED_UNIT ( #68 ) );
#186 =( CONVERSION_BASED_UNIT ( 'INCH', #124 ) LENGTH_UNIT ( ) NAMED_UNIT ( #9 ) );
#187 = APPLICATION_CONTEXT ( 'automotive_design' ) ;
#188 = LENGTH_MEASURE_WITH_UNIT ( LENGTH_MEASURE( 0.02539999999999999897 ), #192 );
#189 = AXIS2_PLACEMENT_3D ( 'NONE', #236, #196, #92 ) ;
#190 = ORIENTED_EDGE ( 'NONE', *, *, #163, .T. ) ;
#191 = SURFACE_STYLE_FILL_AREA ( #28 ) ;
#192 =( LENGTH_UNIT ( ) NAMED_UNIT ( * ) SI_UNIT ( $, .METRE. ) );
#193 = PRODUCT_DEFINITION_CONTEXT ( 'detailed design', #187, 'design' ) ;
#194 = CARTESIAN_POINT ( 'NONE',  ( 7.870206804039944582E-19, 0.1082531754730542556, 0.000000000000000000 ) ) ;
#195 = PRODUCT_DEFINITION ( 'UNKNOWN', '', #15, #193 ) ;
#196 = DIRECTION ( 'NONE',  ( 7.270185627024815973E-18, 1.000000000000000000, 0.000000000000000000 ) ) ;
#197 = AXIS2_PLACEMENT_3D ( 'NONE', #4, #83, #81 ) ;
#198 = FACE_OUTER_BOUND ( 'NONE', #22, .T. ) ;
#199 = FILL_AREA_STYLE ('',( #32 ) ) ;
#200 = DIRECTION ( 'NONE',  ( -1.000000000000000000, -1.821231995776178437E-16, 0.000000000000000000 ) ) ;
#201 = DIRECTION ( 'NONE',  ( -1.451753476719974375E-16, 1.000000000000000000, -0.000000000000000000 ) ) ;
#202 = MANIFOLD_SOLID_BREP ( 'Revolve - Tool Body (Pointed)', #35 ) ;
#203 = CARTESIAN_POINT ( 'NONE',  ( 0.000000000000000000, 0.000000000000000000, 0.000000000000000000 ) ) ;
#204 = ORIENTED_EDGE ( 'NONE', *, *, #210, .F. ) ;
#205 = CARTESIAN_POINT ( 'NONE',  ( 0.000000000000000000, 0.000000000000000000, 0.000000000000000000 ) ) ;
#206 = EDGE_CURVE ( 'NONE', #246, #226, #147, .T. ) ;
#207 = AXIS2_PLACEMENT_3D ( 'NONE', #172, #153, #94 ) ;
#208 = MECHANICAL_DESIGN_GEOMETRIC_PRESENTATION_REPRESENTATION (  '', ( #262 ), #3 ) ;
#209 = EDGE_LOOP ( 'NONE', ( #127, #214, #79 ) ) ;
#210 = EDGE_CURVE ( 'NONE', #246, #213, #119, .T. ) ;
#211 = CYLINDRICAL_SURFACE ( 'NONE', #100, 0.1874999999999998890 ) ;
#212 = FILL_AREA_STYLE_COLOUR ( '', #78 ) ;
#213 = VERTEX_POINT ( 'NONE', #95 ) ;
#214 = ORIENTED_EDGE ( 'NONE', *, *, #210, .T. ) ;
#215 = EDGE_LOOP ( 'NONE', ( #42, #107 ) ) ;
#216 = CONICAL_SURFACE ( 'NONE', #96, 68.19097667594041923, 1.047197551196600074 ) ;
#217 = ADVANCED_FACE ( 'NONE', ( #20 ), #216, .T. ) ;
#218 = LENGTH_MEASURE_WITH_UNIT ( LENGTH_MEASURE( 0.02539999999999999897 ), #50 );
#219 = VECTOR ( 'NONE', #237, 39.37007874015748854 ) ;
#220 = DIRECTION ( 'NONE',  ( -1.451753476719974375E-16, 1.000000000000000000, -0.000000000000000000 ) ) ;
#221 = DIRECTION ( 'NONE',  ( 7.270185627024815973E-18, 1.000000000000000000, 0.000000000000000000 ) ) ;
#222 = ORIENTED_EDGE ( 'NONE', *, *, #99, .F. ) ;
#223 = SURFACE_SIDE_STYLE ('',( #18 ) ) ;
#224 = PRODUCT_CONTEXT ( 'NONE', #178, 'mechanical' ) ;
#225 =( GEOMETRIC_REPRESENTATION_CONTEXT ( 3 ) GLOBAL_UNCERTAINTY_ASSIGNED_CONTEXT ( ( #5 ) ) GLOBAL_UNIT_ASSIGNED_CONTEXT ( ( #7, #30, #87 ) ) REPRESENTATION_CONTEXT ( 'NONE', 'WORKASPACE' ) );
#226 = VERTEX_POINT ( 'NONE', #240 ) ;
#227 = SHAPE_DEFINITION_REPRESENTATION ( #60, #122 ) ;
#228 = SURFACE_STYLE_USAGE ( .BOTH. , #45 ) ;
#229 = LENGTH_MEASURE_WITH_UNIT ( LENGTH_MEASURE( 0.02539999999999999897 ), #144 );
#230 = PRESENTATION_LAYER_ASSIGNMENT (  '', '', ( #168 ) ) ;
#231 = CARTESIAN_POINT ( 'NONE',  ( 0.1874999999999999722, 0.1082531754730542417, 2.296212748401286801E-17 ) ) ;
#232 = DIMENSIONAL_EXPONENTS ( 1.000000000000000000, 0.000000000000000000, 0.000000000000000000, 0.000000000000000000, 0.000000000000000000, 0.000000000000000000, 0.000000000000000000 ) ;
#233 =( NAMED_UNIT ( * ) SI_UNIT ( $, .STERADIAN. ) SOLID_ANGLE_UNIT ( ) );
#234 = FILL_AREA_STYLE ('',( #69 ) ) ;
#235 = MECHANICAL_DESIGN_GEOMETRIC_PRESENTATION_REPRESENTATION (  '', ( #168 ), #21 ) ;
#236 = CARTESIAN_POINT ( 'NONE',  ( 2.862277805915282117E-16, 39.37007874015748143, 0.000000000000000000 ) ) ;
#237 = DIRECTION ( 'NONE',  ( -0.8660254037844397068, 0.4999999999999979461, 0.000000000000000000 ) ) ;
#238 = MECHANICAL_DESIGN_GEOMETRIC_PRESENTATION_REPRESENTATION (  '', ( #115 ), #225 ) ;
#239 = ADVANCED_FACE ( 'NONE', ( #198 ), #93, .T. ) ;
#240 = CARTESIAN_POINT ( 'NONE',  ( -0.1875000000000000278, 0.1082531754730542695, 0.000000000000000000 ) ) ;
#241 =( NAMED_UNIT ( * ) PLANE_ANGLE_UNIT ( ) SI_UNIT ( $, .RADIAN. ) );
#242 = EDGE_CURVE ( 'NONE', #160, #98, #116, .T. ) ;
#243 = EDGE_LOOP ( 'NONE', ( #27, #43, #66, #251 ) ) ;
#244 = VECTOR ( 'NONE', #51, 39.37007874015748854 ) ;
#245 = CIRCLE ( 'NONE', #139, 0.1874999999999996947 ) ;
#246 = VERTEX_POINT ( 'NONE', #203 ) ;
#247 = VERTEX_POINT ( 'NONE', #263 ) ;
#248 =( NAMED_UNIT ( * ) PLANE_ANGLE_UNIT ( ) SI_UNIT ( $, .RADIAN. ) );
#249 =( GEOMETRIC_REPRESENTATION_CONTEXT ( 3 ) GLOBAL_UNCERTAINTY_ASSIGNED_CONTEXT ( ( #152 ) ) GLOBAL_UNIT_ASSIGNED_CONTEXT ( ( #41, #39, #162 ) ) REPRESENTATION_CONTEXT ( 'NONE', 'WORKASPACE' ) );
#250 = VERTEX_POINT ( 'NONE', #54 ) ;
#251 = ORIENTED_EDGE ( 'NONE', *, *, #73, .F. ) ;
#252 = EDGE_CURVE ( 'NONE', #98, #160, #245, .T. ) ;
#253 = SURFACE_SIDE_STYLE ('',( #130 ) ) ;
#254 = EDGE_LOOP ( 'NONE', ( #204, #170, #149 ) ) ;
#255 = UNCERTAINTY_MEASURE_WITH_UNIT (LENGTH_MEASURE( 1.000000000000000082E-05 ), #148, 'distance_accuracy_value', 'NONE');
#256 = AXIS2_PLACEMENT_3D ( 'NONE', #53, #220, #117 ) ;
#257 = PLANE ( 'NONE',  #36 ) ;
#258 = CARTESIAN_POINT ( 'NONE',  ( 2.859903368367275526E-16, 0.1082531754730542278, 0.000000000000000000 ) ) ;
#259 = PRESENTATION_STYLE_ASSIGNMENT (( #169 ) ) ;
#260 = DIRECTION ( 'NONE',  ( -1.000000000000000000, 0.000000000000000000, 0.000000000000000000 ) ) ;
#261 = ADVANCED_FACE ( 'NONE', ( #265 ), #76, .F. ) ;
#262 = STYLED_ITEM ( 'NONE', ( #49 ), #126 ) ;
#263 = CARTESIAN_POINT ( 'NONE',  ( -0.1875000000000001110, 2.500000000000000000, 0.000000000000000000 ) ) ;
#264 = VECTOR ( 'NONE', #29, 39.37007874015748143 ) ;
#265 = FACE_OUTER_BOUND ( 'NONE', #140, .T. ) ;
ENDSEC;
END-ISO-10303-21;
