ISO-10303-21;
HEADER;
FILE_DESCRIPTION (( 'STEP AP214' ),
    '1' );
FILE_NAME ('Micro_DM-500-2120X.STEP',
    '2021-09-02T16:06:42',
    ( '' ),
    ( '' ),
    'SwSTEP 2.0',
    'SolidWorks 2020',
    '' );
FILE_SCHEMA (( 'AUTOMOTIVE_DESIGN' ));
ENDSEC;

DATA;
#1 = PRODUCT_DEFINITION_CONTEXT ( 'detailed design', #78, 'design' ) ;
#2 = SURFACE_SIDE_STYLE ('',( #34 ) ) ;
#3 = CARTESIAN_POINT ( 'NONE',  ( 0.0000000000000000000, 0.0000000000000000000, 3.000000000000000444 ) ) ;
#4 = DIRECTION ( 'NONE',  ( -1.000000000000000000, 0.0000000000000000000, 0.0000000000000000000 ) ) ;
#5 = CARTESIAN_POINT ( 'NONE',  ( 0.0000000000000000000, 0.0000000000000000000, 3.000000000000000444 ) ) ;
#6 = DIRECTION ( 'NONE',  ( 1.000000000000000000, 0.0000000000000000000, 0.0000000000000000000 ) ) ;
#7 = ORIENTED_EDGE ( 'NONE', *, *, #76, .T. ) ;
#8 = FILL_AREA_STYLE ('',( #235 ) ) ;
#9 = CARTESIAN_POINT ( 'NONE',  ( 0.0000000000000000000, 0.0000000000000000000, 1.707404996040164512E-17 ) ) ;
#10 = AXIS2_PLACEMENT_3D ( 'NONE', #5, #231, #232 ) ;
#11 = CARTESIAN_POINT ( 'NONE',  ( 0.0000000000000000000, 0.0000000000000000000, 3.000000000000000444 ) ) ;
#12 = LINE ( 'NONE', #38, #85 ) ;
#13 = DIRECTION ( 'NONE',  ( 0.0000000000000000000, 0.0000000000000000000, -1.000000000000000000 ) ) ;
#14 = ORIENTED_EDGE ( 'NONE', *, *, #60, .T. ) ;
#15 = AXIS2_PLACEMENT_3D ( 'NONE', #315, #218, #87 ) ;
#16 = VERTEX_POINT ( 'NONE', #326 ) ;
#17 = EDGE_LOOP ( 'NONE', ( #14, #157 ) ) ;
#18 = CARTESIAN_POINT ( 'NONE',  ( -0.2500000000000000000, 0.0000000000000000000, 3.000000000000000444 ) ) ;
#19 = ORIENTED_EDGE ( 'NONE', *, *, #60, .F. ) ;
#20 = ADVANCED_FACE ( 'NONE', ( #321 ), #228, .T. ) ;
#21 =( GEOMETRIC_REPRESENTATION_CONTEXT ( 3 ) GLOBAL_UNCERTAINTY_ASSIGNED_CONTEXT ( ( #56 ) ) GLOBAL_UNIT_ASSIGNED_CONTEXT ( ( #215, #164, #320 ) ) REPRESENTATION_CONTEXT ( 'NONE', 'WORKASPACE' ) );
#22 = DIRECTION ( 'NONE',  ( -0.0000000000000000000, -0.0000000000000000000, -1.000000000000000000 ) ) ;
#23 = DIRECTION ( 'NONE',  ( -0.0000000000000000000, -0.0000000000000000000, -1.000000000000000000 ) ) ;
#24 = CIRCLE ( 'NONE', #197, 0.2500000000000000000 ) ;
#25 = CIRCLE ( 'NONE', #15, 0.2350000000000011524 ) ;
#26 = PRODUCT_CONTEXT ( 'NONE', #222, 'mechanical' ) ;
#27 = EDGE_CURVE ( 'NONE', #35, #91, #276, .T. ) ;
#28 = CARTESIAN_POINT ( 'NONE',  ( 0.007499999999999999722, 0.0000000000000000000, 1.707404996040164512E-17 ) ) ;
#29 = DIMENSIONAL_EXPONENTS ( 1.000000000000000000, 0.0000000000000000000, 0.0000000000000000000, 0.0000000000000000000, 0.0000000000000000000, 0.0000000000000000000, 0.0000000000000000000 ) ;
#30 = AXIS2_PLACEMENT_3D ( 'NONE', #180, #55, #183 ) ;
#31 = DIRECTION ( 'NONE',  ( 0.0000000000000000000, 0.0000000000000000000, 1.000000000000000000 ) ) ;
#32 = ORIENTED_EDGE ( 'NONE', *, *, #138, .T. ) ;
#33 = DIRECTION ( 'NONE',  ( -0.0000000000000000000, -0.0000000000000000000, -1.000000000000000000 ) ) ;
#34 = SURFACE_STYLE_FILL_AREA ( #105 ) ;
#35 = VERTEX_POINT ( 'NONE', #46 ) ;
#36 = ADVANCED_FACE ( 'NONE', ( #248 ), #42, .T. ) ;
#37 = AXIS2_PLACEMENT_3D ( 'NONE', #146, #92, #196 ) ;
#38 = CARTESIAN_POINT ( 'NONE',  ( -0.007499999999999999722, 9.184850993605147975E-19, 1.707404996040164512E-17 ) ) ;
#39 = DIRECTION ( 'NONE',  ( 0.0000000000000000000, 0.0000000000000000000, 1.000000000000000000 ) ) ;
#40 = ORIENTED_EDGE ( 'NONE', *, *, #76, .F. ) ;
#41 = EDGE_CURVE ( 'NONE', #35, #147, #98, .T. ) ;
#42 = CYLINDRICAL_SURFACE ( 'NONE', #151, 0.2499500000000000888 ) ;
#43 = VECTOR ( 'NONE', #118, 39.37007874015748143 ) ;
#44 = STYLED_ITEM ( 'NONE', ( #257 ), #220 ) ;
#45 = DIRECTION ( 'NONE',  ( -1.000000000000000000, 0.0000000000000000000, 0.0000000000000000000 ) ) ;
#46 = CARTESIAN_POINT ( 'NONE',  ( 0.2500000000000000000, 3.061616997868382402E-17, 2.985000000000001208 ) ) ;
#47 = DIRECTION ( 'NONE',  ( -0.0000000000000000000, -0.0000000000000000000, -1.000000000000000000 ) ) ;
#48 = ADVANCED_FACE ( 'NONE', ( #319 ), #329, .T. ) ;
#49 = ORIENTED_EDGE ( 'NONE', *, *, #124, .F. ) ;
#50 = EDGE_LOOP ( 'NONE', ( #289, #219, #195, #217 ) ) ;
#51 = SURFACE_SIDE_STYLE ('',( #172 ) ) ;
#52 =( LENGTH_UNIT ( ) NAMED_UNIT ( * ) SI_UNIT ( $, .METRE. ) );
#53 = ADVANCED_FACE ( 'NONE', ( #149 ), #156, .T. ) ;
#54 = DIRECTION ( 'NONE',  ( 1.000000000000000000, 0.0000000000000000000, 0.0000000000000000000 ) ) ;
#55 = DIRECTION ( 'NONE',  ( 0.0000000000000000000, 0.0000000000000000000, 1.000000000000000000 ) ) ;
#56 = UNCERTAINTY_MEASURE_WITH_UNIT (LENGTH_MEASURE( 1.000000000000000082E-05 ), #215, 'distance_accuracy_value', 'NONE');
#57 = CIRCLE ( 'NONE', #165, 0.007499999999999999722 ) ;
#58 = PRODUCT ( 'Micro_DM-500-2120X', 'Micro_DM-500-2120X', '', ( #26 ) ) ;
#59 = CARTESIAN_POINT ( 'NONE',  ( 0.0000000000000000000, 0.0000000000000000000, 3.000000000000000444 ) ) ;
#60 = EDGE_CURVE ( 'NONE', #16, #147, #24, .T. ) ;
#61 = DIRECTION ( 'NONE',  ( 0.0000000000000000000, 0.0000000000000000000, -1.000000000000000000 ) ) ;
#62 = CIRCLE ( 'NONE', #247, 0.2499500000000001165 ) ;
#63 = FACE_OUTER_BOUND ( 'NONE', #259, .T. ) ;
#64 = EDGE_LOOP ( 'NONE', ( #7, #270, #19, #97 ) ) ;
#65 = ADVANCED_FACE ( 'NONE', ( #279 ), #249, .T. ) ;
#66 = CARTESIAN_POINT ( 'NONE',  ( 0.2499500000000001165, 0.0000000000000000000, 0.1399785727650239564 ) ) ;
#67 = EDGE_LOOP ( 'NONE', ( #113, #72 ) ) ;
#68 = VERTEX_POINT ( 'NONE', #278 ) ;
#69 = DIRECTION ( 'NONE',  ( -1.000000000000000000, 0.0000000000000000000, 0.0000000000000000000 ) ) ;
#70 = ORIENTED_EDGE ( 'NONE', *, *, #27, .T. ) ;
#71 = DIRECTION ( 'NONE',  ( 0.0000000000000000000, 0.0000000000000000000, 1.000000000000000000 ) ) ;
#72 = ORIENTED_EDGE ( 'NONE', *, *, #274, .F. ) ;
#73 = COLOUR_RGB ( '',0.7921568627450980005, 0.8196078431372548767, 0.9333333333333333481 ) ;
#74 = CARTESIAN_POINT ( 'NONE',  ( -0.2350000000000011524, 0.0000000000000000000, 3.000000000000000444 ) ) ;
#75 = CIRCLE ( 'NONE', #325, 0.2500000000000000000 ) ;
#76 = EDGE_CURVE ( 'NONE', #91, #35, #275, .T. ) ;
#77 =( CONVERSION_BASED_UNIT ( 'INCH', #302 ) LENGTH_UNIT ( ) NAMED_UNIT ( #304 ) );
#78 = APPLICATION_CONTEXT ( 'automotive_design' ) ;
#79 = DIRECTION ( 'NONE',  ( -1.000000000000000000, 0.0000000000000000000, 0.0000000000000000000 ) ) ;
#80 = SURFACE_STYLE_USAGE ( .BOTH. , #2 ) ;
#81 = CARTESIAN_POINT ( 'NONE',  ( -0.2499500000000000888, 0.0000000000000000000, 0.0000000000000000000 ) ) ;
#82 = ORIENTED_EDGE ( 'NONE', *, *, #27, .F. ) ;
#83 = LINE ( 'NONE', #74, #318 ) ;
#84 =( LENGTH_UNIT ( ) NAMED_UNIT ( * ) SI_UNIT ( $, .METRE. ) );
#85 = VECTOR ( 'NONE', #161, 39.37007874015748143 ) ;
#86 = ORIENTED_EDGE ( 'NONE', *, *, #322, .F. ) ;
#87 = DIRECTION ( 'NONE',  ( 1.000000000000000000, 0.0000000000000000000, 0.0000000000000000000 ) ) ;
#88 = DIRECTION ( 'NONE',  ( 0.7071067811865402453, 8.659560562354845344E-17, -0.7071067811865546782 ) ) ;
#89 = FACE_OUTER_BOUND ( 'NONE', #143, .T. ) ;
#90 = ORIENTED_EDGE ( 'NONE', *, *, #268, .F. ) ;
#91 = VERTEX_POINT ( 'NONE', #100 ) ;
#92 = DIRECTION ( 'NONE',  ( -0.0000000000000000000, -0.0000000000000000000, -1.000000000000000000 ) ) ;
#93 = EDGE_LOOP ( 'NONE', ( #324, #132 ) ) ;
#94 = AXIS2_PLACEMENT_3D ( 'NONE', #104, #23, #206 ) ;
#95 =( GEOMETRIC_REPRESENTATION_CONTEXT ( 3 ) GLOBAL_UNCERTAINTY_ASSIGNED_CONTEXT ( ( #150 ) ) GLOBAL_UNIT_ASSIGNED_CONTEXT ( ( #181, #127, #177 ) ) REPRESENTATION_CONTEXT ( 'NONE', 'WORKASPACE' ) );
#96 = CLOSED_SHELL ( 'NONE', ( #65, #20, #176, #48, #53, #227, #251, #169, #221, #36, #158 ) ) ;
#97 = ORIENTED_EDGE ( 'NONE', *, *, #294, .F. ) ;
#98 = LINE ( 'NONE', #299, #43 ) ;
#99 = EDGE_CURVE ( 'NONE', #162, #244, #273, .T. ) ;
#100 = CARTESIAN_POINT ( 'NONE',  ( -0.2500000000000000000, 0.0000000000000000000, 2.985000000000001208 ) ) ;
#101 = AXIS2_PLACEMENT_3D ( 'NONE', #210, #31, #54 ) ;
#102 = EDGE_CURVE ( 'NONE', #269, #224, #203, .T. ) ;
#103 = VECTOR ( 'NONE', #245, 39.37007874015748143 ) ;
#104 = CARTESIAN_POINT ( 'NONE',  ( 0.0000000000000000000, 0.0000000000000000000, 0.0000000000000000000 ) ) ;
#105 = FILL_AREA_STYLE ('',( #126 ) ) ;
#106 = LINE ( 'NONE', #81, #282 ) ;
#107 = CARTESIAN_POINT ( 'NONE',  ( 0.0000000000000000000, 0.0000000000000000000, 1.000000000000000000 ) ) ;
#108 = CARTESIAN_POINT ( 'NONE',  ( 0.0000000000000000000, 0.0000000000000000000, 1.707404996040164512E-17 ) ) ;
#109 = DIRECTION ( 'NONE',  ( -0.0000000000000000000, -0.0000000000000000000, -1.000000000000000000 ) ) ;
#110 = AXIS2_PLACEMENT_3D ( 'NONE', #3, #33, #283 ) ;
#111 = DIRECTION ( 'NONE',  ( -1.000000000000000000, 0.0000000000000000000, 0.0000000000000000000 ) ) ;
#112 = CIRCLE ( 'NONE', #287, 0.007499999999999999722 ) ;
#113 = ORIENTED_EDGE ( 'NONE', *, *, #314, .F. ) ;
#114 = ORIENTED_EDGE ( 'NONE', *, *, #41, .F. ) ;
#115 = EDGE_CURVE ( 'NONE', #68, #236, #106, .T. ) ;
#116 = CARTESIAN_POINT ( 'NONE',  ( 0.2350000000000011524, 2.877919977996294002E-17, 3.000000000000000444 ) ) ;
#117 = CARTESIAN_POINT ( 'NONE',  ( -0.2499500000000001165, 3.061004674468810760E-17, 0.1399785727650239564 ) ) ;
#118 = DIRECTION ( 'NONE',  ( -0.0000000000000000000, -0.0000000000000000000, -1.000000000000000000 ) ) ;
#119 = VERTEX_POINT ( 'NONE', #253 ) ;
#120 = DIRECTION ( 'NONE',  ( -1.000000000000000000, 0.0000000000000000000, 0.0000000000000000000 ) ) ;
#121 = EDGE_LOOP ( 'NONE', ( #262, #134 ) ) ;
#122 = DIRECTION ( 'NONE',  ( -1.000000000000000000, 0.0000000000000000000, 0.0000000000000000000 ) ) ;
#123 = CONICAL_SURFACE ( 'NONE', #178, 0.2350000000000011524, 0.7853981633974380649 ) ;
#124 = EDGE_CURVE ( 'NONE', #162, #91, #83, .T. ) ;
#125 = PLANE ( 'NONE',  #216 ) ;
#126 = FILL_AREA_STYLE_COLOUR ( '', #184 ) ;
#127 =( NAMED_UNIT ( * ) PLANE_ANGLE_UNIT ( ) SI_UNIT ( $, .RADIAN. ) );
#128 = MECHANICAL_DESIGN_GEOMETRIC_PRESENTATION_REPRESENTATION (  '', ( #255 ), #21 ) ;
#129 = DIRECTION ( 'NONE',  ( -0.0000000000000000000, -0.0000000000000000000, -1.000000000000000000 ) ) ;
#130 = VECTOR ( 'NONE', #129, 39.37007874015748143 ) ;
#131 = DIRECTION ( 'NONE',  ( -0.7071067811865402453, 0.0000000000000000000, -0.7071067811865546782 ) ) ;
#132 = ORIENTED_EDGE ( 'NONE', *, *, #240, .T. ) ;
#133 = FACE_OUTER_BOUND ( 'NONE', #121, .T. ) ;
#134 = ORIENTED_EDGE ( 'NONE', *, *, #327, .T. ) ;
#135 = DIRECTION ( 'NONE',  ( -0.0000000000000000000, -0.0000000000000000000, -1.000000000000000000 ) ) ;
#136 = CIRCLE ( 'NONE', #223, 0.2499500000000000610 ) ;
#137 = AXIS2_PLACEMENT_3D ( 'NONE', #243, #264, #241 ) ;
#138 = EDGE_CURVE ( 'NONE', #316, #224, #305, .T. ) ;
#139 = LINE ( 'NONE', #116, #202 ) ;
#140 = PLANE ( 'NONE',  #137 ) ;
#141 = ORIENTED_EDGE ( 'NONE', *, *, #102, .F. ) ;
#142 = AXIS2_PLACEMENT_3D ( 'NONE', #267, #47, #122 ) ;
#143 = EDGE_LOOP ( 'NONE', ( #246, #86, #32, #311 ) ) ;
#144 = CARTESIAN_POINT ( 'NONE',  ( 0.0000000000000000000, 0.0000000000000000000, 1.707404996040164512E-17 ) ) ;
#145 = EDGE_LOOP ( 'NONE', ( #141, #198, #190, #200 ) ) ;
#146 = CARTESIAN_POINT ( 'NONE',  ( 0.0000000000000000000, 0.0000000000000000000, 1.000000000000000000 ) ) ;
#147 = VERTEX_POINT ( 'NONE', #307 ) ;
#148 = DIRECTION ( 'NONE',  ( 1.000000000000000000, 0.0000000000000000000, 0.0000000000000000000 ) ) ;
#149 = FACE_OUTER_BOUND ( 'NONE', #291, .T. ) ;
#150 = UNCERTAINTY_MEASURE_WITH_UNIT (LENGTH_MEASURE( 1.000000000000000082E-05 ), #181, 'distance_accuracy_value', 'NONE');
#151 = AXIS2_PLACEMENT_3D ( 'NONE', #293, #22, #328 ) ;
#152 = APPLICATION_PROTOCOL_DEFINITION ( 'draft international standard', 'automotive_design', 1998, #222 ) ;
#153 = CARTESIAN_POINT ( 'NONE',  ( 0.2499500000000000888, 3.061004674468810760E-17, 0.0000000000000000000 ) ) ;
#154 = CARTESIAN_POINT ( 'NONE',  ( 0.007499999999999999722, 0.0000000000000000000, 1.707404996040164512E-17 ) ) ;
#155 = FACE_BOUND ( 'NONE', #67, .T. ) ;
#156 = CYLINDRICAL_SURFACE ( 'NONE', #10, 0.2500000000000000000 ) ;
#157 = ORIENTED_EDGE ( 'NONE', *, *, #199, .T. ) ;
#158 = ADVANCED_FACE ( 'NONE', ( #133 ), #312, .F. ) ;
#159 = DIRECTION ( 'NONE',  ( -1.000000000000000000, 0.0000000000000000000, 0.0000000000000000000 ) ) ;
#160 = AXIS2_PLACEMENT_3D ( 'NONE', #11, #61, #159 ) ;
#161 = DIRECTION ( 'NONE',  ( -0.8660254037844400399, 1.060575238724908640E-16, 0.4999999999999976685 ) ) ;
#162 = VERTEX_POINT ( 'NONE', #272 ) ;
#163 = DIRECTION ( 'NONE',  ( 1.000000000000000000, 0.0000000000000000000, 0.0000000000000000000 ) ) ;
#164 =( NAMED_UNIT ( * ) PLANE_ANGLE_UNIT ( ) SI_UNIT ( $, .RADIAN. ) );
#165 = AXIS2_PLACEMENT_3D ( 'NONE', #9, #205, #111 ) ;
#166 = ORIENTED_EDGE ( 'NONE', *, *, #240, .F. ) ;
#167 = DIRECTION ( 'NONE',  ( -0.0000000000000000000, -0.0000000000000000000, -1.000000000000000000 ) ) ;
#168 = ORIENTED_EDGE ( 'NONE', *, *, #124, .T. ) ;
#169 = ADVANCED_FACE ( 'NONE', ( #155, #256 ), #125, .T. ) ;
#170 = DIRECTION ( 'NONE',  ( 0.0000000000000000000, 0.0000000000000000000, -1.000000000000000000 ) ) ;
#171 = MANIFOLD_SOLID_BREP ( 'Cut-Revolve4', #96 ) ;
#172 = SURFACE_STYLE_FILL_AREA ( #8 ) ;
#173 = CIRCLE ( 'NONE', #37, 0.2499500000000001165 ) ;
#174 = VECTOR ( 'NONE', #204, 39.37007874015748143 ) ;
#175 = SURFACE_STYLE_USAGE ( .BOTH. , #51 ) ;
#176 = ADVANCED_FACE ( 'NONE', ( #63 ), #123, .T. ) ;
#177 =( NAMED_UNIT ( * ) SI_UNIT ( $, .STERADIAN. ) SOLID_ANGLE_UNIT ( ) );
#178 = AXIS2_PLACEMENT_3D ( 'NONE', #59, #13, #188 ) ;
#179 =( NAMED_UNIT ( * ) SI_UNIT ( $, .STERADIAN. ) SOLID_ANGLE_UNIT ( ) );
#180 = CARTESIAN_POINT ( 'NONE',  ( 0.0000000000000000000, 0.0000000000000000000, 0.0000000000000000000 ) ) ;
#181 =( CONVERSION_BASED_UNIT ( 'INCH', #306 ) LENGTH_UNIT ( ) NAMED_UNIT ( #281 ) );
#182 = EDGE_CURVE ( 'NONE', #224, #236, #136, .T. ) ;
#183 = DIRECTION ( 'NONE',  ( 1.000000000000000000, 0.0000000000000000000, -0.0000000000000000000 ) ) ;
#184 = COLOUR_RGB ( '',0.7921568627450980005, 0.8196078431372548767, 0.9333333333333333481 ) ;
#185 = DIRECTION ( 'NONE',  ( -1.000000000000000000, 0.0000000000000000000, 0.0000000000000000000 ) ) ;
#186 = DIRECTION ( 'NONE',  ( 0.0000000000000000000, 0.0000000000000000000, 1.000000000000000000 ) ) ;
#187 = AXIS2_PLACEMENT_3D ( 'NONE', #266, #170, #148 ) ;
#188 = DIRECTION ( 'NONE',  ( -1.000000000000000000, 0.0000000000000000000, 0.0000000000000000000 ) ) ;
#189 = PRODUCT_DEFINITION_SHAPE ( 'NONE', 'NONE',  #286 ) ;
#190 = ORIENTED_EDGE ( 'NONE', *, *, #115, .T. ) ;
#191 = CARTESIAN_POINT ( 'NONE',  ( 0.2499500000000001443, 3.061004674468811376E-17, 1.000000000000000000 ) ) ;
#192 = PRESENTATION_LAYER_ASSIGNMENT (  '', '', ( #44 ) ) ;
#193 = ORIENTED_EDGE ( 'NONE', *, *, #294, .T. ) ;
#194 = DIRECTION ( 'NONE',  ( -0.0000000000000000000, -0.0000000000000000000, -1.000000000000000000 ) ) ;
#195 = ORIENTED_EDGE ( 'NONE', *, *, #298, .F. ) ;
#196 = DIRECTION ( 'NONE',  ( -1.000000000000000000, 0.0000000000000000000, 0.0000000000000000000 ) ) ;
#197 = AXIS2_PLACEMENT_3D ( 'NONE', #107, #109, #79 ) ;
#198 = ORIENTED_EDGE ( 'NONE', *, *, #274, .T. ) ;
#199 = EDGE_CURVE ( 'NONE', #147, #16, #75, .T. ) ;
#200 = ORIENTED_EDGE ( 'NONE', *, *, #182, .F. ) ;
#201 = DIRECTION ( 'NONE',  ( -0.0000000000000000000, -0.0000000000000000000, -1.000000000000000000 ) ) ;
#202 = VECTOR ( 'NONE', #88, 39.37007874015748854 ) ;
#203 = LINE ( 'NONE', #153, #130 ) ;
#204 = DIRECTION ( 'NONE',  ( 0.8660254037844400399, 0.0000000000000000000, 0.4999999999999976685 ) ) ;
#205 = DIRECTION ( 'NONE',  ( -0.0000000000000000000, -0.0000000000000000000, -1.000000000000000000 ) ) ;
#206 = DIRECTION ( 'NONE',  ( -1.000000000000000000, 0.0000000000000000000, 0.0000000000000000000 ) ) ;
#207 = UNCERTAINTY_MEASURE_WITH_UNIT (LENGTH_MEASURE( 1.000000000000000082E-05 ), #77, 'distance_accuracy_value', 'NONE');
#208 = ORIENTED_EDGE ( 'NONE', *, *, #327, .F. ) ;
#209 = AXIS2_PLACEMENT_3D ( 'NONE', #310, #186, #284 ) ;
#210 = CARTESIAN_POINT ( 'NONE',  ( 0.0000000000000000000, 0.0000000000000000000, 3.000000000000000444 ) ) ;
#211 = AXIS2_PLACEMENT_3D ( 'NONE', #297, #71, #163 ) ;
#212 = EDGE_CURVE ( 'NONE', #119, #236, #12, .T. ) ;
#213 = LENGTH_MEASURE_WITH_UNIT ( LENGTH_MEASURE( 0.02539999999999999897 ), #252 );
#214 = ORIENTED_EDGE ( 'NONE', *, *, #298, .T. ) ;
#215 =( CONVERSION_BASED_UNIT ( 'INCH', #213 ) LENGTH_UNIT ( ) NAMED_UNIT ( #29 ) );
#216 = AXIS2_PLACEMENT_3D ( 'NONE', #309, #226, #185 ) ;
#217 = ORIENTED_EDGE ( 'NONE', *, *, #115, .F. ) ;
#218 = DIRECTION ( 'NONE',  ( 0.0000000000000000000, 0.0000000000000000000, 1.000000000000000000 ) ) ;
#219 = ORIENTED_EDGE ( 'NONE', *, *, #102, .T. ) ;
#220 = ADVANCED_BREP_SHAPE_REPRESENTATION ( 'Micro_DM-500-2120X', ( #171, #209 ), #95 ) ;
#221 = ADVANCED_FACE ( 'NONE', ( #89 ), #229, .T. ) ;
#222 = APPLICATION_CONTEXT ( 'automotive_design' ) ;
#223 = AXIS2_PLACEMENT_3D ( 'NONE', #292, #135, #120 ) ;
#224 = VERTEX_POINT ( 'NONE', #66 ) ;
#225 = ORIENTED_EDGE ( 'NONE', *, *, #212, .T. ) ;
#226 = DIRECTION ( 'NONE',  ( -0.0000000000000000000, 0.0000000000000000000, -1.000000000000000000 ) ) ;
#227 = ADVANCED_FACE ( 'NONE', ( #239 ), #140, .T. ) ;
#228 = CONICAL_SURFACE ( 'NONE', #211, 0.007499999999999999722, 1.047197551196600518 ) ;
#229 = CONICAL_SURFACE ( 'NONE', #303, 0.007499999999999999722, 1.047197551196600518 ) ;
#230 = DIRECTION ( 'NONE',  ( -0.0000000000000000000, -0.0000000000000000000, -1.000000000000000000 ) ) ;
#231 = DIRECTION ( 'NONE',  ( -0.0000000000000000000, -0.0000000000000000000, -1.000000000000000000 ) ) ;
#232 = DIRECTION ( 'NONE',  ( -1.000000000000000000, 0.0000000000000000000, 0.0000000000000000000 ) ) ;
#233 =( NAMED_UNIT ( * ) PLANE_ANGLE_UNIT ( ) SI_UNIT ( $, .RADIAN. ) );
#234 = EDGE_LOOP ( 'NONE', ( #90, #263, #168, #82 ) ) ;
#235 = FILL_AREA_STYLE_COLOUR ( '', #73 ) ;
#236 = VERTEX_POINT ( 'NONE', #117 ) ;
#237 = AXIS2_PLACEMENT_3D ( 'NONE', #300, #258, #6 ) ;
#238 = FACE_OUTER_BOUND ( 'NONE', #234, .T. ) ;
#239 = FACE_OUTER_BOUND ( 'NONE', #93, .T. ) ;
#240 = EDGE_CURVE ( 'NONE', #244, #162, #25, .T. ) ;
#241 = DIRECTION ( 'NONE',  ( 1.000000000000000000, 0.0000000000000000000, -0.0000000000000000000 ) ) ;
#242 = ORIENTED_EDGE ( 'NONE', *, *, #199, .F. ) ;
#243 = CARTESIAN_POINT ( 'NONE',  ( 0.0000000000000000000, 0.0000000000000000000, 3.000000000000000444 ) ) ;
#244 = VERTEX_POINT ( 'NONE', #285 ) ;
#245 = DIRECTION ( 'NONE',  ( -0.0000000000000000000, -0.0000000000000000000, -1.000000000000000000 ) ) ;
#246 = ORIENTED_EDGE ( 'NONE', *, *, #212, .F. ) ;
#247 = AXIS2_PLACEMENT_3D ( 'NONE', #295, #167, #69 ) ;
#248 = FACE_OUTER_BOUND ( 'NONE', #145, .T. ) ;
#249 = CYLINDRICAL_SURFACE ( 'NONE', #94, 0.2499500000000000888 ) ;
#250 = CIRCLE ( 'NONE', #142, 0.2499500000000000610 ) ;
#251 = ADVANCED_FACE ( 'NONE', ( #238 ), #280, .T. ) ;
#252 =( LENGTH_UNIT ( ) NAMED_UNIT ( * ) SI_UNIT ( $, .METRE. ) );
#253 = CARTESIAN_POINT ( 'NONE',  ( -0.007499999999999999722, 1.576426592202430716E-17, 1.707404996040164512E-17 ) ) ;
#254 = APPLICATION_PROTOCOL_DEFINITION ( 'draft international standard', 'automotive_design', 1998, #78 ) ;
#255 = STYLED_ITEM ( 'NONE', ( #277 ), #171 ) ;
#256 = FACE_OUTER_BOUND ( 'NONE', #17, .T. ) ;
#257 = PRESENTATION_STYLE_ASSIGNMENT (( #80 ) ) ;
#258 = DIRECTION ( 'NONE',  ( 0.0000000000000000000, 0.0000000000000000000, -1.000000000000000000 ) ) ;
#259 = EDGE_LOOP ( 'NONE', ( #166, #296, #40, #49 ) ) ;
#260 =( GEOMETRIC_REPRESENTATION_CONTEXT ( 3 ) GLOBAL_UNCERTAINTY_ASSIGNED_CONTEXT ( ( #207 ) ) GLOBAL_UNIT_ASSIGNED_CONTEXT ( ( #77, #233, #179 ) ) REPRESENTATION_CONTEXT ( 'NONE', 'WORKASPACE' ) );
#261 = PRODUCT_RELATED_PRODUCT_CATEGORY ( 'part', '', ( #58 ) ) ;
#262 = ORIENTED_EDGE ( 'NONE', *, *, #322, .T. ) ;
#263 = ORIENTED_EDGE ( 'NONE', *, *, #99, .F. ) ;
#264 = DIRECTION ( 'NONE',  ( 0.0000000000000000000, 0.0000000000000000000, 1.000000000000000000 ) ) ;
#265 = MECHANICAL_DESIGN_GEOMETRIC_PRESENTATION_REPRESENTATION (  '', ( #44 ), #260 ) ;
#266 = CARTESIAN_POINT ( 'NONE',  ( 0.0000000000000000000, 0.0000000000000000000, 2.985000000000001208 ) ) ;
#267 = CARTESIAN_POINT ( 'NONE',  ( 0.0000000000000000000, 0.0000000000000000000, 0.1399785727650239564 ) ) ;
#268 = EDGE_CURVE ( 'NONE', #244, #35, #139, .T. ) ;
#269 = VERTEX_POINT ( 'NONE', #191 ) ;
#270 = ORIENTED_EDGE ( 'NONE', *, *, #41, .T. ) ;
#271 = PRESENTATION_LAYER_ASSIGNMENT (  '', '', ( #255 ) ) ;
#272 = CARTESIAN_POINT ( 'NONE',  ( -0.2350000000000011524, 0.0000000000000000000, 3.000000000000000444 ) ) ;
#273 = CIRCLE ( 'NONE', #101, 0.2350000000000011524 ) ;
#274 = EDGE_CURVE ( 'NONE', #269, #68, #62, .T. ) ;
#275 = CIRCLE ( 'NONE', #237, 0.2500000000000000000 ) ;
#276 = CIRCLE ( 'NONE', #187, 0.2500000000000000000 ) ;
#277 = PRESENTATION_STYLE_ASSIGNMENT (( #175 ) ) ;
#278 = CARTESIAN_POINT ( 'NONE',  ( -0.2499500000000001165, 0.0000000000000000000, 1.000000000000000000 ) ) ;
#279 = FACE_OUTER_BOUND ( 'NONE', #50, .T. ) ;
#280 = CONICAL_SURFACE ( 'NONE', #160, 0.2350000000000011524, 0.7853981633974380649 ) ;
#281 = DIMENSIONAL_EXPONENTS ( 1.000000000000000000, 0.0000000000000000000, 0.0000000000000000000, 0.0000000000000000000, 0.0000000000000000000, 0.0000000000000000000, 0.0000000000000000000 ) ;
#282 = VECTOR ( 'NONE', #201, 39.37007874015748143 ) ;
#283 = DIRECTION ( 'NONE',  ( -1.000000000000000000, 0.0000000000000000000, 0.0000000000000000000 ) ) ;
#284 = DIRECTION ( 'NONE',  ( 1.000000000000000000, 0.0000000000000000000, 0.0000000000000000000 ) ) ;
#285 = CARTESIAN_POINT ( 'NONE',  ( 0.2350000000000011524, 2.969768487932338510E-17, 3.000000000000000444 ) ) ;
#286 = PRODUCT_DEFINITION ( 'UNKNOWN', '', #317, #1 ) ;
#287 = AXIS2_PLACEMENT_3D ( 'NONE', #108, #230, #4 ) ;
#288 = CARTESIAN_POINT ( 'NONE',  ( 0.0000000000000000000, 0.0000000000000000000, 1.000000000000000000 ) ) ;
#289 = ORIENTED_EDGE ( 'NONE', *, *, #314, .T. ) ;
#290 = DIRECTION ( 'NONE',  ( 1.000000000000000000, 0.0000000000000000000, 0.0000000000000000000 ) ) ;
#291 = EDGE_LOOP ( 'NONE', ( #114, #70, #193, #242 ) ) ;
#292 = CARTESIAN_POINT ( 'NONE',  ( 0.0000000000000000000, 0.0000000000000000000, 0.1399785727650239564 ) ) ;
#293 = CARTESIAN_POINT ( 'NONE',  ( 0.0000000000000000000, 0.0000000000000000000, 0.0000000000000000000 ) ) ;
#294 = EDGE_CURVE ( 'NONE', #91, #16, #323, .T. ) ;
#295 = CARTESIAN_POINT ( 'NONE',  ( 0.0000000000000000000, 0.0000000000000000000, 1.000000000000000000 ) ) ;
#296 = ORIENTED_EDGE ( 'NONE', *, *, #268, .T. ) ;
#297 = CARTESIAN_POINT ( 'NONE',  ( 0.0000000000000000000, 0.0000000000000000000, 1.707404996040164512E-17 ) ) ;
#298 = EDGE_CURVE ( 'NONE', #236, #224, #250, .T. ) ;
#299 = CARTESIAN_POINT ( 'NONE',  ( 0.2500000000000000000, 3.061616997868382402E-17, 3.000000000000000444 ) ) ;
#300 = CARTESIAN_POINT ( 'NONE',  ( 0.0000000000000000000, 0.0000000000000000000, 2.985000000000001208 ) ) ;
#301 = SHAPE_DEFINITION_REPRESENTATION ( #189, #220 ) ;
#302 = LENGTH_MEASURE_WITH_UNIT ( LENGTH_MEASURE( 0.02539999999999999897 ), #84 );
#303 = AXIS2_PLACEMENT_3D ( 'NONE', #144, #39, #290 ) ;
#304 = DIMENSIONAL_EXPONENTS ( 1.000000000000000000, 0.0000000000000000000, 0.0000000000000000000, 0.0000000000000000000, 0.0000000000000000000, 0.0000000000000000000, 0.0000000000000000000 ) ;
#305 = LINE ( 'NONE', #28, #174 ) ;
#306 = LENGTH_MEASURE_WITH_UNIT ( LENGTH_MEASURE( 0.02539999999999999897 ), #52 );
#307 = CARTESIAN_POINT ( 'NONE',  ( 0.2500000000000000000, 3.061616997868382402E-17, 1.000000000000000000 ) ) ;
#308 = ORIENTED_EDGE ( 'NONE', *, *, #138, .F. ) ;
#309 = CARTESIAN_POINT ( 'NONE',  ( 0.2499500000000001165, 0.0000000000000000000, 1.000000000000000000 ) ) ;
#310 = CARTESIAN_POINT ( 'NONE',  ( 0.0000000000000000000, 0.0000000000000000000, 0.0000000000000000000 ) ) ;
#311 = ORIENTED_EDGE ( 'NONE', *, *, #182, .T. ) ;
#312 = PLANE ( 'NONE',  #30 ) ;
#313 = EDGE_LOOP ( 'NONE', ( #208, #225, #214, #308 ) ) ;
#314 = EDGE_CURVE ( 'NONE', #68, #269, #173, .T. ) ;
#315 = CARTESIAN_POINT ( 'NONE',  ( 0.0000000000000000000, 0.0000000000000000000, 3.000000000000000444 ) ) ;
#316 = VERTEX_POINT ( 'NONE', #154 ) ;
#317 = PRODUCT_DEFINITION_FORMATION_WITH_SPECIFIED_SOURCE ( 'ANY', '', #58, .NOT_KNOWN. ) ;
#318 = VECTOR ( 'NONE', #131, 39.37007874015748854 ) ;
#319 = FACE_OUTER_BOUND ( 'NONE', #64, .T. ) ;
#320 =( NAMED_UNIT ( * ) SI_UNIT ( $, .STERADIAN. ) SOLID_ANGLE_UNIT ( ) );
#321 = FACE_OUTER_BOUND ( 'NONE', #313, .T. ) ;
#322 = EDGE_CURVE ( 'NONE', #316, #119, #112, .T. ) ;
#323 = LINE ( 'NONE', #18, #103 ) ;
#324 = ORIENTED_EDGE ( 'NONE', *, *, #99, .T. ) ;
#325 = AXIS2_PLACEMENT_3D ( 'NONE', #288, #194, #45 ) ;
#326 = CARTESIAN_POINT ( 'NONE',  ( -0.2500000000000000000, 0.0000000000000000000, 1.000000000000000000 ) ) ;
#327 = EDGE_CURVE ( 'NONE', #119, #316, #57, .T. ) ;
#328 = DIRECTION ( 'NONE',  ( -1.000000000000000000, 0.0000000000000000000, 0.0000000000000000000 ) ) ;
#329 = CYLINDRICAL_SURFACE ( 'NONE', #110, 0.2500000000000000000 ) ;
ENDSEC;
END-ISO-10303-21;
