ISO-10303-21;
HEADER;
FILE_DESCRIPTION (( 'STEP AP214' ),
    '1' );
FILE_NAME ('Micro_GEC-125-4-010X.STEP',
    '2021-09-03T17:08:32',
    ( '' ),
    ( '' ),
    'SwSTEP 2.0',
    'SolidWorks 2020',
    '' );
FILE_SCHEMA (( 'AUTOMOTIVE_DESIGN' ));
ENDSEC;

DATA;
#1 = ORIENTED_EDGE ( 'NONE', *, *, #131, .T. ) ;
#2 = DIMENSIONAL_EXPONENTS ( 1.000000000000000000, 0.0000000000000000000, 0.0000000000000000000, 0.0000000000000000000, 0.0000000000000000000, 0.0000000000000000000, 0.0000000000000000000 ) ;
#3 = ORIENTED_EDGE ( 'NONE', *, *, #165, .F. ) ;
#4 = DIRECTION ( 'NONE',  ( -0.0000000000000000000, -0.0000000000000000000, -1.000000000000000000 ) ) ;
#5 = EDGE_CURVE ( 'NONE', #254, #241, #212, .T. ) ;
#6 = AXIS2_PLACEMENT_3D ( 'NONE', #135, #244, #347 ) ;
#7 = VERTEX_POINT ( 'NONE', #162 ) ;
#8 = CARTESIAN_POINT ( 'NONE',  ( -0.04750000000000064587, 0.0000000000000000000, 1.500000000000000222 ) ) ;
#9 = ORIENTED_EDGE ( 'NONE', *, *, #229, .T. ) ;
#10 = DIRECTION ( 'NONE',  ( 0.1736481776669312749, 0.0000000000000000000, 0.9848077530122077983 ) ) ;
#11 = EDGE_LOOP ( 'NONE', ( #40, #142 ) ) ;
#12 = DIRECTION ( 'NONE',  ( -1.000000000000000000, 0.0000000000000000000, 1.224646799147353700E-16 ) ) ;
#13 = ORIENTED_EDGE ( 'NONE', *, *, #101, .T. ) ;
#14 = PLANE ( 'NONE',  #155 ) ;
#15 = CIRCLE ( 'NONE', #223, 0.06250000000000002776 ) ;
#16 = DIRECTION ( 'NONE',  ( 0.0000000000000000000, 0.0000000000000000000, 1.000000000000000000 ) ) ;
#17 = CLOSED_SHELL ( 'NONE', ( #124, #141, #261, #74, #266, #318, #288, #210, #240, #171, #332, #277 ) ) ;
#18 = CYLINDRICAL_SURFACE ( 'NONE', #290, 0.06250000000000002776 ) ;
#19 = DIRECTION ( 'NONE',  ( 0.0000000000000000000, 0.0000000000000000000, -1.000000000000000000 ) ) ;
#20 = AXIS2_PLACEMENT_3D ( 'NONE', #333, #196, #172 ) ;
#21 = AXIS2_PLACEMENT_3D ( 'NONE', #45, #292, #203 ) ;
#22 = CARTESIAN_POINT ( 'NONE',  ( 6.123233995736768501E-17, 0.0000000000000000000, 0.5000000000000000000 ) ) ;
#23 = CARTESIAN_POINT ( 'NONE',  ( 6.127574818941429733E-17, 0.0000000000000000000, 0.5003544551137261154 ) ) ;
#24 = PRODUCT_DEFINITION_CONTEXT ( 'detailed design', #49, 'design' ) ;
#25 = STYLED_ITEM ( 'NONE', ( #75 ), #139 ) ;
#26 =( NAMED_UNIT ( * ) SI_UNIT ( $, .STERADIAN. ) SOLID_ANGLE_UNIT ( ) );
#27 = APPLICATION_CONTEXT ( 'automotive_design' ) ;
#28 = LINE ( 'NONE', #348, #31 ) ;
#29 = SURFACE_SIDE_STYLE ('',( #218 ) ) ;
#30 = DIRECTION ( 'NONE',  ( 1.000000000000000000, 0.0000000000000000000, 0.0000000000000000000 ) ) ;
#31 = VECTOR ( 'NONE', #351, 39.37007874015748143 ) ;
#32 = VECTOR ( 'NONE', #186, 39.37007874015748143 ) ;
#33 = VERTEX_POINT ( 'NONE', #273 ) ;
#34 = ORIENTED_EDGE ( 'NONE', *, *, #60, .F. ) ;
#35 = FILL_AREA_STYLE_COLOUR ( '', #127 ) ;
#36 = EDGE_CURVE ( 'NONE', #241, #254, #62, .T. ) ;
#37 = AXIS2_PLACEMENT_3D ( 'NONE', #159, #211, #57 ) ;
#38 = ORIENTED_EDGE ( 'NONE', *, *, #5, .T. ) ;
#39 = CIRCLE ( 'NONE', #20, 0.06243750000000001382 ) ;
#40 = ORIENTED_EDGE ( 'NONE', *, *, #158, .T. ) ;
#41 = CARTESIAN_POINT ( 'NONE',  ( 0.06243750000000006933, 0.0000000000000000000, 0.5000000000000000000 ) ) ;
#42 = EDGE_LOOP ( 'NONE', ( #120, #153, #191, #291 ) ) ;
#43 = DIRECTION ( 'NONE',  ( -0.1736481776669310528, 2.126576849575781776E-17, 0.9848077530122080203 ) ) ;
#44 = ORIENTED_EDGE ( 'NONE', *, *, #221, .T. ) ;
#45 = CARTESIAN_POINT ( 'NONE',  ( 6.123233995736768501E-17, 0.0000000000000000000, 0.5000000000000000000 ) ) ;
#46 = CARTESIAN_POINT ( 'NONE',  ( 0.0000000000000000000, 0.0000000000000000000, 1.500000000000000222 ) ) ;
#47 = CONICAL_SURFACE ( 'NONE', #21, 0.06243750000000001382, 0.1745329251994337805 ) ;
#48 = FACE_OUTER_BOUND ( 'NONE', #301, .T. ) ;
#49 = APPLICATION_CONTEXT ( 'automotive_design' ) ;
#50 = DIRECTION ( 'NONE',  ( 0.0000000000000000000, 0.0000000000000000000, 1.000000000000000000 ) ) ;
#51 = DIRECTION ( 'NONE',  ( -0.0000000000000000000, -0.0000000000000000000, -1.000000000000000000 ) ) ;
#52 = AXIS2_PLACEMENT_3D ( 'NONE', #150, #156, #293 ) ;
#53 = DIRECTION ( 'NONE',  ( 0.0000000000000000000, 0.0000000000000000000, 1.000000000000000000 ) ) ;
#54 = EDGE_CURVE ( 'NONE', #147, #55, #280, .T. ) ;
#55 = VERTEX_POINT ( 'NONE', #271 ) ;
#56 = LENGTH_MEASURE_WITH_UNIT ( LENGTH_MEASURE( 0.02539999999999999897 ), #109 );
#57 = DIRECTION ( 'NONE',  ( 1.000000000000000000, 0.0000000000000000000, 0.0000000000000000000 ) ) ;
#58 =( GEOMETRIC_REPRESENTATION_CONTEXT ( 3 ) GLOBAL_UNCERTAINTY_ASSIGNED_CONTEXT ( ( #248 ) ) GLOBAL_UNIT_ASSIGNED_CONTEXT ( ( #335, #98, #176 ) ) REPRESENTATION_CONTEXT ( 'NONE', 'WORKASPACE' ) );
#59 = PRESENTATION_STYLE_ASSIGNMENT (( #85 ) ) ;
#60 = EDGE_CURVE ( 'NONE', #254, #169, #28, .T. ) ;
#61 = FILL_AREA_STYLE_COLOUR ( '', #302 ) ;
#62 = CIRCLE ( 'NONE', #245, 0.06250000000000002776 ) ;
#63 = PRODUCT_DEFINITION_SHAPE ( 'NONE', 'NONE',  #284 ) ;
#64 = CONICAL_SURFACE ( 'NONE', #92, 0.04750000000000064587, 0.7853981633974466137 ) ;
#65 = EDGE_LOOP ( 'NONE', ( #209, #225, #243, #90 ) ) ;
#66 = DIRECTION ( 'NONE',  ( -1.224646799147353700E-16, -0.0000000000000000000, -1.000000000000000000 ) ) ;
#67 = ORIENTED_EDGE ( 'NONE', *, *, #179, .T. ) ;
#68 = DIRECTION ( 'NONE',  ( 0.0000000000000000000, 0.0000000000000000000, 1.000000000000000000 ) ) ;
#69 = ORIENTED_EDGE ( 'NONE', *, *, #133, .T. ) ;
#70 = DIRECTION ( 'NONE',  ( 0.0000000000000000000, -1.000000000000000000, 0.0000000000000000000 ) ) ;
#71 =( GEOMETRIC_REPRESENTATION_CONTEXT ( 3 ) GLOBAL_UNCERTAINTY_ASSIGNED_CONTEXT ( ( #317 ) ) GLOBAL_UNIT_ASSIGNED_CONTEXT ( ( #319, #184, #26 ) ) REPRESENTATION_CONTEXT ( 'NONE', 'WORKASPACE' ) );
#72 = ORIENTED_EDGE ( 'NONE', *, *, #338, .T. ) ;
#73 = FACE_OUTER_BOUND ( 'NONE', #190, .T. ) ;
#74 = ADVANCED_FACE ( 'NONE', ( #346 ), #64, .T. ) ;
#75 = PRESENTATION_STYLE_ASSIGNMENT (( #201 ) ) ;
#76 = DIMENSIONAL_EXPONENTS ( 1.000000000000000000, 0.0000000000000000000, 0.0000000000000000000, 0.0000000000000000000, 0.0000000000000000000, 0.0000000000000000000, 0.0000000000000000000 ) ;
#77 = DIRECTION ( 'NONE',  ( -0.0000000000000000000, -0.0000000000000000000, -1.000000000000000000 ) ) ;
#78 = AXIS2_PLACEMENT_3D ( 'NONE', #250, #68, #255 ) ;
#79 = DIRECTION ( 'NONE',  ( -1.000000000000000000, 0.0000000000000000000, 0.0000000000000000000 ) ) ;
#80 = FACE_OUTER_BOUND ( 'NONE', #136, .T. ) ;
#81 = DIRECTION ( 'NONE',  ( -1.000000000000000000, 0.0000000000000000000, 0.0000000000000000000 ) ) ;
#82 = DIRECTION ( 'NONE',  ( 1.000000000000000000, 0.0000000000000000000, 0.0000000000000000000 ) ) ;
#83 = AXIS2_PLACEMENT_3D ( 'NONE', #143, #4, #286 ) ;
#84 = PRODUCT_RELATED_PRODUCT_CATEGORY ( 'part', '', ( #166 ) ) ;
#85 = SURFACE_STYLE_USAGE ( .BOTH. , #29 ) ;
#86 =( GEOMETRIC_REPRESENTATION_CONTEXT ( 3 ) GLOBAL_UNCERTAINTY_ASSIGNED_CONTEXT ( ( #200 ) ) GLOBAL_UNIT_ASSIGNED_CONTEXT ( ( #107, #316, #267 ) ) REPRESENTATION_CONTEXT ( 'NONE', 'WORKASPACE' ) );
#87 = DIRECTION ( 'NONE',  ( -1.000000000000000000, 1.224646799147353947E-16, 0.0000000000000000000 ) ) ;
#88 = LINE ( 'NONE', #110, #91 ) ;
#89 = LINE ( 'NONE', #321, #32 ) ;
#90 = ORIENTED_EDGE ( 'NONE', *, *, #188, .F. ) ;
#91 = VECTOR ( 'NONE', #214, 39.37007874015748854 ) ;
#92 = AXIS2_PLACEMENT_3D ( 'NONE', #108, #112, #217 ) ;
#93 = ORIENTED_EDGE ( 'NONE', *, *, #5, .F. ) ;
#94 = FACE_OUTER_BOUND ( 'NONE', #275, .T. ) ;
#95 = ORIENTED_EDGE ( 'NONE', *, *, #54, .F. ) ;
#96 = DIRECTION ( 'NONE',  ( -1.224646799147353700E-16, -0.0000000000000000000, -1.000000000000000000 ) ) ;
#97 = VERTEX_POINT ( 'NONE', #325 ) ;
#98 =( NAMED_UNIT ( * ) PLANE_ANGLE_UNIT ( ) SI_UNIT ( $, .RADIAN. ) );
#99 = EDGE_CURVE ( 'NONE', #147, #254, #88, .T. ) ;
#100 = VECTOR ( 'NONE', #77, 39.37007874015748143 ) ;
#101 = EDGE_CURVE ( 'NONE', #281, #249, #89, .T. ) ;
#102 = AXIS2_PLACEMENT_3D ( 'NONE', #222, #70, #117 ) ;
#103 = CARTESIAN_POINT ( 'NONE',  ( 1.224646799147353962E-18, 0.0000000000000000000, 0.01000000000000000194 ) ) ;
#104 = ORIENTED_EDGE ( 'NONE', *, *, #341, .T. ) ;
#105 = CARTESIAN_POINT ( 'NONE',  ( -0.06243749999999999994, 0.0000000000000000000, 0.01000000000000000194 ) ) ;
#106 = LINE ( 'NONE', #337, #100 ) ;
#107 =( CONVERSION_BASED_UNIT ( 'INCH', #56 ) LENGTH_UNIT ( ) NAMED_UNIT ( #2 ) );
#108 = CARTESIAN_POINT ( 'NONE',  ( 0.0000000000000000000, 0.0000000000000000000, 1.500000000000000222 ) ) ;
#109 =( LENGTH_UNIT ( ) NAMED_UNIT ( * ) SI_UNIT ( $, .METRE. ) );
#110 = CARTESIAN_POINT ( 'NONE',  ( -0.04750000000000064587, 0.0000000000000000000, 1.500000000000000222 ) ) ;
#111 = DIRECTION ( 'NONE',  ( 0.0000000000000000000, 0.0000000000000000000, 1.000000000000000000 ) ) ;
#112 = DIRECTION ( 'NONE',  ( 0.0000000000000000000, 0.0000000000000000000, -1.000000000000000000 ) ) ;
#113 = PRODUCT_DEFINITION_FORMATION_WITH_SPECIFIED_SOURCE ( 'ANY', '', #166, .NOT_KNOWN. ) ;
#114 = FILL_AREA_STYLE ('',( #61 ) ) ;
#115 = CARTESIAN_POINT ( 'NONE',  ( 0.0000000000000000000, 0.0000000000000000000, 1.485000000000000764 ) ) ;
#116 = DIRECTION ( 'NONE',  ( 1.000000000000000000, 0.0000000000000000000, 0.0000000000000000000 ) ) ;
#117 = DIRECTION ( 'NONE',  ( 0.0000000000000000000, 0.0000000000000000000, -1.000000000000000000 ) ) ;
#118 = PRESENTATION_LAYER_ASSIGNMENT (  '', '', ( #25 ) ) ;
#119 = MECHANICAL_DESIGN_GEOMETRIC_PRESENTATION_REPRESENTATION (  '', ( #138 ), #71 ) ;
#120 = ORIENTED_EDGE ( 'NONE', *, *, #229, .F. ) ;
#121 = EDGE_CURVE ( 'NONE', #236, #304, #187, .T. ) ;
#122 = CIRCLE ( 'NONE', #328, 0.06243750000000001382 ) ;
#123 = DIRECTION ( 'NONE',  ( 1.224646799147353700E-16, 0.0000000000000000000, 1.000000000000000000 ) ) ;
#124 = ADVANCED_FACE ( 'NONE', ( #94 ), #300, .T. ) ;
#125 = DIRECTION ( 'NONE',  ( -0.0000000000000000000, -0.0000000000000000000, -1.000000000000000000 ) ) ;
#126 = DIRECTION ( 'NONE',  ( 1.000000000000000000, 0.0000000000000000000, 0.0000000000000000000 ) ) ;
#127 = COLOUR_RGB ( '',0.7921568627450980005, 0.8196078431372548767, 0.9333333333333333481 ) ;
#128 = TOROIDAL_SURFACE ( 'NONE', #52, 0.05243750000000001882, 0.01000000000000000021 ) ;
#129 = FACE_OUTER_BOUND ( 'NONE', #144, .T. ) ;
#130 = CARTESIAN_POINT ( 'NONE',  ( 0.06243750000000006933, 0.0000000000000000000, 0.5000000000000000000 ) ) ;
#131 = EDGE_CURVE ( 'NONE', #236, #281, #167, .T. ) ;
#132 = ORIENTED_EDGE ( 'NONE', *, *, #204, .T. ) ;
#133 = EDGE_CURVE ( 'NONE', #7, #169, #185, .T. ) ;
#134 = DIRECTION ( 'NONE',  ( 1.000000000000000000, 0.0000000000000000000, 0.0000000000000000000 ) ) ;
#135 = CARTESIAN_POINT ( 'NONE',  ( 0.0000000000000000000, 0.0000000000000000000, 0.0000000000000000000 ) ) ;
#136 = EDGE_LOOP ( 'NONE', ( #331, #306, #189, #219 ) ) ;
#137 = CARTESIAN_POINT ( 'NONE',  ( 0.0000000000000000000, 0.0000000000000000000, 1.500000000000000222 ) ) ;
#138 = STYLED_ITEM ( 'NONE', ( #59 ), #349 ) ;
#139 = MANIFOLD_SOLID_BREP ( 'Fillet1', #17 ) ;
#140 = ORIENTED_EDGE ( 'NONE', *, *, #101, .F. ) ;
#141 = ADVANCED_FACE ( 'NONE', ( #73 ), #307, .T. ) ;
#142 = ORIENTED_EDGE ( 'NONE', *, *, #269, .T. ) ;
#143 = CARTESIAN_POINT ( 'NONE',  ( 1.224646799147353770E-18, 0.0000000000000000000, 0.0000000000000000000 ) ) ;
#144 = EDGE_LOOP ( 'NONE', ( #205, #195, #285, #69 ) ) ;
#145 = DIRECTION ( 'NONE',  ( -1.000000000000000000, 0.0000000000000000000, 1.224646799147353700E-16 ) ) ;
#146 = AXIS2_PLACEMENT_3D ( 'NONE', #305, #279, #145 ) ;
#147 = VERTEX_POINT ( 'NONE', #8 ) ;
#148 = DIRECTION ( 'NONE',  ( -1.224646799147353700E-16, -0.0000000000000000000, -1.000000000000000000 ) ) ;
#149 = SURFACE_SIDE_STYLE ('',( #278 ) ) ;
#150 = CARTESIAN_POINT ( 'NONE',  ( 1.224646799147353770E-18, 0.0000000000000000000, 0.01000000000000000021 ) ) ;
#151 = AXIS2_PLACEMENT_3D ( 'NONE', #228, #66, #12 ) ;
#152 = CYLINDRICAL_SURFACE ( 'NONE', #283, 0.06250000000000002776 ) ;
#153 = ORIENTED_EDGE ( 'NONE', *, *, #36, .T. ) ;
#154 = CARTESIAN_POINT ( 'NONE',  ( 0.0000000000000000000, 0.0000000000000000000, 1.500000000000000222 ) ) ;
#155 = AXIS2_PLACEMENT_3D ( 'NONE', #340, #50, #263 ) ;
#156 = DIRECTION ( 'NONE',  ( 0.0000000000000000000, 0.0000000000000000000, 1.000000000000000000 ) ) ;
#157 = CARTESIAN_POINT ( 'NONE',  ( -0.05243750000000001882, 6.421741653028935338E-18, 0.01000000000000000021 ) ) ;
#158 = EDGE_CURVE ( 'NONE', #97, #33, #350, .T. ) ;
#159 = CARTESIAN_POINT ( 'NONE',  ( 0.0000000000000000000, 0.0000000000000000000, 1.485000000000000764 ) ) ;
#160 = CIRCLE ( 'NONE', #102, 0.01000000000000000021 ) ;
#161 = EDGE_LOOP ( 'NONE', ( #227, #1, #13, #252 ) ) ;
#162 = CARTESIAN_POINT ( 'NONE',  ( 0.06250000000000008327, 7.654042494670966789E-18, 0.5003544551137261154 ) ) ;
#163 = PLANE ( 'NONE',  #310 ) ;
#164 = ORIENTED_EDGE ( 'NONE', *, *, #36, .F. ) ;
#165 = EDGE_CURVE ( 'NONE', #97, #304, #160, .T. ) ;
#166 = PRODUCT ( 'Micro_GEC-125-4-010X', 'Micro_GEC-125-4-010X', '', ( #242 ) ) ;
#167 = CIRCLE ( 'NONE', #289, 0.06243750000000001382 ) ;
#168 = AXIS2_PLACEMENT_3D ( 'NONE', #182, #111, #345 ) ;
#169 = VERTEX_POINT ( 'NONE', #257 ) ;
#170 = ORIENTED_EDGE ( 'NONE', *, *, #204, .F. ) ;
#171 = ADVANCED_FACE ( 'NONE', ( #336 ), #329, .T. ) ;
#172 = DIRECTION ( 'NONE',  ( -1.000000000000000000, 0.0000000000000000000, 0.0000000000000000000 ) ) ;
#173 = MECHANICAL_DESIGN_GEOMETRIC_PRESENTATION_REPRESENTATION (  '', ( #25 ), #58 ) ;
#174 = CIRCLE ( 'NONE', #297, 0.05243750000000001882 ) ;
#175 = CARTESIAN_POINT ( 'NONE',  ( -0.06243749999999995137, 7.646388452176288915E-18, 0.5000000000000000000 ) ) ;
#176 =( NAMED_UNIT ( * ) SI_UNIT ( $, .STERADIAN. ) SOLID_ANGLE_UNIT ( ) );
#177 = CARTESIAN_POINT ( 'NONE',  ( 1.224646799147353770E-18, 0.0000000000000000000, 0.0000000000000000000 ) ) ;
#178 = LINE ( 'NONE', #232, #198 ) ;
#179 = EDGE_CURVE ( 'NONE', #281, #236, #39, .T. ) ;
#180 = DIRECTION ( 'NONE',  ( -1.000000000000000000, 0.0000000000000000000, 0.0000000000000000000 ) ) ;
#181 = FACE_OUTER_BOUND ( 'NONE', #65, .T. ) ;
#182 = CARTESIAN_POINT ( 'NONE',  ( 1.224646799147353962E-18, 0.0000000000000000000, 0.01000000000000000194 ) ) ;
#183 = EDGE_LOOP ( 'NONE', ( #170, #44, #93, #276 ) ) ;
#184 =( NAMED_UNIT ( * ) PLANE_ANGLE_UNIT ( ) SI_UNIT ( $, .RADIAN. ) );
#185 = CIRCLE ( 'NONE', #208, 0.06250000000000002776 ) ;
#186 = DIRECTION ( 'NONE',  ( -1.224646799147353700E-16, -0.0000000000000000000, -1.000000000000000000 ) ) ;
#187 = LINE ( 'NONE', #299, #268 ) ;
#188 = EDGE_CURVE ( 'NONE', #236, #7, #282, .T. ) ;
#189 = ORIENTED_EDGE ( 'NONE', *, *, #165, .T. ) ;
#190 = EDGE_LOOP ( 'NONE', ( #67, #311, #104, #140 ) ) ;
#191 = ORIENTED_EDGE ( 'NONE', *, *, #60, .T. ) ;
#192 = DIRECTION ( 'NONE',  ( -1.224646799147353700E-16, -0.0000000000000000000, -1.000000000000000000 ) ) ;
#193 = AXIS2_PLACEMENT_3D ( 'NONE', #22, #123, #237 ) ;
#194 = EDGE_CURVE ( 'NONE', #281, #169, #226, .T. ) ;
#195 = ORIENTED_EDGE ( 'NONE', *, *, #131, .F. ) ;
#196 = DIRECTION ( 'NONE',  ( -1.224646799147353700E-16, -0.0000000000000000000, -1.000000000000000000 ) ) ;
#197 = ORIENTED_EDGE ( 'NONE', *, *, #344, .F. ) ;
#198 = VECTOR ( 'NONE', #234, 39.37007874015748854 ) ;
#199 = CONICAL_SURFACE ( 'NONE', #193, 0.06243750000000001382, 0.1745329251994337805 ) ;
#200 = UNCERTAINTY_MEASURE_WITH_UNIT (LENGTH_MEASURE( 1.000000000000000082E-05 ), #107, 'distance_accuracy_value', 'NONE');
#201 = SURFACE_STYLE_USAGE ( .BOTH. , #149 ) ;
#202 = CARTESIAN_POINT ( 'NONE',  ( 0.0000000000000000000, 0.0000000000000000000, 1.500000000000000222 ) ) ;
#203 = DIRECTION ( 'NONE',  ( 1.000000000000000000, 0.0000000000000000000, 0.0000000000000000000 ) ) ;
#204 = EDGE_CURVE ( 'NONE', #55, #147, #264, .T. ) ;
#205 = ORIENTED_EDGE ( 'NONE', *, *, #194, .F. ) ;
#206 = DIRECTION ( 'NONE',  ( -0.0000000000000000000, -0.0000000000000000000, -1.000000000000000000 ) ) ;
#207 = CARTESIAN_POINT ( 'NONE',  ( -0.06250000000000002776, 0.0000000000000000000, 1.485000000000000764 ) ) ;
#208 = AXIS2_PLACEMENT_3D ( 'NONE', #220, #192, #116 ) ;
#209 = ORIENTED_EDGE ( 'NONE', *, *, #179, .F. ) ;
#210 = ADVANCED_FACE ( 'NONE', ( #339 ), #230, .T. ) ;
#211 = DIRECTION ( 'NONE',  ( 0.0000000000000000000, 0.0000000000000000000, -1.000000000000000000 ) ) ;
#212 = CIRCLE ( 'NONE', #37, 0.06250000000000002776 ) ;
#213 = DIRECTION ( 'NONE',  ( -1.224646799147353700E-16, -0.0000000000000000000, -1.000000000000000000 ) ) ;
#214 = DIRECTION ( 'NONE',  ( -0.7071067811865462405, 0.0000000000000000000, -0.7071067811865486830 ) ) ;
#215 = VECTOR ( 'NONE', #43, 39.37007874015748854 ) ;
#216 = PRESENTATION_LAYER_ASSIGNMENT (  '', '', ( #138 ) ) ;
#217 = DIRECTION ( 'NONE',  ( -1.000000000000000000, 0.0000000000000000000, 0.0000000000000000000 ) ) ;
#218 = SURFACE_STYLE_FILL_AREA ( #114 ) ;
#219 = ORIENTED_EDGE ( 'NONE', *, *, #251, .F. ) ;
#220 = CARTESIAN_POINT ( 'NONE',  ( 6.127574818941429733E-17, 0.0000000000000000000, 0.5003544551137261154 ) ) ;
#221 = EDGE_CURVE ( 'NONE', #55, #241, #178, .T. ) ;
#222 = CARTESIAN_POINT ( 'NONE',  ( 0.05243750000000001882, 0.0000000000000000000, 0.01000000000000000021 ) ) ;
#223 = AXIS2_PLACEMENT_3D ( 'NONE', #23, #213, #238 ) ;
#224 = ORIENTED_EDGE ( 'NONE', *, *, #221, .F. ) ;
#225 = ORIENTED_EDGE ( 'NONE', *, *, #194, .T. ) ;
#226 = LINE ( 'NONE', #175, #215 ) ;
#227 = ORIENTED_EDGE ( 'NONE', *, *, #121, .F. ) ;
#228 = CARTESIAN_POINT ( 'NONE',  ( 0.0000000000000000000, 0.0000000000000000000, 0.0000000000000000000 ) ) ;
#229 = EDGE_CURVE ( 'NONE', #241, #7, #106, .T. ) ;
#230 = CONICAL_SURFACE ( 'NONE', #274, 0.04750000000000064587, 0.7853981633974466137 ) ;
#231 = ORIENTED_EDGE ( 'NONE', *, *, #54, .T. ) ;
#232 = CARTESIAN_POINT ( 'NONE',  ( 0.04750000000000064587, 5.817072295950006528E-18, 1.500000000000000222 ) ) ;
#233 = FACE_OUTER_BOUND ( 'NONE', #42, .T. ) ;
#234 = DIRECTION ( 'NONE',  ( 0.7071067811865462405, 8.659560562354916834E-17, -0.7071067811865486830 ) ) ;
#235 = CARTESIAN_POINT ( 'NONE',  ( 0.0000000000000000000, 0.0000000000000000000, 1.500000000000000222 ) ) ;
#236 = VERTEX_POINT ( 'NONE', #130 ) ;
#237 = DIRECTION ( 'NONE',  ( 1.000000000000000000, 0.0000000000000000000, 0.0000000000000000000 ) ) ;
#238 = DIRECTION ( 'NONE',  ( 1.000000000000000000, 0.0000000000000000000, 0.0000000000000000000 ) ) ;
#239 = DIRECTION ( 'NONE',  ( 0.0000000000000000000, 0.0000000000000000000, -1.000000000000000000 ) ) ;
#240 = ADVANCED_FACE ( 'NONE', ( #129 ), #199, .T. ) ;
#241 = VERTEX_POINT ( 'NONE', #314 ) ;
#242 = PRODUCT_CONTEXT ( 'NONE', #27, 'mechanical' ) ;
#243 = ORIENTED_EDGE ( 'NONE', *, *, #344, .T. ) ;
#244 = DIRECTION ( 'NONE',  ( 0.0000000000000000000, 0.0000000000000000000, 1.000000000000000000 ) ) ;
#245 = AXIS2_PLACEMENT_3D ( 'NONE', #115, #239, #134 ) ;
#246 = CARTESIAN_POINT ( 'NONE',  ( 0.0000000000000000000, 0.0000000000000000000, 0.0000000000000000000 ) ) ;
#247 = CIRCLE ( 'NONE', #315, 0.009999999999999995004 ) ;
#248 = UNCERTAINTY_MEASURE_WITH_UNIT (LENGTH_MEASURE( 1.000000000000000082E-05 ), #335, 'distance_accuracy_value', 'NONE');
#249 = VERTEX_POINT ( 'NONE', #105 ) ;
#250 = CARTESIAN_POINT ( 'NONE',  ( 1.224646799147353770E-18, 0.0000000000000000000, 0.01000000000000000021 ) ) ;
#251 = EDGE_CURVE ( 'NONE', #249, #304, #122, .T. ) ;
#252 = ORIENTED_EDGE ( 'NONE', *, *, #251, .T. ) ;
#253 = SHAPE_DEFINITION_REPRESENTATION ( #63, #349 ) ;
#254 = VERTEX_POINT ( 'NONE', #207 ) ;
#255 = DIRECTION ( 'NONE',  ( 1.000000000000000000, 0.0000000000000000000, 0.0000000000000000000 ) ) ;
#256 = DIRECTION ( 'NONE',  ( -1.000000000000000000, 0.0000000000000000000, 0.0000000000000000000 ) ) ;
#257 = CARTESIAN_POINT ( 'NONE',  ( -0.06249999999999996531, 0.0000000000000000000, 0.5003544551137261154 ) ) ;
#258 = AXIS2_PLACEMENT_3D ( 'NONE', #137, #343, #30 ) ;
#259 = CARTESIAN_POINT ( 'NONE',  ( -0.06243749999999995137, 7.650215473423624771E-18, 0.5000000000000000000 ) ) ;
#260 = DIRECTION ( 'NONE',  ( 1.000000000000000000, 0.0000000000000000000, 0.0000000000000000000 ) ) ;
#261 = ADVANCED_FACE ( 'NONE', ( #181 ), #47, .T. ) ;
#262 = CARTESIAN_POINT ( 'NONE',  ( 0.06243750000000001382, 7.646388452176288915E-18, 0.01000000000000000194 ) ) ;
#263 = DIRECTION ( 'NONE',  ( 1.000000000000000000, 0.0000000000000000000, -0.0000000000000000000 ) ) ;
#264 = CIRCLE ( 'NONE', #308, 0.04750000000000064587 ) ;
#265 = DIRECTION ( 'NONE',  ( 1.224646799147353207E-16, 1.000000000000000000, -0.0000000000000000000 ) ) ;
#266 = ADVANCED_FACE ( 'NONE', ( #313 ), #152, .T. ) ;
#267 =( NAMED_UNIT ( * ) SI_UNIT ( $, .STERADIAN. ) SOLID_ANGLE_UNIT ( ) );
#268 = VECTOR ( 'NONE', #148, 39.37007874015748143 ) ;
#269 = EDGE_CURVE ( 'NONE', #33, #97, #174, .T. ) ;
#270 = LENGTH_MEASURE_WITH_UNIT ( LENGTH_MEASURE( 0.02539999999999999897 ), #298 );
#271 = CARTESIAN_POINT ( 'NONE',  ( 0.04750000000000064587, 6.735557395310483192E-18, 1.500000000000000222 ) ) ;
#272 = DIRECTION ( 'NONE',  ( 1.000000000000000000, 0.0000000000000000000, -0.0000000000000000000 ) ) ;
#273 = CARTESIAN_POINT ( 'NONE',  ( -0.05243750000000001882, 7.034065052602612127E-18, 0.0000000000000000000 ) ) ;
#274 = AXIS2_PLACEMENT_3D ( 'NONE', #46, #19, #81 ) ;
#275 = EDGE_LOOP ( 'NONE', ( #294, #72, #326, #3 ) ) ;
#276 = ORIENTED_EDGE ( 'NONE', *, *, #99, .F. ) ;
#277 = ADVANCED_FACE ( 'NONE', ( #80 ), #128, .T. ) ;
#278 = SURFACE_STYLE_FILL_AREA ( #312 ) ;
#279 = DIRECTION ( 'NONE',  ( -1.224646799147353700E-16, -0.0000000000000000000, -1.000000000000000000 ) ) ;
#280 = CIRCLE ( 'NONE', #258, 0.04750000000000064587 ) ;
#281 = VERTEX_POINT ( 'NONE', #259 ) ;
#282 = LINE ( 'NONE', #41, #296 ) ;
#283 = AXIS2_PLACEMENT_3D ( 'NONE', #202, #125, #79 ) ;
#284 = PRODUCT_DEFINITION ( 'UNKNOWN', '', #113, #24 ) ;
#285 = ORIENTED_EDGE ( 'NONE', *, *, #188, .T. ) ;
#286 = DIRECTION ( 'NONE',  ( 1.000000000000000000, 0.0000000000000000000, 0.0000000000000000000 ) ) ;
#287 = EDGE_LOOP ( 'NONE', ( #224, #95, #324, #164 ) ) ;
#288 = ADVANCED_FACE ( 'NONE', ( #48 ), #14, .T. ) ;
#289 = AXIS2_PLACEMENT_3D ( 'NONE', #309, #96, #256 ) ;
#290 = AXIS2_PLACEMENT_3D ( 'NONE', #235, #206, #180 ) ;
#291 = ORIENTED_EDGE ( 'NONE', *, *, #133, .F. ) ;
#292 = DIRECTION ( 'NONE',  ( 1.224646799147353700E-16, 0.0000000000000000000, 1.000000000000000000 ) ) ;
#293 = DIRECTION ( 'NONE',  ( 1.000000000000000000, 0.0000000000000000000, 0.0000000000000000000 ) ) ;
#294 = ORIENTED_EDGE ( 'NONE', *, *, #269, .F. ) ;
#295 = FACE_OUTER_BOUND ( 'NONE', #11, .T. ) ;
#296 = VECTOR ( 'NONE', #10, 39.37007874015748143 ) ;
#297 = AXIS2_PLACEMENT_3D ( 'NONE', #177, #51, #260 ) ;
#298 =( LENGTH_UNIT ( ) NAMED_UNIT ( * ) SI_UNIT ( $, .METRE. ) );
#299 = CARTESIAN_POINT ( 'NONE',  ( 0.06243750000000001382, 7.646388452176288915E-18, -7.646388452176291997E-18 ) ) ;
#300 = TOROIDAL_SURFACE ( 'NONE', #78, 0.05243750000000001882, 0.01000000000000000021 ) ;
#301 = EDGE_LOOP ( 'NONE', ( #231, #132 ) ) ;
#302 = COLOUR_RGB ( '',0.7921568627450980005, 0.8196078431372548767, 0.9333333333333333481 ) ;
#303 =( LENGTH_UNIT ( ) NAMED_UNIT ( * ) SI_UNIT ( $, .METRE. ) );
#304 = VERTEX_POINT ( 'NONE', #262 ) ;
#305 = CARTESIAN_POINT ( 'NONE',  ( 0.0000000000000000000, 0.0000000000000000000, 0.0000000000000000000 ) ) ;
#306 = ORIENTED_EDGE ( 'NONE', *, *, #158, .F. ) ;
#307 = CYLINDRICAL_SURFACE ( 'NONE', #151, 0.06243750000000001382 ) ;
#308 = AXIS2_PLACEMENT_3D ( 'NONE', #154, #342, #126 ) ;
#309 = CARTESIAN_POINT ( 'NONE',  ( 6.123233995736768501E-17, 0.0000000000000000000, 0.5000000000000000000 ) ) ;
#310 = AXIS2_PLACEMENT_3D ( 'NONE', #246, #53, #272 ) ;
#311 = ORIENTED_EDGE ( 'NONE', *, *, #121, .T. ) ;
#312 = FILL_AREA_STYLE ('',( #35 ) ) ;
#313 = FACE_OUTER_BOUND ( 'NONE', #334, .T. ) ;
#314 = CARTESIAN_POINT ( 'NONE',  ( 0.06250000000000002776, 7.654042494670959086E-18, 1.485000000000000764 ) ) ;
#315 = AXIS2_PLACEMENT_3D ( 'NONE', #157, #265, #87 ) ;
#316 =( NAMED_UNIT ( * ) PLANE_ANGLE_UNIT ( ) SI_UNIT ( $, .RADIAN. ) );
#317 = UNCERTAINTY_MEASURE_WITH_UNIT (LENGTH_MEASURE( 1.000000000000000082E-05 ), #319, 'distance_accuracy_value', 'NONE');
#318 = ADVANCED_FACE ( 'NONE', ( #233 ), #18, .T. ) ;
#319 =( CONVERSION_BASED_UNIT ( 'INCH', #270 ) LENGTH_UNIT ( ) NAMED_UNIT ( #330 ) );
#320 = APPLICATION_PROTOCOL_DEFINITION ( 'draft international standard', 'automotive_design', 1998, #49 ) ;
#321 = CARTESIAN_POINT ( 'NONE',  ( -0.06243750000000001382, 0.0000000000000000000, 7.646388452176291997E-18 ) ) ;
#322 = CIRCLE ( 'NONE', #168, 0.06243750000000001382 ) ;
#323 = APPLICATION_PROTOCOL_DEFINITION ( 'draft international standard', 'automotive_design', 1998, #27 ) ;
#324 = ORIENTED_EDGE ( 'NONE', *, *, #99, .T. ) ;
#325 = CARTESIAN_POINT ( 'NONE',  ( 0.05243750000000001882, 0.0000000000000000000, 0.0000000000000000000 ) ) ;
#326 = ORIENTED_EDGE ( 'NONE', *, *, #341, .F. ) ;
#327 = LENGTH_MEASURE_WITH_UNIT ( LENGTH_MEASURE( 0.02539999999999999897 ), #303 );
#328 = AXIS2_PLACEMENT_3D ( 'NONE', #103, #16, #82 ) ;
#329 = CYLINDRICAL_SURFACE ( 'NONE', #146, 0.06243750000000001382 ) ;
#330 = DIMENSIONAL_EXPONENTS ( 1.000000000000000000, 0.0000000000000000000, 0.0000000000000000000, 0.0000000000000000000, 0.0000000000000000000, 0.0000000000000000000, 0.0000000000000000000 ) ;
#331 = ORIENTED_EDGE ( 'NONE', *, *, #338, .F. ) ;
#332 = ADVANCED_FACE ( 'NONE', ( #295 ), #163, .F. ) ;
#333 = CARTESIAN_POINT ( 'NONE',  ( 6.123233995736768501E-17, 0.0000000000000000000, 0.5000000000000000000 ) ) ;
#334 = EDGE_LOOP ( 'NONE', ( #38, #9, #197, #34 ) ) ;
#335 =( CONVERSION_BASED_UNIT ( 'INCH', #327 ) LENGTH_UNIT ( ) NAMED_UNIT ( #76 ) );
#336 = FACE_OUTER_BOUND ( 'NONE', #161, .T. ) ;
#337 = CARTESIAN_POINT ( 'NONE',  ( 0.06250000000000002776, 7.654042494670959086E-18, 1.500000000000000222 ) ) ;
#338 = EDGE_CURVE ( 'NONE', #33, #249, #247, .T. ) ;
#339 = FACE_OUTER_BOUND ( 'NONE', #287, .T. ) ;
#340 = CARTESIAN_POINT ( 'NONE',  ( 0.0000000000000000000, 0.0000000000000000000, 1.500000000000000222 ) ) ;
#341 = EDGE_CURVE ( 'NONE', #304, #249, #322, .T. ) ;
#342 = DIRECTION ( 'NONE',  ( 0.0000000000000000000, 0.0000000000000000000, 1.000000000000000000 ) ) ;
#343 = DIRECTION ( 'NONE',  ( 0.0000000000000000000, 0.0000000000000000000, 1.000000000000000000 ) ) ;
#344 = EDGE_CURVE ( 'NONE', #169, #7, #15, .T. ) ;
#345 = DIRECTION ( 'NONE',  ( 1.000000000000000000, 0.0000000000000000000, 0.0000000000000000000 ) ) ;
#346 = FACE_OUTER_BOUND ( 'NONE', #183, .T. ) ;
#347 = DIRECTION ( 'NONE',  ( 1.000000000000000000, 0.0000000000000000000, 0.0000000000000000000 ) ) ;
#348 = CARTESIAN_POINT ( 'NONE',  ( -0.06250000000000002776, 0.0000000000000000000, 1.500000000000000222 ) ) ;
#349 = ADVANCED_BREP_SHAPE_REPRESENTATION ( 'Micro_GEC-125-4-010X', ( #139, #6 ), #86 ) ;
#350 = CIRCLE ( 'NONE', #83, 0.05243750000000001882 ) ;
#351 = DIRECTION ( 'NONE',  ( -0.0000000000000000000, -0.0000000000000000000, -1.000000000000000000 ) ) ;
ENDSEC;
END-ISO-10303-21;
