ISO-10303-21;
HEADER;
FILE_DESCRIPTION (( 'STEP AP214' ),
    '1' );
FILE_NAME ('Micro_RDC-80.STEP',
    '2021-08-31T17:01:29',
    ( '' ),
    ( '' ),
    'SwSTEP 2.0',
    'SolidWorks 2020',
    '' );
FILE_SCHEMA (( 'AUTOMOTIVE_DESIGN' ));
ENDSEC;

DATA;
#1 = FACE_OUTER_BOUND ( 'NONE', #16, .T. ) ;
#2 = AXIS2_PLACEMENT_3D ( 'NONE', #246, #42, #110 ) ;
#3 = DIRECTION ( 'NONE',  ( -1.224646799147353454E-16, -0.0000000000000000000, -1.000000000000000000 ) ) ;
#4 = AXIS2_PLACEMENT_3D ( 'NONE', #288, #266, #219 ) ;
#5 = ADVANCED_FACE ( 'NONE', ( #1 ), #96, .T. ) ;
#6 = EDGE_LOOP ( 'NONE', ( #102, #283, #195, #84 ) ) ;
#7 = DIRECTION ( 'NONE',  ( -1.224646799147353454E-16, -0.0000000000000000000, -1.000000000000000000 ) ) ;
#8 = ORIENTED_EDGE ( 'NONE', *, *, #279, .T. ) ;
#9 =( NAMED_UNIT ( * ) SI_UNIT ( $, .STERADIAN. ) SOLID_ANGLE_UNIT ( ) );
#10 = ORIENTED_EDGE ( 'NONE', *, *, #293, .T. ) ;
#11 = UNCERTAINTY_MEASURE_WITH_UNIT (LENGTH_MEASURE( 1.000000000000000082E-05 ), #177, 'distance_accuracy_value', 'NONE');
#12 =( GEOMETRIC_REPRESENTATION_CONTEXT ( 3 ) GLOBAL_UNCERTAINTY_ASSIGNED_CONTEXT ( ( #11 ) ) GLOBAL_UNIT_ASSIGNED_CONTEXT ( ( #177, #78, #9 ) ) REPRESENTATION_CONTEXT ( 'NONE', 'WORKASPACE' ) );
#13 = EDGE_CURVE ( 'NONE', #285, #32, #50, .T. ) ;
#14 = ORIENTED_EDGE ( 'NONE', *, *, #191, .F. ) ;
#15 = CARTESIAN_POINT ( 'NONE',  ( 0.1250000000000001110, 1.530808498934192433E-17, 1.000708910227452009 ) ) ;
#16 = EDGE_LOOP ( 'NONE', ( #245, #125, #55, #107 ) ) ;
#17 = DIRECTION ( 'NONE',  ( 1.224646799147353454E-16, 0.0000000000000000000, 1.000000000000000000 ) ) ;
#18 = DIRECTION ( 'NONE',  ( 1.000000000000000000, 0.0000000000000000000, 0.0000000000000000000 ) ) ;
#19 = DIRECTION ( 'NONE',  ( -0.0000000000000000000, -0.0000000000000000000, -1.000000000000000000 ) ) ;
#20 = LINE ( 'NONE', #95, #229 ) ;
#21 = ADVANCED_FACE ( 'NONE', ( #139 ), #248, .T. ) ;
#22 = DIRECTION ( 'NONE',  ( -1.224646799147353454E-16, -0.0000000000000000000, -1.000000000000000000 ) ) ;
#23 = DIRECTION ( 'NONE',  ( -1.000000000000000000, 0.0000000000000000000, 0.0000000000000000000 ) ) ;
#24 = AXIS2_PLACEMENT_3D ( 'NONE', #138, #188, #23 ) ;
#25 = CARTESIAN_POINT ( 'NONE',  ( -0.1249999999999998751, 0.0000000000000000000, 1.000708910227452009 ) ) ;
#26 = CARTESIAN_POINT ( 'NONE',  ( 0.0000000000000000000, 0.0000000000000000000, 3.000000000000000444 ) ) ;
#27 = SURFACE_STYLE_FILL_AREA ( #144 ) ;
#28 = PRESENTATION_LAYER_ASSIGNMENT (  '', '', ( #261 ) ) ;
#29 =( GEOMETRIC_REPRESENTATION_CONTEXT ( 3 ) GLOBAL_UNCERTAINTY_ASSIGNED_CONTEXT ( ( #59 ) ) GLOBAL_UNIT_ASSIGNED_CONTEXT ( ( #186, #269, #161 ) ) REPRESENTATION_CONTEXT ( 'NONE', 'WORKASPACE' ) );
#30 = EDGE_CURVE ( 'NONE', #175, #54, #208, .T. ) ;
#31 =( NAMED_UNIT ( * ) PLANE_ANGLE_UNIT ( ) SI_UNIT ( $, .RADIAN. ) );
#32 = VERTEX_POINT ( 'NONE', #25 ) ;
#33 = VECTOR ( 'NONE', #232, 39.37007874015748143 ) ;
#34 = VERTEX_POINT ( 'NONE', #273 ) ;
#35 = ORIENTED_EDGE ( 'NONE', *, *, #239, .F. ) ;
#36 = CARTESIAN_POINT ( 'NONE',  ( 1.224646799147353454E-16, 0.0000000000000000000, 1.000000000000000000 ) ) ;
#37 = EDGE_CURVE ( 'NONE', #34, #201, #99, .T. ) ;
#38 = ORIENTED_EDGE ( 'NONE', *, *, #13, .F. ) ;
#39 = PRODUCT_DEFINITION_CONTEXT ( 'detailed design', #224, 'design' ) ;
#40 = CIRCLE ( 'NONE', #4, 0.1250000000000000000 ) ;
#41 = ORIENTED_EDGE ( 'NONE', *, *, #37, .F. ) ;
#42 = DIRECTION ( 'NONE',  ( 0.0000000000000000000, 0.0000000000000000000, 1.000000000000000000 ) ) ;
#43 = FACE_OUTER_BOUND ( 'NONE', #179, .T. ) ;
#44 = DIMENSIONAL_EXPONENTS ( 1.000000000000000000, 0.0000000000000000000, 0.0000000000000000000, 0.0000000000000000000, 0.0000000000000000000, 0.0000000000000000000, 0.0000000000000000000 ) ;
#45 = FILL_AREA_STYLE_COLOUR ( '', #62 ) ;
#46 = PRESENTATION_STYLE_ASSIGNMENT (( #250 ) ) ;
#47 = CARTESIAN_POINT ( 'NONE',  ( -0.1100000000000004446, 0.0000000000000000000, 3.000000000000000444 ) ) ;
#48 = ADVANCED_FACE ( 'NONE', ( #268 ), #214, .T. ) ;
#49 = AXIS2_PLACEMENT_3D ( 'NONE', #213, #3, #98 ) ;
#50 = LINE ( 'NONE', #94, #256 ) ;
#51 = FILL_AREA_STYLE_COLOUR ( '', #73 ) ;
#52 = DIRECTION ( 'NONE',  ( 1.224646799147353454E-16, 0.0000000000000000000, 1.000000000000000000 ) ) ;
#53 = CONICAL_SURFACE ( 'NONE', #170, 0.1100000000000004446, 0.7853981633974613796 ) ;
#54 = VERTEX_POINT ( 'NONE', #171 ) ;
#55 = ORIENTED_EDGE ( 'NONE', *, *, #167, .F. ) ;
#56 = CIRCLE ( 'NONE', #49, 0.1250000000000000000 ) ;
#57 = VECTOR ( 'NONE', #271, 39.37007874015748143 ) ;
#58 = VERTEX_POINT ( 'NONE', #101 ) ;
#59 = UNCERTAINTY_MEASURE_WITH_UNIT (LENGTH_MEASURE( 1.000000000000000082E-05 ), #186, 'distance_accuracy_value', 'NONE');
#60 = ORIENTED_EDGE ( 'NONE', *, *, #37, .T. ) ;
#61 = FACE_OUTER_BOUND ( 'NONE', #282, .T. ) ;
#62 = COLOUR_RGB ( '',0.7921568627450980005, 0.8196078431372548767, 0.9333333333333333481 ) ;
#63 = DIMENSIONAL_EXPONENTS ( 1.000000000000000000, 0.0000000000000000000, 0.0000000000000000000, 0.0000000000000000000, 0.0000000000000000000, 0.0000000000000000000, 0.0000000000000000000 ) ;
#64 = EDGE_CURVE ( 'NONE', #134, #32, #56, .T. ) ;
#65 = CARTESIAN_POINT ( 'NONE',  ( 0.0000000000000000000, 0.0000000000000000000, 3.000000000000000444 ) ) ;
#66 = DIRECTION ( 'NONE',  ( 0.0000000000000000000, 0.0000000000000000000, -1.000000000000000000 ) ) ;
#67 = DIRECTION ( 'NONE',  ( -1.000000000000000000, 0.0000000000000000000, 1.224646799147353700E-16 ) ) ;
#68 = CARTESIAN_POINT ( 'NONE',  ( 0.1248750000000000276, 1.529277690435257783E-17, -1.529277690435257783E-17 ) ) ;
#69 = VECTOR ( 'NONE', #243, 39.37007874015748854 ) ;
#70 = DIRECTION ( 'NONE',  ( -0.0000000000000000000, -0.0000000000000000000, -1.000000000000000000 ) ) ;
#71 = EDGE_CURVE ( 'NONE', #197, #58, #253, .T. ) ;
#72 = SHAPE_DEFINITION_REPRESENTATION ( #113, #166 ) ;
#73 = COLOUR_RGB ( '',0.7921568627450980005, 0.8196078431372548767, 0.9333333333333333481 ) ;
#74 = AXIS2_PLACEMENT_3D ( 'NONE', #65, #165, #297 ) ;
#75 = DIRECTION ( 'NONE',  ( 0.0000000000000000000, 0.0000000000000000000, 1.000000000000000000 ) ) ;
#76 = ORIENTED_EDGE ( 'NONE', *, *, #187, .T. ) ;
#77 = ORIENTED_EDGE ( 'NONE', *, *, #64, .F. ) ;
#78 =( NAMED_UNIT ( * ) PLANE_ANGLE_UNIT ( ) SI_UNIT ( $, .RADIAN. ) );
#79 = ORIENTED_EDGE ( 'NONE', *, *, #212, .F. ) ;
#80 = AXIS2_PLACEMENT_3D ( 'NONE', #26, #169, #181 ) ;
#81 = AXIS2_PLACEMENT_3D ( 'NONE', #103, #223, #200 ) ;
#82 = DIRECTION ( 'NONE',  ( -1.000000000000000000, 0.0000000000000000000, 0.0000000000000000000 ) ) ;
#83 = ORIENTED_EDGE ( 'NONE', *, *, #279, .F. ) ;
#84 = ORIENTED_EDGE ( 'NONE', *, *, #220, .F. ) ;
#85 = CARTESIAN_POINT ( 'NONE',  ( 1.224646799147353454E-16, 0.0000000000000000000, 1.000000000000000000 ) ) ;
#86 = MANIFOLD_SOLID_BREP ( 'Cut-Revolve1', #190 ) ;
#87 = ADVANCED_FACE ( 'NONE', ( #104 ), #255, .T. ) ;
#88 = LINE ( 'NONE', #183, #257 ) ;
#89 = CIRCLE ( 'NONE', #137, 0.1248750000000000276 ) ;
#90 = CARTESIAN_POINT ( 'NONE',  ( 0.0000000000000000000, 0.0000000000000000000, 3.000000000000000444 ) ) ;
#91 = CARTESIAN_POINT ( 'NONE',  ( 0.1248750000000001387, 0.0000000000000000000, 1.000000000000000000 ) ) ;
#92 =( LENGTH_UNIT ( ) NAMED_UNIT ( * ) SI_UNIT ( $, .METRE. ) );
#93 = CARTESIAN_POINT ( 'NONE',  ( 0.1250000000000000000, 1.530808498934191201E-17, 3.000000000000000444 ) ) ;
#94 = CARTESIAN_POINT ( 'NONE',  ( -0.1248749999999999027, 1.529277690435257783E-17, 1.000000000000000000 ) ) ;
#95 = CARTESIAN_POINT ( 'NONE',  ( -0.1250000000000000000, 0.0000000000000000000, 3.000000000000000444 ) ) ;
#96 = CYLINDRICAL_SURFACE ( 'NONE', #80, 0.1250000000000000000 ) ;
#97 =( LENGTH_UNIT ( ) NAMED_UNIT ( * ) SI_UNIT ( $, .METRE. ) );
#98 = DIRECTION ( 'NONE',  ( 1.000000000000000000, 0.0000000000000000000, 0.0000000000000000000 ) ) ;
#99 = CIRCLE ( 'NONE', #296, 0.1100000000000004446 ) ;
#100 = AXIS2_PLACEMENT_3D ( 'NONE', #36, #17, #238 ) ;
#101 = CARTESIAN_POINT ( 'NONE',  ( 0.1248749999999999999, 1.529277690435257475E-17, -1.895600338963814870E-33 ) ) ;
#102 = ORIENTED_EDGE ( 'NONE', *, *, #133, .F. ) ;
#103 = CARTESIAN_POINT ( 'NONE',  ( 0.0000000000000000000, 0.0000000000000000000, 3.000000000000000444 ) ) ;
#104 = FACE_OUTER_BOUND ( 'NONE', #194, .T. ) ;
#105 = EDGE_LOOP ( 'NONE', ( #287, #41, #225, #260 ) ) ;
#106 = PLANE ( 'NONE',  #81 ) ;
#107 = ORIENTED_EDGE ( 'NONE', *, *, #293, .F. ) ;
#108 = UNCERTAINTY_MEASURE_WITH_UNIT (LENGTH_MEASURE( 1.000000000000000082E-05 ), #280, 'distance_accuracy_value', 'NONE');
#109 = DIRECTION ( 'NONE',  ( 0.0000000000000000000, 0.0000000000000000000, -1.000000000000000000 ) ) ;
#110 = DIRECTION ( 'NONE',  ( 1.000000000000000000, 0.0000000000000000000, -0.0000000000000000000 ) ) ;
#111 = DIRECTION ( 'NONE',  ( 0.0000000000000000000, 0.0000000000000000000, 1.000000000000000000 ) ) ;
#112 = CIRCLE ( 'NONE', #24, 0.1248750000000000276 ) ;
#113 = PRODUCT_DEFINITION_SHAPE ( 'NONE', 'NONE',  #132 ) ;
#114 = CARTESIAN_POINT ( 'NONE',  ( -0.1248749999999999027, 1.530043094684724646E-17, 1.000000000000000000 ) ) ;
#115 = APPLICATION_CONTEXT ( 'automotive_design' ) ;
#116 = CARTESIAN_POINT ( 'NONE',  ( 0.0000000000000000000, 0.0000000000000000000, 3.000000000000000444 ) ) ;
#117 = AXIS2_PLACEMENT_3D ( 'NONE', #116, #207, #135 ) ;
#118 = CARTESIAN_POINT ( 'NONE',  ( 0.1248750000000001387, 0.0000000000000000000, 1.000000000000000000 ) ) ;
#119 = EDGE_CURVE ( 'NONE', #201, #54, #126, .T. ) ;
#120 = CARTESIAN_POINT ( 'NONE',  ( 0.0000000000000000000, 0.0000000000000000000, 3.000000000000000444 ) ) ;
#121 = APPLICATION_PROTOCOL_DEFINITION ( 'draft international standard', 'automotive_design', 1998, #224 ) ;
#122 = SURFACE_SIDE_STYLE ('',( #27 ) ) ;
#123 = ADVANCED_FACE ( 'NONE', ( #153 ), #180, .T. ) ;
#124 = AXIS2_PLACEMENT_3D ( 'NONE', #226, #7, #203 ) ;
#125 = ORIENTED_EDGE ( 'NONE', *, *, #259, .T. ) ;
#126 = LINE ( 'NONE', #217, #69 ) ;
#127 = LENGTH_MEASURE_WITH_UNIT ( LENGTH_MEASURE( 0.02539999999999999897 ), #128 );
#128 =( LENGTH_UNIT ( ) NAMED_UNIT ( * ) SI_UNIT ( $, .METRE. ) );
#129 = ADVANCED_FACE ( 'NONE', ( #131 ), #106, .T. ) ;
#130 = EDGE_LOOP ( 'NONE', ( #156, #8, #216, #242 ) ) ;
#131 = FACE_OUTER_BOUND ( 'NONE', #199, .T. ) ;
#132 = PRODUCT_DEFINITION ( 'UNKNOWN', '', #274, #39 ) ;
#133 = EDGE_CURVE ( 'NONE', #285, #258, #89, .T. ) ;
#134 = VERTEX_POINT ( 'NONE', #15 ) ;
#135 = DIRECTION ( 'NONE',  ( -1.000000000000000000, 0.0000000000000000000, 0.0000000000000000000 ) ) ;
#136 = FILL_AREA_STYLE ('',( #45 ) ) ;
#137 = AXIS2_PLACEMENT_3D ( 'NONE', #85, #151, #82 ) ;
#138 = CARTESIAN_POINT ( 'NONE',  ( 1.224646799147353454E-16, 0.0000000000000000000, 1.000000000000000000 ) ) ;
#139 = FACE_OUTER_BOUND ( 'NONE', #154, .T. ) ;
#140 = ADVANCED_FACE ( 'NONE', ( #284 ), #53, .T. ) ;
#141 = CARTESIAN_POINT ( 'NONE',  ( -0.1248749999999999999, 0.0000000000000000000, 3.058555380870515566E-17 ) ) ;
#142 = AXIS2_PLACEMENT_3D ( 'NONE', #234, #233, #189 ) ;
#143 = CIRCLE ( 'NONE', #281, 0.1250000000000000000 ) ;
#144 = FILL_AREA_STYLE ('',( #51 ) ) ;
#145 = AXIS2_PLACEMENT_3D ( 'NONE', #174, #211, #276 ) ;
#146 = ADVANCED_FACE ( 'NONE', ( #202 ), #215, .T. ) ;
#147 = EDGE_LOOP ( 'NONE', ( #14, #222, #289, #79 ) ) ;
#148 = CARTESIAN_POINT ( 'NONE',  ( 0.0000000000000000000, 0.0000000000000000000, 2.985000000000001208 ) ) ;
#149 = VECTOR ( 'NONE', #231, 39.37007874015748854 ) ;
#150 = ORIENTED_EDGE ( 'NONE', *, *, #259, .F. ) ;
#151 = DIRECTION ( 'NONE',  ( -1.224646799147353454E-16, -0.0000000000000000000, -1.000000000000000000 ) ) ;
#152 = ORIENTED_EDGE ( 'NONE', *, *, #185, .T. ) ;
#153 = FACE_OUTER_BOUND ( 'NONE', #130, .T. ) ;
#154 = EDGE_LOOP ( 'NONE', ( #38, #173, #176, #240 ) ) ;
#155 = MECHANICAL_DESIGN_GEOMETRIC_PRESENTATION_REPRESENTATION (  '', ( #261 ), #12 ) ;
#156 = ORIENTED_EDGE ( 'NONE', *, *, #133, .T. ) ;
#157 = PLANE ( 'NONE',  #2 ) ;
#158 = CARTESIAN_POINT ( 'NONE',  ( 1.224646799147353454E-16, 0.0000000000000000000, 1.000000000000000000 ) ) ;
#159 = CYLINDRICAL_SURFACE ( 'NONE', #117, 0.1250000000000000000 ) ;
#160 = PRODUCT ( 'Micro_RDC-80', 'Micro_RDC-80', '', ( #278 ) ) ;
#161 =( NAMED_UNIT ( * ) SI_UNIT ( $, .STERADIAN. ) SOLID_ANGLE_UNIT ( ) );
#162 = DIMENSIONAL_EXPONENTS ( 1.000000000000000000, 0.0000000000000000000, 0.0000000000000000000, 0.0000000000000000000, 0.0000000000000000000, 0.0000000000000000000, 0.0000000000000000000 ) ;
#163 = AXIS2_PLACEMENT_3D ( 'NONE', #158, #52, #18 ) ;
#164 = SURFACE_SIDE_STYLE ('',( #206 ) ) ;
#165 = DIRECTION ( 'NONE',  ( 0.0000000000000000000, 0.0000000000000000000, 1.000000000000000000 ) ) ;
#166 = ADVANCED_BREP_SHAPE_REPRESENTATION ( 'Micro_RDC-80', ( #86, #262 ), #29 ) ;
#167 = EDGE_CURVE ( 'NONE', #32, #134, #40, .T. ) ;
#168 = STYLED_ITEM ( 'NONE', ( #46 ), #166 ) ;
#169 = DIRECTION ( 'NONE',  ( -0.0000000000000000000, -0.0000000000000000000, -1.000000000000000000 ) ) ;
#170 = AXIS2_PLACEMENT_3D ( 'NONE', #290, #109, #241 ) ;
#171 = CARTESIAN_POINT ( 'NONE',  ( 0.1250000000000000000, 1.530808498934191201E-17, 2.985000000000001208 ) ) ;
#172 = DIRECTION ( 'NONE',  ( 1.000000000000000000, 0.0000000000000000000, 0.0000000000000000000 ) ) ;
#173 = ORIENTED_EDGE ( 'NONE', *, *, #265, .F. ) ;
#174 = CARTESIAN_POINT ( 'NONE',  ( 1.872825028598995495E-33, 0.0000000000000000000, 1.529277690435257783E-17 ) ) ;
#175 = VERTEX_POINT ( 'NONE', #196 ) ;
#176 = ORIENTED_EDGE ( 'NONE', *, *, #220, .T. ) ;
#177 =( CONVERSION_BASED_UNIT ( 'INCH', #127 ) LENGTH_UNIT ( ) NAMED_UNIT ( #63 ) );
#178 = PRESENTATION_STYLE_ASSIGNMENT (( #221 ) ) ;
#179 = EDGE_LOOP ( 'NONE', ( #150, #76, #10, #77 ) ) ;
#180 = CYLINDRICAL_SURFACE ( 'NONE', #193, 0.1248750000000000276 ) ;
#181 = DIRECTION ( 'NONE',  ( -1.000000000000000000, 0.0000000000000000000, 0.0000000000000000000 ) ) ;
#182 = CIRCLE ( 'NONE', #254, 0.1248749999999999999 ) ;
#183 = CARTESIAN_POINT ( 'NONE',  ( -0.1248750000000000276, 0.0000000000000000000, 1.529277690435257783E-17 ) ) ;
#184 = ADVANCED_FACE ( 'NONE', ( #61 ), #157, .F. ) ;
#185 = EDGE_CURVE ( 'NONE', #285, #197, #88, .T. ) ;
#186 =( CONVERSION_BASED_UNIT ( 'INCH', #209 ) LENGTH_UNIT ( ) NAMED_UNIT ( #44 ) );
#187 = EDGE_CURVE ( 'NONE', #54, #175, #143, .T. ) ;
#188 = DIRECTION ( 'NONE',  ( -1.224646799147353454E-16, -0.0000000000000000000, -1.000000000000000000 ) ) ;
#189 = DIRECTION ( 'NONE',  ( 1.000000000000000000, 0.0000000000000000000, 0.0000000000000000000 ) ) ;
#190 = CLOSED_SHELL ( 'NONE', ( #123, #146, #48, #5, #298, #129, #140, #21, #87, #184 ) ) ;
#191 = EDGE_CURVE ( 'NONE', #201, #34, #249, .T. ) ;
#192 = LENGTH_MEASURE_WITH_UNIT ( LENGTH_MEASURE( 0.02539999999999999897 ), #97 );
#193 = AXIS2_PLACEMENT_3D ( 'NONE', #264, #291, #286 ) ;
#194 = EDGE_LOOP ( 'NONE', ( #83, #237, #152, #35 ) ) ;
#195 = ORIENTED_EDGE ( 'NONE', *, *, #167, .T. ) ;
#196 = CARTESIAN_POINT ( 'NONE',  ( -0.1250000000000000000, 0.0000000000000000000, 2.985000000000001208 ) ) ;
#197 = VERTEX_POINT ( 'NONE', #141 ) ;
#198 = MECHANICAL_DESIGN_GEOMETRIC_PRESENTATION_REPRESENTATION (  '', ( #168 ), #236 ) ;
#199 = EDGE_LOOP ( 'NONE', ( #60, #263 ) ) ;
#200 = DIRECTION ( 'NONE',  ( 1.000000000000000000, 0.0000000000000000000, -0.0000000000000000000 ) ) ;
#201 = VERTEX_POINT ( 'NONE', #295 ) ;
#202 = FACE_OUTER_BOUND ( 'NONE', #6, .T. ) ;
#203 = DIRECTION ( 'NONE',  ( -1.000000000000000000, 0.0000000000000000000, 1.224646799147353207E-16 ) ) ;
#204 = DIRECTION ( 'NONE',  ( 1.000000000000000000, 0.0000000000000000000, 0.0000000000000000000 ) ) ;
#205 = PRESENTATION_LAYER_ASSIGNMENT (  '', '', ( #168 ) ) ;
#206 = SURFACE_STYLE_FILL_AREA ( #136 ) ;
#207 = DIRECTION ( 'NONE',  ( -0.0000000000000000000, -0.0000000000000000000, -1.000000000000000000 ) ) ;
#208 = CIRCLE ( 'NONE', #142, 0.1250000000000000000 ) ;
#209 = LENGTH_MEASURE_WITH_UNIT ( LENGTH_MEASURE( 0.02539999999999999897 ), #92 );
#210 = DIRECTION ( 'NONE',  ( -1.000000000000000000, 0.0000000000000000000, 0.0000000000000000000 ) ) ;
#211 = DIRECTION ( 'NONE',  ( -1.224646799147353454E-16, -0.0000000000000000000, -1.000000000000000000 ) ) ;
#212 = EDGE_CURVE ( 'NONE', #34, #175, #251, .T. ) ;
#213 = CARTESIAN_POINT ( 'NONE',  ( 1.225514963788285454E-16, 0.0000000000000000000, 1.000708910227452009 ) ) ;
#214 = CONICAL_SURFACE ( 'NONE', #228, 0.1100000000000004446, 0.7853981633974613796 ) ;
#215 = CONICAL_SURFACE ( 'NONE', #100, 0.1248750000000000276, 0.1745329251994338360 ) ;
#216 = ORIENTED_EDGE ( 'NONE', *, *, #71, .F. ) ;
#217 = CARTESIAN_POINT ( 'NONE',  ( 0.1100000000000004446, 1.347111479062094019E-17, 3.000000000000000444 ) ) ;
#218 = ORIENTED_EDGE ( 'NONE', *, *, #239, .T. ) ;
#219 = DIRECTION ( 'NONE',  ( 1.000000000000000000, 0.0000000000000000000, 0.0000000000000000000 ) ) ;
#220 = EDGE_CURVE ( 'NONE', #258, #134, #230, .T. ) ;
#221 = SURFACE_STYLE_USAGE ( .BOTH. , #122 ) ;
#222 = ORIENTED_EDGE ( 'NONE', *, *, #119, .T. ) ;
#223 = DIRECTION ( 'NONE',  ( 0.0000000000000000000, 0.0000000000000000000, 1.000000000000000000 ) ) ;
#224 = APPLICATION_CONTEXT ( 'automotive_design' ) ;
#225 = ORIENTED_EDGE ( 'NONE', *, *, #212, .T. ) ;
#226 = CARTESIAN_POINT ( 'NONE',  ( 0.0000000000000000000, 0.0000000000000000000, 0.0000000000000000000 ) ) ;
#227 = PRODUCT_RELATED_PRODUCT_CATEGORY ( 'part', '', ( #160 ) ) ;
#228 = AXIS2_PLACEMENT_3D ( 'NONE', #120, #66, #210 ) ;
#229 = VECTOR ( 'NONE', #70, 39.37007874015748143 ) ;
#230 = LINE ( 'NONE', #118, #57 ) ;
#231 = DIRECTION ( 'NONE',  ( -0.7071067811865566766, 0.0000000000000000000, -0.7071067811865382469 ) ) ;
#232 = DIRECTION ( 'NONE',  ( -1.224646799147353454E-16, -0.0000000000000000000, -1.000000000000000000 ) ) ;
#233 = DIRECTION ( 'NONE',  ( 0.0000000000000000000, 0.0000000000000000000, -1.000000000000000000 ) ) ;
#234 = CARTESIAN_POINT ( 'NONE',  ( 0.0000000000000000000, 0.0000000000000000000, 2.985000000000001208 ) ) ;
#235 = ORIENTED_EDGE ( 'NONE', *, *, #71, .T. ) ;
#236 =( GEOMETRIC_REPRESENTATION_CONTEXT ( 3 ) GLOBAL_UNCERTAINTY_ASSIGNED_CONTEXT ( ( #108 ) ) GLOBAL_UNIT_ASSIGNED_CONTEXT ( ( #280, #31, #277 ) ) REPRESENTATION_CONTEXT ( 'NONE', 'WORKASPACE' ) );
#237 = ORIENTED_EDGE ( 'NONE', *, *, #265, .T. ) ;
#238 = DIRECTION ( 'NONE',  ( 1.000000000000000000, 0.0000000000000000000, 0.0000000000000000000 ) ) ;
#239 = EDGE_CURVE ( 'NONE', #58, #197, #182, .T. ) ;
#240 = ORIENTED_EDGE ( 'NONE', *, *, #64, .T. ) ;
#241 = DIRECTION ( 'NONE',  ( -1.000000000000000000, 0.0000000000000000000, 0.0000000000000000000 ) ) ;
#242 = ORIENTED_EDGE ( 'NONE', *, *, #185, .F. ) ;
#243 = DIRECTION ( 'NONE',  ( 0.7071067811865566766, 8.659560562355046257E-17, -0.7071067811865382469 ) ) ;
#244 = VECTOR ( 'NONE', #19, 39.37007874015748143 ) ;
#245 = ORIENTED_EDGE ( 'NONE', *, *, #30, .T. ) ;
#246 = CARTESIAN_POINT ( 'NONE',  ( 0.0000000000000000000, 0.0000000000000000000, 0.0000000000000000000 ) ) ;
#247 = LINE ( 'NONE', #68, #33 ) ;
#248 = CONICAL_SURFACE ( 'NONE', #163, 0.1248750000000000276, 0.1745329251994338360 ) ;
#249 = CIRCLE ( 'NONE', #74, 0.1100000000000004446 ) ;
#250 = SURFACE_STYLE_USAGE ( .BOTH. , #164 ) ;
#251 = LINE ( 'NONE', #47, #149 ) ;
#252 = CARTESIAN_POINT ( 'NONE',  ( 1.872825028598995495E-33, 0.0000000000000000000, 1.529277690435257783E-17 ) ) ;
#253 = CIRCLE ( 'NONE', #145, 0.1248749999999999999 ) ;
#254 = AXIS2_PLACEMENT_3D ( 'NONE', #252, #22, #67 ) ;
#255 = CYLINDRICAL_SURFACE ( 'NONE', #124, 0.1248750000000000276 ) ;
#256 = VECTOR ( 'NONE', #292, 39.37007874015747433 ) ;
#257 = VECTOR ( 'NONE', #267, 39.37007874015748143 ) ;
#258 = VERTEX_POINT ( 'NONE', #91 ) ;
#259 = EDGE_CURVE ( 'NONE', #54, #134, #299, .T. ) ;
#260 = ORIENTED_EDGE ( 'NONE', *, *, #187, .F. ) ;
#261 = STYLED_ITEM ( 'NONE', ( #178 ), #86 ) ;
#262 = AXIS2_PLACEMENT_3D ( 'NONE', #275, #75, #172 ) ;
#263 = ORIENTED_EDGE ( 'NONE', *, *, #191, .T. ) ;
#264 = CARTESIAN_POINT ( 'NONE',  ( 0.0000000000000000000, 0.0000000000000000000, 0.0000000000000000000 ) ) ;
#265 = EDGE_CURVE ( 'NONE', #258, #285, #112, .T. ) ;
#266 = DIRECTION ( 'NONE',  ( -1.224646799147353454E-16, -0.0000000000000000000, -1.000000000000000000 ) ) ;
#267 = DIRECTION ( 'NONE',  ( -1.224646799147353454E-16, -0.0000000000000000000, -1.000000000000000000 ) ) ;
#268 = FACE_OUTER_BOUND ( 'NONE', #147, .T. ) ;
#269 =( NAMED_UNIT ( * ) PLANE_ANGLE_UNIT ( ) SI_UNIT ( $, .RADIAN. ) );
#270 = APPLICATION_PROTOCOL_DEFINITION ( 'draft international standard', 'automotive_design', 1998, #115 ) ;
#271 = DIRECTION ( 'NONE',  ( 0.1736481776669313304, 0.0000000000000000000, 0.9848077530122077983 ) ) ;
#272 = DIRECTION ( 'NONE',  ( 1.000000000000000000, 0.0000000000000000000, 0.0000000000000000000 ) ) ;
#273 = CARTESIAN_POINT ( 'NONE',  ( -0.1100000000000004446, 0.0000000000000000000, 3.000000000000000444 ) ) ;
#274 = PRODUCT_DEFINITION_FORMATION_WITH_SPECIFIED_SOURCE ( 'ANY', '', #160, .NOT_KNOWN. ) ;
#275 = CARTESIAN_POINT ( 'NONE',  ( 0.0000000000000000000, 0.0000000000000000000, 0.0000000000000000000 ) ) ;
#276 = DIRECTION ( 'NONE',  ( -1.000000000000000000, 0.0000000000000000000, 1.224646799147353700E-16 ) ) ;
#277 =( NAMED_UNIT ( * ) SI_UNIT ( $, .STERADIAN. ) SOLID_ANGLE_UNIT ( ) );
#278 = PRODUCT_CONTEXT ( 'NONE', #115, 'mechanical' ) ;
#279 = EDGE_CURVE ( 'NONE', #258, #58, #247, .T. ) ;
#280 =( CONVERSION_BASED_UNIT ( 'INCH', #192 ) LENGTH_UNIT ( ) NAMED_UNIT ( #162 ) );
#281 = AXIS2_PLACEMENT_3D ( 'NONE', #148, #294, #272 ) ;
#282 = EDGE_LOOP ( 'NONE', ( #235, #218 ) ) ;
#283 = ORIENTED_EDGE ( 'NONE', *, *, #13, .T. ) ;
#284 = FACE_OUTER_BOUND ( 'NONE', #105, .T. ) ;
#285 = VERTEX_POINT ( 'NONE', #114 ) ;
#286 = DIRECTION ( 'NONE',  ( -1.000000000000000000, 0.0000000000000000000, 1.224646799147353207E-16 ) ) ;
#287 = ORIENTED_EDGE ( 'NONE', *, *, #119, .F. ) ;
#288 = CARTESIAN_POINT ( 'NONE',  ( 1.225514963788285454E-16, 0.0000000000000000000, 1.000708910227452009 ) ) ;
#289 = ORIENTED_EDGE ( 'NONE', *, *, #30, .F. ) ;
#290 = CARTESIAN_POINT ( 'NONE',  ( 0.0000000000000000000, 0.0000000000000000000, 3.000000000000000444 ) ) ;
#291 = DIRECTION ( 'NONE',  ( -1.224646799147353454E-16, -0.0000000000000000000, -1.000000000000000000 ) ) ;
#292 = DIRECTION ( 'NONE',  ( -0.1736481776669311639, 2.126576849575782392E-17, 0.9848077530122080203 ) ) ;
#293 = EDGE_CURVE ( 'NONE', #175, #32, #20, .T. ) ;
#294 = DIRECTION ( 'NONE',  ( 0.0000000000000000000, 0.0000000000000000000, -1.000000000000000000 ) ) ;
#295 = CARTESIAN_POINT ( 'NONE',  ( 0.1100000000000004446, 1.438959988998142687E-17, 3.000000000000000444 ) ) ;
#296 = AXIS2_PLACEMENT_3D ( 'NONE', #90, #111, #204 ) ;
#297 = DIRECTION ( 'NONE',  ( 1.000000000000000000, 0.0000000000000000000, 0.0000000000000000000 ) ) ;
#298 = ADVANCED_FACE ( 'NONE', ( #43 ), #159, .T. ) ;
#299 = LINE ( 'NONE', #93, #244 ) ;
ENDSEC;
END-ISO-10303-21;
