ISO-10303-21;
HEADER;
FILE_DESCRIPTION (( 'STEP AP214' ),
    '1' );
FILE_NAME ('Micro_SFBM-030-8.STEP',
    '2021-09-03T16:41:25',
    ( '' ),
    ( '' ),
    'SwSTEP 2.0',
    'SolidWorks 2020',
    '' );
FILE_SCHEMA (( 'AUTOMOTIVE_DESIGN' ));
ENDSEC;

DATA;
#1 = ORIENTED_EDGE ( 'NONE', *, *, #357, .T. ) ;
#2 = PRODUCT_DEFINITION_SHAPE ( 'NONE', 'NONE',  #207 ) ;
#3 = DIRECTION ( 'NONE',  ( -0.0000000000000000000, -0.0000000000000000000, -1.000000000000000000 ) ) ;
#4 = DIRECTION ( 'NONE',  ( 1.000000000000000000, 0.0000000000000000000, 0.0000000000000000000 ) ) ;
#5 = PRODUCT_DEFINITION_CONTEXT ( 'detailed design', #373, 'design' ) ;
#6 = PRODUCT_RELATED_PRODUCT_CATEGORY ( 'part', '', ( #200 ) ) ;
#7 = FACE_OUTER_BOUND ( 'NONE', #344, .T. ) ;
#8 = ORIENTED_EDGE ( 'NONE', *, *, #358, .F. ) ;
#9 = ORIENTED_EDGE ( 'NONE', *, *, #37, .F. ) ;
#10 = ORIENTED_EDGE ( 'NONE', *, *, #172, .T. ) ;
#11 = FACE_OUTER_BOUND ( 'NONE', #264, .T. ) ;
#12 = DIRECTION ( 'NONE',  ( -0.0000000000000000000, -0.0000000000000000000, -1.000000000000000000 ) ) ;
#13 = AXIS2_PLACEMENT_3D ( 'NONE', #221, #337, #361 ) ;
#14 = EDGE_CURVE ( 'NONE', #183, #372, #34, .T. ) ;
#15 = MECHANICAL_DESIGN_GEOMETRIC_PRESENTATION_REPRESENTATION (  '', ( #182 ), #320 ) ;
#16 = ORIENTED_EDGE ( 'NONE', *, *, #14, .T. ) ;
#17 = FACE_OUTER_BOUND ( 'NONE', #47, .T. ) ;
#18 = DIRECTION ( 'NONE',  ( -0.0000000000000000000, -0.0000000000000000000, -1.000000000000000000 ) ) ;
#19 = EDGE_LOOP ( 'NONE', ( #186, #232, #314, #292 ) ) ;
#20 = DIRECTION ( 'NONE',  ( 0.0000000000000000000, 0.0000000000000000000, 1.000000000000000000 ) ) ;
#21 = VERTEX_POINT ( 'NONE', #92 ) ;
#22 = CARTESIAN_POINT ( 'NONE',  ( 0.05708650000000003305, 0.0000000000000000000, 0.3149609999999999910 ) ) ;
#23 = VECTOR ( 'NONE', #65, 39.37007874015748854 ) ;
#24 = DIRECTION ( 'NONE',  ( -1.000000000000000000, 0.0000000000000000000, 0.0000000000000000000 ) ) ;
#25 = CARTESIAN_POINT ( 'NONE',  ( -0.1031100000000002570, 0.0000000000000000000, 2.244094000000000033 ) ) ;
#26 =( NAMED_UNIT ( * ) PLANE_ANGLE_UNIT ( ) SI_UNIT ( $, .RADIAN. ) );
#27 =( LENGTH_UNIT ( ) NAMED_UNIT ( * ) SI_UNIT ( $, .METRE. ) );
#28 = DIRECTION ( 'NONE',  ( -0.0000000000000000000, -0.0000000000000000000, -1.000000000000000000 ) ) ;
#29 = APPLICATION_PROTOCOL_DEFINITION ( 'draft international standard', 'automotive_design', 1998, #373 ) ;
#30 = EDGE_CURVE ( 'NONE', #335, #153, #68, .T. ) ;
#31 = DIRECTION ( 'NONE',  ( 1.000000000000000000, 0.0000000000000000000, 0.0000000000000000000 ) ) ;
#32 = AXIS2_PLACEMENT_3D ( 'NONE', #302, #193, #216 ) ;
#33 = PRESENTATION_LAYER_ASSIGNMENT (  '', '', ( #182 ) ) ;
#34 = LINE ( 'NONE', #119, #139 ) ;
#35 = CARTESIAN_POINT ( 'NONE',  ( 0.0000000000000000000, 0.0000000000000000000, 0.0000000000000000000 ) ) ;
#36 = EDGE_LOOP ( 'NONE', ( #44, #103, #336, #363 ) ) ;
#37 = EDGE_CURVE ( 'NONE', #289, #78, #290, .T. ) ;
#38 = PLANE ( 'NONE',  #296 ) ;
#39 = CIRCLE ( 'NONE', #280, 0.05708650000000003305 ) ;
#40 = DIMENSIONAL_EXPONENTS ( 1.000000000000000000, 0.0000000000000000000, 0.0000000000000000000, 0.0000000000000000000, 0.0000000000000000000, 0.0000000000000000000, 0.0000000000000000000 ) ;
#41 = DIRECTION ( 'NONE',  ( -1.000000000000000000, 0.0000000000000000000, 0.0000000000000000000 ) ) ;
#42 = EDGE_CURVE ( 'NONE', #187, #84, #74, .T. ) ;
#43 = DIRECTION ( 'NONE',  ( -0.0000000000000000000, -0.0000000000000000000, -1.000000000000000000 ) ) ;
#44 = ORIENTED_EDGE ( 'NONE', *, *, #287, .F. ) ;
#45 = CARTESIAN_POINT ( 'NONE',  ( 0.05904909450000001697, 7.231428457197460236E-18, 0.1574800000000000089 ) ) ;
#46 = AXIS2_PLACEMENT_3D ( 'NONE', #251, #28, #377 ) ;
#47 = EDGE_LOOP ( 'NONE', ( #196, #156, #82, #295 ) ) ;
#48 = DIRECTION ( 'NONE',  ( 1.000000000000000000, 0.0000000000000000000, -0.0000000000000000000 ) ) ;
#49 = DIRECTION ( 'NONE',  ( -1.000000000000000000, 0.0000000000000000000, 0.0000000000000000000 ) ) ;
#50 = CARTESIAN_POINT ( 'NONE',  ( 0.05708650000000002611, 6.991079949952541271E-18, 0.0000000000000000000 ) ) ;
#51 = DIRECTION ( 'NONE',  ( -0.0000000000000000000, -0.0000000000000000000, -1.000000000000000000 ) ) ;
#52 = ORIENTED_EDGE ( 'NONE', *, *, #254, .F. ) ;
#53 = DIRECTION ( 'NONE',  ( -0.0000000000000000000, -0.0000000000000000000, -1.000000000000000000 ) ) ;
#54 = LINE ( 'NONE', #190, #324 ) ;
#55 = AXIS2_PLACEMENT_3D ( 'NONE', #107, #43, #316 ) ;
#56 = VECTOR ( 'NONE', #268, 39.37007874015748143 ) ;
#57 = VERTEX_POINT ( 'NONE', #279 ) ;
#58 =( LENGTH_UNIT ( ) NAMED_UNIT ( * ) SI_UNIT ( $, .METRE. ) );
#59 = EDGE_CURVE ( 'NONE', #21, #289, #109, .T. ) ;
#60 = CIRCLE ( 'NONE', #291, 0.1031100000000002570 ) ;
#61 = CARTESIAN_POINT ( 'NONE',  ( 0.0000000000000000000, 0.0000000000000000000, 0.0000000000000000000 ) ) ;
#62 =( NAMED_UNIT ( * ) SI_UNIT ( $, .STERADIAN. ) SOLID_ANGLE_UNIT ( ) );
#63 = UNCERTAINTY_MEASURE_WITH_UNIT (LENGTH_MEASURE( 1.000000000000000082E-05 ), #89, 'distance_accuracy_value', 'NONE');
#64 = AXIS2_PLACEMENT_3D ( 'NONE', #75, #51, #162 ) ;
#65 = DIRECTION ( 'NONE',  ( 0.7071067811865358044, 8.659560562354788645E-17, -0.7071067811865590080 ) ) ;
#66 = AXIS2_PLACEMENT_3D ( 'NONE', #352, #293, #31 ) ;
#67 = EDGE_CURVE ( 'NONE', #372, #187, #54, .T. ) ;
#68 = LINE ( 'NONE', #97, #56 ) ;
#69 = DIRECTION ( 'NONE',  ( -1.000000000000000000, 0.0000000000000000000, 0.0000000000000000000 ) ) ;
#70 = CARTESIAN_POINT ( 'NONE',  ( -0.1181100000000000066, 0.0000000000000000000, 2.244094000000000033 ) ) ;
#71 = DIRECTION ( 'NONE',  ( 0.0000000000000000000, 0.0000000000000000000, -1.000000000000000000 ) ) ;
#72 = LINE ( 'NONE', #70, #265 ) ;
#73 = CIRCLE ( 'NONE', #32, 0.05904909450000001697 ) ;
#74 = CIRCLE ( 'NONE', #212, 0.05904909450000001697 ) ;
#75 = CARTESIAN_POINT ( 'NONE',  ( 0.0000000000000000000, 0.0000000000000000000, 0.0000000000000000000 ) ) ;
#76 = DIRECTION ( 'NONE',  ( 0.0000000000000000000, 0.0000000000000000000, -1.000000000000000000 ) ) ;
#77 = DIRECTION ( 'NONE',  ( -1.000000000000000000, 0.0000000000000000000, 0.0000000000000000000 ) ) ;
#78 = VERTEX_POINT ( 'NONE', #242 ) ;
#79 = DIRECTION ( 'NONE',  ( -0.0000000000000000000, -0.0000000000000000000, -1.000000000000000000 ) ) ;
#80 =( GEOMETRIC_REPRESENTATION_CONTEXT ( 3 ) GLOBAL_UNCERTAINTY_ASSIGNED_CONTEXT ( ( #101 ) ) GLOBAL_UNIT_ASSIGNED_CONTEXT ( ( #192, #161, #301 ) ) REPRESENTATION_CONTEXT ( 'NONE', 'WORKASPACE' ) );
#81 = EDGE_CURVE ( 'NONE', #84, #187, #259, .T. ) ;
#82 = ORIENTED_EDGE ( 'NONE', *, *, #128, .F. ) ;
#83 = CARTESIAN_POINT ( 'NONE',  ( 0.05708650000000003305, 6.991079949952542812E-18, 0.3149609999999999910 ) ) ;
#84 = VERTEX_POINT ( 'NONE', #111 ) ;
#85 = CYLINDRICAL_SURFACE ( 'NONE', #168, 0.05708650000000002611 ) ;
#86 = DIRECTION ( 'NONE',  ( -0.0000000000000000000, 0.0000000000000000000, -1.000000000000000000 ) ) ;
#87 = CARTESIAN_POINT ( 'NONE',  ( -0.05904909450000001697, 0.0000000000000000000, 0.1574800000000000089 ) ) ;
#88 = SURFACE_STYLE_USAGE ( .BOTH. , #199 ) ;
#89 =( CONVERSION_BASED_UNIT ( 'INCH', #374 ) LENGTH_UNIT ( ) NAMED_UNIT ( #40 ) );
#90 = CIRCLE ( 'NONE', #240, 0.1181100000000000066 ) ;
#91 = DIRECTION ( 'NONE',  ( -0.0000000000000000000, -0.0000000000000000000, -1.000000000000000000 ) ) ;
#92 = CARTESIAN_POINT ( 'NONE',  ( -0.1031100000000002570, 0.0000000000000000000, 2.244094000000000033 ) ) ;
#93 = AXIS2_PLACEMENT_3D ( 'NONE', #130, #154, #245 ) ;
#94 = COLOUR_RGB ( '',0.7921568627450980005, 0.8196078431372548767, 0.9333333333333333481 ) ;
#95 = DIRECTION ( 'NONE',  ( -0.0000000000000000000, -0.0000000000000000000, -1.000000000000000000 ) ) ;
#96 = FACE_OUTER_BOUND ( 'NONE', #134, .T. ) ;
#97 = CARTESIAN_POINT ( 'NONE',  ( 0.05904909450000001697, 7.231428457197460236E-18, 0.1574800000000000089 ) ) ;
#98 = DIRECTION ( 'NONE',  ( -1.000000000000000000, 0.0000000000000000000, 0.0000000000000000000 ) ) ;
#99 = ORIENTED_EDGE ( 'NONE', *, *, #325, .F. ) ;
#100 = ADVANCED_FACE ( 'NONE', ( #311, #167 ), #185, .T. ) ;
#101 = UNCERTAINTY_MEASURE_WITH_UNIT (LENGTH_MEASURE( 1.000000000000000082E-05 ), #192, 'distance_accuracy_value', 'NONE');
#102 = FACE_OUTER_BOUND ( 'NONE', #191, .T. ) ;
#103 = ORIENTED_EDGE ( 'NONE', *, *, #358, .T. ) ;
#104 = LINE ( 'NONE', #241, #255 ) ;
#105 = ADVANCED_FACE ( 'NONE', ( #135 ), #250, .T. ) ;
#106 = CARTESIAN_POINT ( 'NONE',  ( -0.1181100000000000066, 0.0000000000000000000, 2.229093999999999465 ) ) ;
#107 = CARTESIAN_POINT ( 'NONE',  ( 0.0000000000000000000, 0.0000000000000000000, 0.1686104265071316777 ) ) ;
#108 = CONICAL_SURFACE ( 'NONE', #260, 0.05904909450000001697, 0.1745329251994332254 ) ;
#109 = LINE ( 'NONE', #25, #116 ) ;
#110 = CARTESIAN_POINT ( 'NONE',  ( 0.0000000000000000000, 0.0000000000000000000, 2.244094000000000033 ) ) ;
#111 = CARTESIAN_POINT ( 'NONE',  ( 0.05904909450000001697, 7.231428457197460236E-18, 0.0000000000000000000 ) ) ;
#112 = ORIENTED_EDGE ( 'NONE', *, *, #117, .F. ) ;
#113 = PRODUCT_DEFINITION_FORMATION_WITH_SPECIFIED_SOURCE ( 'ANY', '', #200, .NOT_KNOWN. ) ;
#114 = EDGE_CURVE ( 'NONE', #372, #153, #73, .T. ) ;
#115 = SHAPE_DEFINITION_REPRESENTATION ( #2, #124 ) ;
#116 = VECTOR ( 'NONE', #217, 39.37007874015748854 ) ;
#117 = EDGE_CURVE ( 'NONE', #153, #84, #138, .T. ) ;
#118 = CYLINDRICAL_SURFACE ( 'NONE', #318, 0.05708650000000002611 ) ;
#119 = CARTESIAN_POINT ( 'NONE',  ( -0.05904909450000001697, 0.0000000000000000000, 0.1574800000000000089 ) ) ;
#120 = CARTESIAN_POINT ( 'NONE',  ( 0.0000000000000000000, 0.0000000000000000000, 0.0000000000000000000 ) ) ;
#121 = CONICAL_SURFACE ( 'NONE', #231, 0.1031100000000002570, 0.7853981633974318477 ) ;
#122 = CARTESIAN_POINT ( 'NONE',  ( 0.0000000000000000000, 0.0000000000000000000, 0.1686104265071316777 ) ) ;
#123 =( GEOMETRIC_REPRESENTATION_CONTEXT ( 3 ) GLOBAL_UNCERTAINTY_ASSIGNED_CONTEXT ( ( #155 ) ) GLOBAL_UNIT_ASSIGNED_CONTEXT ( ( #283, #285, #370 ) ) REPRESENTATION_CONTEXT ( 'NONE', 'WORKASPACE' ) );
#124 = ADVANCED_BREP_SHAPE_REPRESENTATION ( 'Micro_SFBM-030-8', ( #300, #309 ), #123 ) ;
#125 = EDGE_LOOP ( 'NONE', ( #214, #1, #339, #52 ) ) ;
#126 = CIRCLE ( 'NONE', #218, 0.1181100000000000066 ) ;
#127 = CARTESIAN_POINT ( 'NONE',  ( 0.0000000000000000000, 0.0000000000000000000, 0.3149610000000000465 ) ) ;
#128 = EDGE_CURVE ( 'NONE', #183, #335, #213, .T. ) ;
#129 = ORIENTED_EDGE ( 'NONE', *, *, #357, .F. ) ;
#130 = CARTESIAN_POINT ( 'NONE',  ( 0.0000000000000000000, 0.0000000000000000000, 2.244094000000000033 ) ) ;
#131 = EDGE_LOOP ( 'NONE', ( #112, #178, #369, #173 ) ) ;
#132 = PLANE ( 'NONE',  #13 ) ;
#133 = DIRECTION ( 'NONE',  ( 1.000000000000000000, 0.0000000000000000000, 0.0000000000000000000 ) ) ;
#134 = EDGE_LOOP ( 'NONE', ( #10, #359 ) ) ;
#135 = FACE_OUTER_BOUND ( 'NONE', #125, .T. ) ;
#136 = CIRCLE ( 'NONE', #93, 0.1031100000000002570 ) ;
#137 = PRESENTATION_STYLE_ASSIGNMENT (( #163 ) ) ;
#138 = LINE ( 'NONE', #313, #346 ) ;
#139 = VECTOR ( 'NONE', #353, 39.37007874015748143 ) ;
#140 = AXIS2_PLACEMENT_3D ( 'NONE', #122, #234, #356 ) ;
#141 = ORIENTED_EDGE ( 'NONE', *, *, #150, .F. ) ;
#142 = EDGE_CURVE ( 'NONE', #57, #21, #136, .T. ) ;
#143 = FACE_OUTER_BOUND ( 'NONE', #248, .T. ) ;
#144 = VERTEX_POINT ( 'NONE', #341 ) ;
#145 = DIRECTION ( 'NONE',  ( -0.0000000000000000000, -0.0000000000000000000, -1.000000000000000000 ) ) ;
#146 = CARTESIAN_POINT ( 'NONE',  ( 0.0000000000000000000, 0.0000000000000000000, 2.229093999999999465 ) ) ;
#147 = FACE_OUTER_BOUND ( 'NONE', #271, .T. ) ;
#148 = CIRCLE ( 'NONE', #140, 0.05708650000000001917 ) ;
#149 = ADVANCED_FACE ( 'NONE', ( #102 ), #270, .T. ) ;
#150 = EDGE_CURVE ( 'NONE', #333, #152, #90, .T. ) ;
#151 = DIRECTION ( 'NONE',  ( -0.0000000000000000000, -0.0000000000000000000, -1.000000000000000000 ) ) ;
#152 = VERTEX_POINT ( 'NONE', #305 ) ;
#153 = VERTEX_POINT ( 'NONE', #45 ) ;
#154 = DIRECTION ( 'NONE',  ( 0.0000000000000000000, 0.0000000000000000000, 1.000000000000000000 ) ) ;
#155 = UNCERTAINTY_MEASURE_WITH_UNIT (LENGTH_MEASURE( 1.000000000000000082E-05 ), #283, 'distance_accuracy_value', 'NONE');
#156 = ORIENTED_EDGE ( 'NONE', *, *, #287, .T. ) ;
#157 = FACE_OUTER_BOUND ( 'NONE', #198, .T. ) ;
#158 = AXIS2_PLACEMENT_3D ( 'NONE', #22, #86, #362 ) ;
#159 = AXIS2_PLACEMENT_3D ( 'NONE', #274, #160, #222 ) ;
#160 = DIRECTION ( 'NONE',  ( -0.0000000000000000000, -0.0000000000000000000, -1.000000000000000000 ) ) ;
#161 =( NAMED_UNIT ( * ) PLANE_ANGLE_UNIT ( ) SI_UNIT ( $, .RADIAN. ) );
#162 = DIRECTION ( 'NONE',  ( -1.000000000000000000, 0.0000000000000000000, 0.0000000000000000000 ) ) ;
#163 = SURFACE_STYLE_USAGE ( .BOTH. , #340 ) ;
#164 = CARTESIAN_POINT ( 'NONE',  ( -0.05708650000000001917, 0.0000000000000000000, 0.1686104265071316777 ) ) ;
#165 = DIRECTION ( 'NONE',  ( -1.000000000000000000, 0.0000000000000000000, 0.0000000000000000000 ) ) ;
#166 = EDGE_CURVE ( 'NONE', #144, #180, #326, .T. ) ;
#167 = FACE_OUTER_BOUND ( 'NONE', #303, .T. ) ;
#168 = AXIS2_PLACEMENT_3D ( 'NONE', #315, #53, #24 ) ;
#169 = FILL_AREA_STYLE_COLOUR ( '', #94 ) ;
#170 = EDGE_CURVE ( 'NONE', #152, #333, #126, .T. ) ;
#171 = CONICAL_SURFACE ( 'NONE', #350, 0.05904909450000001697, 0.1745329251994332254 ) ;
#172 = EDGE_CURVE ( 'NONE', #21, #57, #60, .T. ) ;
#173 = ORIENTED_EDGE ( 'NONE', *, *, #81, .F. ) ;
#174 = VECTOR ( 'NONE', #368, 39.37007874015748143 ) ;
#175 = CYLINDRICAL_SURFACE ( 'NONE', #188, 0.05904909450000001697 ) ;
#176 = ORIENTED_EDGE ( 'NONE', *, *, #30, .T. ) ;
#177 = DIRECTION ( 'NONE',  ( -0.0000000000000000000, -0.0000000000000000000, -1.000000000000000000 ) ) ;
#178 = ORIENTED_EDGE ( 'NONE', *, *, #325, .T. ) ;
#179 = LINE ( 'NONE', #203, #23 ) ;
#180 = VERTEX_POINT ( 'NONE', #83 ) ;
#181 = DIRECTION ( 'NONE',  ( -1.000000000000000000, 0.0000000000000000000, 0.0000000000000000000 ) ) ;
#182 = STYLED_ITEM ( 'NONE', ( #321 ), #124 ) ;
#183 = VERTEX_POINT ( 'NONE', #164 ) ;
#184 = LINE ( 'NONE', #50, #174 ) ;
#185 = PLANE ( 'NONE',  #158 ) ;
#186 = ORIENTED_EDGE ( 'NONE', *, *, #114, .T. ) ;
#187 = VERTEX_POINT ( 'NONE', #282 ) ;
#188 = AXIS2_PLACEMENT_3D ( 'NONE', #35, #145, #181 ) ;
#189 = CARTESIAN_POINT ( 'NONE',  ( 0.0000000000000000000, 0.0000000000000000000, 0.3149610000000000465 ) ) ;
#190 = CARTESIAN_POINT ( 'NONE',  ( -0.05904909450000001697, 0.0000000000000000000, 0.0000000000000000000 ) ) ;
#191 = EDGE_LOOP ( 'NONE', ( #129, #246, #366, #141 ) ) ;
#192 =( CONVERSION_BASED_UNIT ( 'INCH', #310 ) LENGTH_UNIT ( ) NAMED_UNIT ( #229 ) );
#193 = DIRECTION ( 'NONE',  ( -0.0000000000000000000, -0.0000000000000000000, -1.000000000000000000 ) ) ;
#194 = PRESENTATION_LAYER_ASSIGNMENT (  '', '', ( #205 ) ) ;
#195 = APPLICATION_PROTOCOL_DEFINITION ( 'draft international standard', 'automotive_design', 1998, #209 ) ;
#196 = ORIENTED_EDGE ( 'NONE', *, *, #166, .T. ) ;
#197 = DIRECTION ( 'NONE',  ( 0.0000000000000000000, 0.0000000000000000000, 1.000000000000000000 ) ) ;
#198 = EDGE_LOOP ( 'NONE', ( #299, #348, #9, #266 ) ) ;
#199 = SURFACE_SIDE_STYLE ('',( #347 ) ) ;
#200 = PRODUCT ( 'Micro_SFBM-030-8', 'Micro_SFBM-030-8', '', ( #351 ) ) ;
#201 = AXIS2_PLACEMENT_3D ( 'NONE', #247, #76, #165 ) ;
#202 = ADVANCED_FACE ( 'NONE', ( #147 ), #108, .T. ) ;
#203 = CARTESIAN_POINT ( 'NONE',  ( 0.1031100000000002570, 1.262733314600838667E-17, 2.244094000000000033 ) ) ;
#204 = ORIENTED_EDGE ( 'NONE', *, *, #59, .T. ) ;
#205 = STYLED_ITEM ( 'NONE', ( #137 ), #300 ) ;
#206 = CARTESIAN_POINT ( 'NONE',  ( 0.0000000000000000000, 0.0000000000000000000, 2.244094000000000033 ) ) ;
#207 = PRODUCT_DEFINITION ( 'UNKNOWN', '', #113, #5 ) ;
#208 = ORIENTED_EDGE ( 'NONE', *, *, #166, .F. ) ;
#209 = APPLICATION_CONTEXT ( 'automotive_design' ) ;
#210 = DIRECTION ( 'NONE',  ( -0.0000000000000000000, -0.0000000000000000000, -1.000000000000000000 ) ) ;
#211 = DIRECTION ( 'NONE',  ( -1.000000000000000000, 0.0000000000000000000, 0.0000000000000000000 ) ) ;
#212 = AXIS2_PLACEMENT_3D ( 'NONE', #355, #95, #41 ) ;
#213 = CIRCLE ( 'NONE', #55, 0.05708650000000001917 ) ;
#214 = ORIENTED_EDGE ( 'NONE', *, *, #37, .T. ) ;
#215 = EDGE_CURVE ( 'NONE', #78, #289, #249, .T. ) ;
#216 = DIRECTION ( 'NONE',  ( -1.000000000000000000, 0.0000000000000000000, 0.0000000000000000000 ) ) ;
#217 = DIRECTION ( 'NONE',  ( -0.7071067811865358044, 0.0000000000000000000, -0.7071067811865590080 ) ) ;
#218 = AXIS2_PLACEMENT_3D ( 'NONE', #189, #343, #49 ) ;
#219 = CARTESIAN_POINT ( 'NONE',  ( 0.0000000000000000000, 0.0000000000000000000, 2.244094000000000033 ) ) ;
#220 = ORIENTED_EDGE ( 'NONE', *, *, #170, .T. ) ;
#221 = CARTESIAN_POINT ( 'NONE',  ( 0.0000000000000000000, 0.0000000000000000000, 0.0000000000000000000 ) ) ;
#222 = DIRECTION ( 'NONE',  ( -1.000000000000000000, 0.0000000000000000000, 0.0000000000000000000 ) ) ;
#223 = LINE ( 'NONE', #375, #233 ) ;
#224 = DIRECTION ( 'NONE',  ( -0.0000000000000000000, -0.0000000000000000000, -1.000000000000000000 ) ) ;
#225 = DIRECTION ( 'NONE',  ( -1.000000000000000000, 0.0000000000000000000, 0.0000000000000000000 ) ) ;
#226 = CONICAL_SURFACE ( 'NONE', #201, 0.1031100000000002570, 0.7853981633974318477 ) ;
#227 = ADVANCED_FACE ( 'NONE', ( #143 ), #171, .T. ) ;
#228 = LENGTH_MEASURE_WITH_UNIT ( LENGTH_MEASURE( 0.02539999999999999897 ), #27 );
#229 = DIMENSIONAL_EXPONENTS ( 1.000000000000000000, 0.0000000000000000000, 0.0000000000000000000, 0.0000000000000000000, 0.0000000000000000000, 0.0000000000000000000, 0.0000000000000000000 ) ;
#230 = CARTESIAN_POINT ( 'NONE',  ( 0.05708650000000001917, 7.111254203575000753E-18, 0.1686104265071316777 ) ) ;
#231 = AXIS2_PLACEMENT_3D ( 'NONE', #206, #328, #69 ) ;
#232 = ORIENTED_EDGE ( 'NONE', *, *, #117, .T. ) ;
#233 = VECTOR ( 'NONE', #345, 39.37007874015748143 ) ;
#234 = DIRECTION ( 'NONE',  ( -0.0000000000000000000, -0.0000000000000000000, -1.000000000000000000 ) ) ;
#235 = ORIENTED_EDGE ( 'NONE', *, *, #281, .T. ) ;
#236 = CARTESIAN_POINT ( 'NONE',  ( 0.0000000000000000000, 0.0000000000000000000, 0.0000000000000000000 ) ) ;
#237 = CLOSED_SHELL ( 'NONE', ( #239, #323, #202, #319, #105, #149, #286, #278, #100, #227, #253, #275, #306 ) ) ;
#238 = ORIENTED_EDGE ( 'NONE', *, *, #81, .T. ) ;
#239 = ADVANCED_FACE ( 'NONE', ( #330 ), #263, .T. ) ;
#240 = AXIS2_PLACEMENT_3D ( 'NONE', #127, #364, #77 ) ;
#241 = CARTESIAN_POINT ( 'NONE',  ( -0.05708650000000002611, 0.0000000000000000000, 0.0000000000000000000 ) ) ;
#242 = CARTESIAN_POINT ( 'NONE',  ( 0.1181100000000000066, 1.446430334472939084E-17, 2.229093999999999465 ) ) ;
#243 = ORIENTED_EDGE ( 'NONE', *, *, #267, .F. ) ;
#244 = FILL_AREA_STYLE ('',( #334 ) ) ;
#245 = DIRECTION ( 'NONE',  ( 1.000000000000000000, 0.0000000000000000000, 0.0000000000000000000 ) ) ;
#246 = ORIENTED_EDGE ( 'NONE', *, *, #215, .T. ) ;
#247 = CARTESIAN_POINT ( 'NONE',  ( 0.0000000000000000000, 0.0000000000000000000, 2.244094000000000033 ) ) ;
#248 = EDGE_LOOP ( 'NONE', ( #257, #235, #16, #99 ) ) ;
#249 = CIRCLE ( 'NONE', #66, 0.1181100000000000066 ) ;
#250 = CYLINDRICAL_SURFACE ( 'NONE', #378, 0.1181100000000000066 ) ;
#251 = CARTESIAN_POINT ( 'NONE',  ( 0.0000000000000000000, 0.0000000000000000000, 0.1574800000000000089 ) ) ;
#252 = DIRECTION ( 'NONE',  ( -1.000000000000000000, 0.0000000000000000000, 0.0000000000000000000 ) ) ;
#253 = ADVANCED_FACE ( 'NONE', ( #332 ), #118, .T. ) ;
#254 = EDGE_CURVE ( 'NONE', #289, #152, #72, .T. ) ;
#255 = VECTOR ( 'NONE', #304, 39.37007874015748143 ) ;
#256 = DIRECTION ( 'NONE',  ( 1.000000000000000000, 0.0000000000000000000, 0.0000000000000000000 ) ) ;
#257 = ORIENTED_EDGE ( 'NONE', *, *, #30, .F. ) ;
#258 = ORIENTED_EDGE ( 'NONE', *, *, #150, .T. ) ;
#259 = CIRCLE ( 'NONE', #64, 0.05904909450000001697 ) ;
#260 = AXIS2_PLACEMENT_3D ( 'NONE', #354, #210, #288 ) ;
#261 = FACE_OUTER_BOUND ( 'NONE', #131, .T. ) ;
#262 = ORIENTED_EDGE ( 'NONE', *, *, #172, .F. ) ;
#263 = CYLINDRICAL_SURFACE ( 'NONE', #360, 0.05904909450000001697 ) ;
#264 = EDGE_LOOP ( 'NONE', ( #331, #238 ) ) ;
#265 = VECTOR ( 'NONE', #91, 39.37007874015748143 ) ;
#266 = ORIENTED_EDGE ( 'NONE', *, *, #59, .F. ) ;
#267 = EDGE_CURVE ( 'NONE', #57, #78, #179, .T. ) ;
#268 = DIRECTION ( 'NONE',  ( 0.1736481776669306087, 2.126576849575774688E-17, -0.9848077530122080203 ) ) ;
#269 =( LENGTH_UNIT ( ) NAMED_UNIT ( * ) SI_UNIT ( $, .METRE. ) );
#270 = CYLINDRICAL_SURFACE ( 'NONE', #272, 0.1181100000000000066 ) ;
#271 = EDGE_LOOP ( 'NONE', ( #276, #176, #308, #342 ) ) ;
#272 = AXIS2_PLACEMENT_3D ( 'NONE', #219, #79, #338 ) ;
#273 = SURFACE_STYLE_FILL_AREA ( #244 ) ;
#274 = CARTESIAN_POINT ( 'NONE',  ( 0.0000000000000000000, 0.0000000000000000000, 0.3149609999999999910 ) ) ;
#275 = ADVANCED_FACE ( 'NONE', ( #261 ), #175, .T. ) ;
#276 = ORIENTED_EDGE ( 'NONE', *, *, #128, .T. ) ;
#277 = CARTESIAN_POINT ( 'NONE',  ( 0.0000000000000000000, 0.0000000000000000000, 2.244094000000000033 ) ) ;
#278 = ADVANCED_FACE ( 'NONE', ( #7 ), #121, .T. ) ;
#279 = CARTESIAN_POINT ( 'NONE',  ( 0.1031100000000002570, 1.354581824536888722E-17, 2.244094000000000033 ) ) ;
#280 = AXIS2_PLACEMENT_3D ( 'NONE', #349, #317, #225 ) ;
#281 = EDGE_CURVE ( 'NONE', #335, #183, #148, .T. ) ;
#282 = CARTESIAN_POINT ( 'NONE',  ( -0.05904909450000001697, 0.0000000000000000000, 0.0000000000000000000 ) ) ;
#283 =( CONVERSION_BASED_UNIT ( 'INCH', #228 ) LENGTH_UNIT ( ) NAMED_UNIT ( #329 ) );
#284 = EDGE_LOOP ( 'NONE', ( #208, #8 ) ) ;
#285 =( NAMED_UNIT ( * ) PLANE_ANGLE_UNIT ( ) SI_UNIT ( $, .RADIAN. ) );
#286 = ADVANCED_FACE ( 'NONE', ( #96 ), #38, .T. ) ;
#287 = EDGE_CURVE ( 'NONE', #180, #335, #184, .T. ) ;
#288 = DIRECTION ( 'NONE',  ( -1.000000000000000000, 0.0000000000000000000, 0.0000000000000000000 ) ) ;
#289 = VERTEX_POINT ( 'NONE', #106 ) ;
#290 = CIRCLE ( 'NONE', #297, 0.1181100000000000066 ) ;
#291 = AXIS2_PLACEMENT_3D ( 'NONE', #277, #20, #133 ) ;
#292 = ORIENTED_EDGE ( 'NONE', *, *, #67, .F. ) ;
#293 = DIRECTION ( 'NONE',  ( 0.0000000000000000000, 0.0000000000000000000, -1.000000000000000000 ) ) ;
#294 = DIRECTION ( 'NONE',  ( -1.000000000000000000, 0.0000000000000000000, 0.0000000000000000000 ) ) ;
#295 = ORIENTED_EDGE ( 'NONE', *, *, #298, .F. ) ;
#296 = AXIS2_PLACEMENT_3D ( 'NONE', #110, #312, #48 ) ;
#297 = AXIS2_PLACEMENT_3D ( 'NONE', #146, #71, #4 ) ;
#298 = EDGE_CURVE ( 'NONE', #144, #183, #104, .T. ) ;
#299 = ORIENTED_EDGE ( 'NONE', *, *, #142, .F. ) ;
#300 = MANIFOLD_SOLID_BREP ( 'Cut-Revolve1', #237 ) ;
#301 =( NAMED_UNIT ( * ) SI_UNIT ( $, .STERADIAN. ) SOLID_ANGLE_UNIT ( ) );
#302 = CARTESIAN_POINT ( 'NONE',  ( 0.0000000000000000000, 0.0000000000000000000, 0.1574800000000000089 ) ) ;
#303 = EDGE_LOOP ( 'NONE', ( #220, #258 ) ) ;
#304 = DIRECTION ( 'NONE',  ( -0.0000000000000000000, -0.0000000000000000000, -1.000000000000000000 ) ) ;
#305 = CARTESIAN_POINT ( 'NONE',  ( -0.1181100000000000066, 0.0000000000000000000, 0.3149610000000000465 ) ) ;
#306 = ADVANCED_FACE ( 'NONE', ( #11 ), #132, .F. ) ;
#307 = COLOUR_RGB ( '',0.7921568627450980005, 0.8196078431372548767, 0.9333333333333333481 ) ;
#308 = ORIENTED_EDGE ( 'NONE', *, *, #114, .F. ) ;
#309 = AXIS2_PLACEMENT_3D ( 'NONE', #61, #197, #256 ) ;
#310 = LENGTH_MEASURE_WITH_UNIT ( LENGTH_MEASURE( 0.02539999999999999897 ), #269 );
#311 = FACE_BOUND ( 'NONE', #284, .T. ) ;
#312 = DIRECTION ( 'NONE',  ( 0.0000000000000000000, 0.0000000000000000000, 1.000000000000000000 ) ) ;
#313 = CARTESIAN_POINT ( 'NONE',  ( 0.05904909450000001697, 7.231428457197460236E-18, 0.0000000000000000000 ) ) ;
#314 = ORIENTED_EDGE ( 'NONE', *, *, #42, .F. ) ;
#315 = CARTESIAN_POINT ( 'NONE',  ( 0.0000000000000000000, 0.0000000000000000000, 0.0000000000000000000 ) ) ;
#316 = DIRECTION ( 'NONE',  ( -1.000000000000000000, 0.0000000000000000000, 0.0000000000000000000 ) ) ;
#317 = DIRECTION ( 'NONE',  ( -0.0000000000000000000, -0.0000000000000000000, -1.000000000000000000 ) ) ;
#318 = AXIS2_PLACEMENT_3D ( 'NONE', #120, #3, #294 ) ;
#319 = ADVANCED_FACE ( 'NONE', ( #157 ), #226, .T. ) ;
#320 =( GEOMETRIC_REPRESENTATION_CONTEXT ( 3 ) GLOBAL_UNCERTAINTY_ASSIGNED_CONTEXT ( ( #63 ) ) GLOBAL_UNIT_ASSIGNED_CONTEXT ( ( #89, #26, #62 ) ) REPRESENTATION_CONTEXT ( 'NONE', 'WORKASPACE' ) );
#321 = PRESENTATION_STYLE_ASSIGNMENT (( #88 ) ) ;
#322 = FILL_AREA_STYLE ('',( #169 ) ) ;
#323 = ADVANCED_FACE ( 'NONE', ( #17 ), #85, .T. ) ;
#324 = VECTOR ( 'NONE', #224, 39.37007874015748143 ) ;
#325 = EDGE_CURVE ( 'NONE', #153, #372, #371, .T. ) ;
#326 = CIRCLE ( 'NONE', #159, 0.05708650000000003305 ) ;
#327 = ORIENTED_EDGE ( 'NONE', *, *, #215, .F. ) ;
#328 = DIRECTION ( 'NONE',  ( 0.0000000000000000000, 0.0000000000000000000, -1.000000000000000000 ) ) ;
#329 = DIMENSIONAL_EXPONENTS ( 1.000000000000000000, 0.0000000000000000000, 0.0000000000000000000, 0.0000000000000000000, 0.0000000000000000000, 0.0000000000000000000, 0.0000000000000000000 ) ;
#330 = FACE_OUTER_BOUND ( 'NONE', #19, .T. ) ;
#331 = ORIENTED_EDGE ( 'NONE', *, *, #42, .T. ) ;
#332 = FACE_OUTER_BOUND ( 'NONE', #36, .T. ) ;
#333 = VERTEX_POINT ( 'NONE', #376 ) ;
#334 = FILL_AREA_STYLE_COLOUR ( '', #307 ) ;
#335 = VERTEX_POINT ( 'NONE', #230 ) ;
#336 = ORIENTED_EDGE ( 'NONE', *, *, #298, .T. ) ;
#337 = DIRECTION ( 'NONE',  ( 0.0000000000000000000, 0.0000000000000000000, 1.000000000000000000 ) ) ;
#338 = DIRECTION ( 'NONE',  ( -1.000000000000000000, 0.0000000000000000000, 0.0000000000000000000 ) ) ;
#339 = ORIENTED_EDGE ( 'NONE', *, *, #170, .F. ) ;
#340 = SURFACE_SIDE_STYLE ('',( #273 ) ) ;
#341 = CARTESIAN_POINT ( 'NONE',  ( -0.05708650000000003305, 0.0000000000000000000, 0.3149609999999999910 ) ) ;
#342 = ORIENTED_EDGE ( 'NONE', *, *, #14, .F. ) ;
#343 = DIRECTION ( 'NONE',  ( -0.0000000000000000000, -0.0000000000000000000, -1.000000000000000000 ) ) ;
#344 = EDGE_LOOP ( 'NONE', ( #243, #262, #204, #327 ) ) ;
#345 = DIRECTION ( 'NONE',  ( -0.0000000000000000000, -0.0000000000000000000, -1.000000000000000000 ) ) ;
#346 = VECTOR ( 'NONE', #18, 39.37007874015748143 ) ;
#347 = SURFACE_STYLE_FILL_AREA ( #322 ) ;
#348 = ORIENTED_EDGE ( 'NONE', *, *, #267, .T. ) ;
#349 = CARTESIAN_POINT ( 'NONE',  ( 0.0000000000000000000, 0.0000000000000000000, 0.3149609999999999910 ) ) ;
#350 = AXIS2_PLACEMENT_3D ( 'NONE', #379, #177, #98 ) ;
#351 = PRODUCT_CONTEXT ( 'NONE', #209, 'mechanical' ) ;
#352 = CARTESIAN_POINT ( 'NONE',  ( 0.0000000000000000000, 0.0000000000000000000, 2.229093999999999465 ) ) ;
#353 = DIRECTION ( 'NONE',  ( -0.1736481776669306087, 0.0000000000000000000, -0.9848077530122080203 ) ) ;
#354 = CARTESIAN_POINT ( 'NONE',  ( 0.0000000000000000000, 0.0000000000000000000, 0.1574800000000000089 ) ) ;
#355 = CARTESIAN_POINT ( 'NONE',  ( 0.0000000000000000000, 0.0000000000000000000, 0.0000000000000000000 ) ) ;
#356 = DIRECTION ( 'NONE',  ( -1.000000000000000000, 0.0000000000000000000, 0.0000000000000000000 ) ) ;
#357 = EDGE_CURVE ( 'NONE', #78, #333, #223, .T. ) ;
#358 = EDGE_CURVE ( 'NONE', #180, #144, #39, .T. ) ;
#359 = ORIENTED_EDGE ( 'NONE', *, *, #142, .T. ) ;
#360 = AXIS2_PLACEMENT_3D ( 'NONE', #236, #151, #211 ) ;
#361 = DIRECTION ( 'NONE',  ( 1.000000000000000000, 0.0000000000000000000, -0.0000000000000000000 ) ) ;
#362 = DIRECTION ( 'NONE',  ( -1.000000000000000000, 0.0000000000000000000, 0.0000000000000000000 ) ) ;
#363 = ORIENTED_EDGE ( 'NONE', *, *, #281, .F. ) ;
#364 = DIRECTION ( 'NONE',  ( -0.0000000000000000000, -0.0000000000000000000, -1.000000000000000000 ) ) ;
#365 = MECHANICAL_DESIGN_GEOMETRIC_PRESENTATION_REPRESENTATION (  '', ( #205 ), #80 ) ;
#366 = ORIENTED_EDGE ( 'NONE', *, *, #254, .T. ) ;
#367 = CARTESIAN_POINT ( 'NONE',  ( 0.0000000000000000000, 0.0000000000000000000, 2.244094000000000033 ) ) ;
#368 = DIRECTION ( 'NONE',  ( -0.0000000000000000000, -0.0000000000000000000, -1.000000000000000000 ) ) ;
#369 = ORIENTED_EDGE ( 'NONE', *, *, #67, .T. ) ;
#370 =( NAMED_UNIT ( * ) SI_UNIT ( $, .STERADIAN. ) SOLID_ANGLE_UNIT ( ) );
#371 = CIRCLE ( 'NONE', #46, 0.05904909450000001697 ) ;
#372 = VERTEX_POINT ( 'NONE', #87 ) ;
#373 = APPLICATION_CONTEXT ( 'automotive_design' ) ;
#374 = LENGTH_MEASURE_WITH_UNIT ( LENGTH_MEASURE( 0.02539999999999999897 ), #58 );
#375 = CARTESIAN_POINT ( 'NONE',  ( 0.1181100000000000066, 1.446430334472939084E-17, 2.244094000000000033 ) ) ;
#376 = CARTESIAN_POINT ( 'NONE',  ( 0.1181100000000000066, 1.446430334472939084E-17, 0.3149610000000000465 ) ) ;
#377 = DIRECTION ( 'NONE',  ( -1.000000000000000000, 0.0000000000000000000, 0.0000000000000000000 ) ) ;
#378 = AXIS2_PLACEMENT_3D ( 'NONE', #367, #12, #252 ) ;
#379 = CARTESIAN_POINT ( 'NONE',  ( 0.0000000000000000000, 0.0000000000000000000, 0.1574800000000000089 ) ) ;
ENDSEC;
END-ISO-10303-21;
