ISO-10303-21;
HEADER;
FILE_DESCRIPTION (( 'STEP AP214' ),
    '1' );
FILE_NAME ('84604.STEP',
    '2023-07-12T13:10:40',
    ( '' ),
    ( '' ),
    'SwSTEP 2.0',
    'SolidWorks 2023',
    '' );
FILE_SCHEMA (( 'AUTOMOTIVE_DESIGN' ));
ENDSEC;

DATA;
#1 =( NAMED_UNIT ( * ) PLANE_ANGLE_UNIT ( ) SI_UNIT ( $, .RADIAN. ) );
#2 = ORIENTED_EDGE ( 'NONE', *, *, #184, .F. ) ;
#3 = COLOUR_RGB ( '',0.7921568627450980005, 0.8196078431372548767, 0.9333333333333333481 ) ;
#4 = PRESENTATION_STYLE_ASSIGNMENT (( #297 ) ) ;
#5 = PRESENTATION_STYLE_ASSIGNMENT (( #103 ) ) ;
#6 = VERTEX_POINT ( 'NONE', #180 ) ;
#7 = CARTESIAN_POINT ( 'NONE',  ( 0.1874999999999999722, 0.1754311821012034256, 2.296212748401286801E-17 ) ) ;
#8 = ADVANCED_FACE ( 'NONE', ( #79 ), #152, .T. ) ;
#9 = DIRECTION ( 'NONE',  ( 1.000000000000000000, 1.468600448673977089E-16, 0.000000000000000000 ) ) ;
#10 = SURFACE_SIDE_STYLE ('',( #236 ) ) ;
#11 =( NAMED_UNIT ( * ) SI_UNIT ( $, .STERADIAN. ) SOLID_ANGLE_UNIT ( ) );
#12 = EDGE_CURVE ( 'NONE', #6, #224, #77, .T. ) ;
#13 = DIRECTION ( 'NONE',  ( -1.000000000000000000, -1.350672323656716223E-33, 0.000000000000000000 ) ) ;
#14 = DIRECTION ( 'NONE',  ( -1.468600448673977089E-16, 1.000000000000000000, -0.000000000000000000 ) ) ;
#15 = CIRCLE ( 'NONE', #128, 0.1874999999999999722 ) ;
#16 = COLOUR_RGB ( '',1.000000000000000000, 0.000000000000000000, 0.000000000000000000 ) ;
#17 = VECTOR ( 'NONE', #119, 39.37007874015748854 ) ;
#18 = ADVANCED_FACE ( 'NONE', ( #183 ), #270, .T. ) ;
#19 = DIMENSIONAL_EXPONENTS ( 1.000000000000000000, 0.000000000000000000, 0.000000000000000000, 0.000000000000000000, 0.000000000000000000, 0.000000000000000000, 0.000000000000000000 ) ;
#20 = CARTESIAN_POINT ( 'NONE',  ( -2.369500423704768587E-34, 0.1754311821012033423, 0.000000000000000000 ) ) ;
#21 = ORIENTED_EDGE ( 'NONE', *, *, #290, .T. ) ;
#22 = ADVANCED_FACE ( 'NONE', ( #228 ), #134, .T. ) ;
#23 = MECHANICAL_DESIGN_GEOMETRIC_PRESENTATION_REPRESENTATION (  '', ( #304 ), #237 ) ;
#24 = ORIENTED_EDGE ( 'NONE', *, *, #66, .F. ) ;
#25 = SURFACE_STYLE_USAGE ( .BOTH. , #129 ) ;
#26 = SURFACE_STYLE_USAGE ( .BOTH. , #162 ) ;
#27 = EDGE_CURVE ( 'NONE', #220, #41, #246, .T. ) ;
#28 =( NAMED_UNIT ( * ) PLANE_ANGLE_UNIT ( ) SI_UNIT ( $, .RADIAN. ) );
#29 = PLANE ( 'NONE',  #269 ) ;
#30 = STYLED_ITEM ( 'NONE', ( #195 ), #42 ) ;
#31 = MANIFOLD_SOLID_BREP ( 'Revolve - Cutting Edge', #192 ) ;
#32 = CARTESIAN_POINT ( 'NONE',  ( 0.1874999999999998057, 2.500000000000000000, 2.296212748401285877E-17 ) ) ;
#33 = CARTESIAN_POINT ( 'NONE',  ( 6.385105040622816835E-68, -4.727353132798507060E-35, 0.000000000000000000 ) ) ;
#34 = LENGTH_MEASURE_WITH_UNIT ( LENGTH_MEASURE( 0.02539999999999999897 ), #83 );
#35 = CIRCLE ( 'NONE', #250, 0.03500000000000000333 ) ;
#36 = DIRECTION ( 'NONE',  ( 1.000000000000000000, 0.000000000000000000, 0.000000000000000000 ) ) ;
#37 = CARTESIAN_POINT ( 'NONE',  ( -6.123233995736764803E-17, 2.500000000000000000, 0.000000000000000000 ) ) ;
#38 = AXIS2_PLACEMENT_3D ( 'NONE', #275, #75, #151 ) ;
#39 = UNCERTAINTY_MEASURE_WITH_UNIT (LENGTH_MEASURE( 1.000000000000000082E-05 ), #50, 'distance_accuracy_value', 'NONE');
#40 =( NAMED_UNIT ( * ) SI_UNIT ( $, .STERADIAN. ) SOLID_ANGLE_UNIT ( ) );
#41 = VERTEX_POINT ( 'NONE', #7 ) ;
#42 = ADVANCED_FACE ( 'NONE', ( #240 ), #105, .T. ) ;
#43 = PRESENTATION_LAYER_ASSIGNMENT (  '', '', ( #261 ) ) ;
#44 = EDGE_LOOP ( 'NONE', ( #2, #137, #52, #47 ) ) ;
#45 = COLOUR_RGB ( '',0.7921568627450980005, 0.8196078431372548767, 0.9333333333333333481 ) ;
#46 = PRODUCT ( '84604', '84604', '', ( #99 ) ) ;
#47 = ORIENTED_EDGE ( 'NONE', *, *, #107, .F. ) ;
#48 =( LENGTH_UNIT ( ) NAMED_UNIT ( * ) SI_UNIT ( $, .METRE. ) );
#49 = DIRECTION ( 'NONE',  ( 1.350672323656716223E-33, -1.000000000000000000, -0.000000000000000000 ) ) ;
#50 =( CONVERSION_BASED_UNIT ( 'INCH', #296 ) LENGTH_UNIT ( ) NAMED_UNIT ( #176 ) );
#51 = VECTOR ( 'NONE', #59, 39.37007874015748143 ) ;
#52 = ORIENTED_EDGE ( 'NONE', *, *, #71, .T. ) ;
#53 = FILL_AREA_STYLE_COLOUR ( '', #45 ) ;
#54 =( NAMED_UNIT ( * ) SI_UNIT ( $, .STERADIAN. ) SOLID_ANGLE_UNIT ( ) );
#55 = CARTESIAN_POINT ( 'NONE',  ( 2.801539409366032200E-16, 0.1754311821012033423, 0.000000000000000000 ) ) ;
#56 =( CONVERSION_BASED_UNIT ( 'INCH', #188 ) LENGTH_UNIT ( ) NAMED_UNIT ( #227 ) );
#57 = DIRECTION ( 'NONE',  ( -1.000000000000000000, -1.468600448673977089E-16, 0.000000000000000000 ) ) ;
#58 = ORIENTED_EDGE ( 'NONE', *, *, #84, .F. ) ;
#59 = DIRECTION ( 'NONE',  ( -1.468600448673977089E-16, 1.000000000000000000, -0.000000000000000000 ) ) ;
#60 = LENGTH_MEASURE_WITH_UNIT ( LENGTH_MEASURE( 0.02539999999999999897 ), #87 );
#61 = FACE_OUTER_BOUND ( 'NONE', #170, .T. ) ;
#62 = FILL_AREA_STYLE ('',( #85 ) ) ;
#63 =( GEOMETRIC_REPRESENTATION_CONTEXT ( 3 ) GLOBAL_UNCERTAINTY_ASSIGNED_CONTEXT ( ( #308 ) ) GLOBAL_UNIT_ASSIGNED_CONTEXT ( ( #111, #299, #259 ) ) REPRESENTATION_CONTEXT ( 'NONE', 'WORKASPACE' ) );
#64 = PRODUCT_DEFINITION_CONTEXT ( 'detailed design', #80, 'design' ) ;
#65 = PRESENTATION_LAYER_ASSIGNMENT (  '', '', ( #30 ) ) ;
#66 = EDGE_CURVE ( 'NONE', #41, #220, #243, .T. ) ;
#67 = APPLICATION_CONTEXT ( 'automotive_design' ) ;
#68 = APPLICATION_PROTOCOL_DEFINITION ( 'draft international standard', 'automotive_design', 1998, #80 ) ;
#69 = EDGE_LOOP ( 'NONE', ( #148, #76, #21, #199 ) ) ;
#70 = AXIS2_PLACEMENT_3D ( 'NONE', #231, #253, #190 ) ;
#71 = EDGE_CURVE ( 'NONE', #220, #6, #280, .T. ) ;
#72 = VERTEX_POINT ( 'NONE', #118 ) ;
#73 = SHAPE_DEFINITION_REPRESENTATION ( #245, #126 ) ;
#74 = AXIS2_PLACEMENT_3D ( 'NONE', #33, #86, #13 ) ;
#75 = DIRECTION ( 'NONE',  ( -1.468600448673977089E-16, 1.000000000000000000, -0.000000000000000000 ) ) ;
#76 = ORIENTED_EDGE ( 'NONE', *, *, #84, .T. ) ;
#77 = CIRCLE ( 'NONE', #179, 0.1875000000000000555 ) ;
#78 = SURFACE_STYLE_FILL_AREA ( #177 ) ;
#79 = FACE_OUTER_BOUND ( 'NONE', #44, .T. ) ;
#80 = APPLICATION_CONTEXT ( 'automotive_design' ) ;
#81 = ORIENTED_EDGE ( 'NONE', *, *, #71, .F. ) ;
#82 = AXIS2_PLACEMENT_3D ( 'NONE', #37, #145, #307 ) ;
#83 =( LENGTH_UNIT ( ) NAMED_UNIT ( * ) SI_UNIT ( $, .METRE. ) );
#84 = EDGE_CURVE ( 'NONE', #72, #108, #216, .T. ) ;
#85 = FILL_AREA_STYLE_COLOUR ( '', #16 ) ;
#86 = DIRECTION ( 'NONE',  ( -1.350672323656716223E-33, 1.000000000000000000, 0.000000000000000000 ) ) ;
#87 =( LENGTH_UNIT ( ) NAMED_UNIT ( * ) SI_UNIT ( $, .METRE. ) );
#88 = DIRECTION ( 'NONE',  ( 1.350672323656716223E-33, -1.000000000000000000, -0.000000000000000000 ) ) ;
#89 =( GEOMETRIC_REPRESENTATION_CONTEXT ( 3 ) GLOBAL_UNCERTAINTY_ASSIGNED_CONTEXT ( ( #39 ) ) GLOBAL_UNIT_ASSIGNED_CONTEXT ( ( #50, #153, #283 ) ) REPRESENTATION_CONTEXT ( 'NONE', 'WORKASPACE' ) );
#90 = CARTESIAN_POINT ( 'NONE',  ( -0.1874999999999999722, 0.1754311821012033423, 0.000000000000000000 ) ) ;
#91 = ADVANCED_FACE ( 'NONE', ( #300 ), #210, .T. ) ;
#92 = CARTESIAN_POINT ( 'NONE',  ( 0.1874999999999999722, 2.500000000000000000, 2.296212748401286801E-17 ) ) ;
#93 = SURFACE_SIDE_STYLE ('',( #168 ) ) ;
#94 = PRODUCT_RELATED_PRODUCT_CATEGORY ( 'part', '', ( #46 ) ) ;
#95 = PLANE ( 'NONE',  #198 ) ;
#96 = PRESENTATION_LAYER_ASSIGNMENT (  '', '', ( #173 ) ) ;
#97 = SURFACE_STYLE_FILL_AREA ( #155 ) ;
#98 = MECHANICAL_DESIGN_GEOMETRIC_PRESENTATION_REPRESENTATION (  '', ( #30 ), #138 ) ;
#99 = PRODUCT_CONTEXT ( 'NONE', #67, 'mechanical' ) ;
#100 = CARTESIAN_POINT ( 'NONE',  ( 0.1874999999999999722, 0.1754311821012033423, 2.296212748401287109E-17 ) ) ;
#101 = ORIENTED_EDGE ( 'NONE', *, *, #184, .T. ) ;
#102 = AXIS2_PLACEMENT_3D ( 'NONE', #197, #196, #36 ) ;
#103 = SURFACE_STYLE_USAGE ( .BOTH. , #273 ) ;
#104 = DIMENSIONAL_EXPONENTS ( 1.000000000000000000, 0.000000000000000000, 0.000000000000000000, 0.000000000000000000, 0.000000000000000000, 0.000000000000000000, 0.000000000000000000 ) ;
#105 = CONICAL_SURFACE ( 'NONE', #70, 0.03500000000000000333, 0.7155849933176767763 ) ;
#106 =( LENGTH_UNIT ( ) NAMED_UNIT ( * ) SI_UNIT ( $, .METRE. ) );
#107 = EDGE_CURVE ( 'NONE', #224, #6, #234, .T. ) ;
#108 = VERTEX_POINT ( 'NONE', #100 ) ;
#109 = AXIS2_PLACEMENT_3D ( 'NONE', #214, #256, #235 ) ;
#110 = DIRECTION ( 'NONE',  ( 0.6560590289905084971, 0.7547095802227710148, 8.034405899049468590E-17 ) ) ;
#111 =( CONVERSION_BASED_UNIT ( 'INCH', #117 ) LENGTH_UNIT ( ) NAMED_UNIT ( #19 ) );
#112 = CARTESIAN_POINT ( 'NONE',  ( -2.369500423704768587E-34, 0.1754311821012033423, 0.000000000000000000 ) ) ;
#113 =( CONVERSION_BASED_UNIT ( 'INCH', #60 ) LENGTH_UNIT ( ) NAMED_UNIT ( #252 ) );
#114 = ORIENTED_EDGE ( 'NONE', *, *, #12, .F. ) ;
#115 = UNCERTAINTY_MEASURE_WITH_UNIT (LENGTH_MEASURE( 1.000000000000000082E-05 ), #200, 'distance_accuracy_value', 'NONE');
#116 = PRESENTATION_LAYER_ASSIGNMENT (  '', '', ( #242 ) ) ;
#117 = LENGTH_MEASURE_WITH_UNIT ( LENGTH_MEASURE( 0.02539999999999999897 ), #301 );
#118 = CARTESIAN_POINT ( 'NONE',  ( 0.03500000000000000333, 0.000000000000000000, 1.362419564051430200E-17 ) ) ;
#119 = DIRECTION ( 'NONE',  ( -0.6560590289905084971, 0.7547095802227710148, 0.000000000000000000 ) ) ;
#120 =( NAMED_UNIT ( * ) SI_UNIT ( $, .STERADIAN. ) SOLID_ANGLE_UNIT ( ) );
#121 = MECHANICAL_DESIGN_GEOMETRIC_PRESENTATION_REPRESENTATION (  '', ( #173 ), #63 ) ;
#122 = CLOSED_SHELL ( 'NONE', ( #22, #271, #8, #288 ) ) ;
#123 = UNCERTAINTY_MEASURE_WITH_UNIT (LENGTH_MEASURE( 1.000000000000000082E-05 ), #241, 'distance_accuracy_value', 'NONE');
#124 = DIRECTION ( 'NONE',  ( -1.468600448673977089E-16, 1.000000000000000000, -0.000000000000000000 ) ) ;
#125 = ORIENTED_EDGE ( 'NONE', *, *, #12, .T. ) ;
#126 = ADVANCED_BREP_SHAPE_REPRESENTATION ( '84604', ( #31, #143, #102 ), #286 ) ;
#127 = ORIENTED_EDGE ( 'NONE', *, *, #232, .T. ) ;
#128 = AXIS2_PLACEMENT_3D ( 'NONE', #217, #88, #303 ) ;
#129 = SURFACE_SIDE_STYLE ('',( #97 ) ) ;
#130 = MECHANICAL_DESIGN_GEOMETRIC_PRESENTATION_REPRESENTATION (  '', ( #146 ), #293 ) ;
#131 = DIRECTION ( 'NONE',  ( 1.000000000000000000, 1.350672323656716223E-33, 0.000000000000000000 ) ) ;
#132 = DIRECTION ( 'NONE',  ( -1.350672323656716052E-33, 1.000000000000000000, 0.000000000000000000 ) ) ;
#133 = ORIENTED_EDGE ( 'NONE', *, *, #165, .T. ) ;
#134 = CYLINDRICAL_SURFACE ( 'NONE', #169, 0.1874999999999998890 ) ;
#135 = CIRCLE ( 'NONE', #276, 0.1874999999999999722 ) ;
#136 = CARTESIAN_POINT ( 'NONE',  ( 0.03500000000000000333, 0.000000000000000000, 4.286263797015735979E-18 ) ) ;
#137 = ORIENTED_EDGE ( 'NONE', *, *, #66, .T. ) ;
#138 =( GEOMETRIC_REPRESENTATION_CONTEXT ( 3 ) GLOBAL_UNCERTAINTY_ASSIGNED_CONTEXT ( ( #150 ) ) GLOBAL_UNIT_ASSIGNED_CONTEXT ( ( #113, #212, #54 ) ) REPRESENTATION_CONTEXT ( 'NONE', 'WORKASPACE' ) );
#139 = CARTESIAN_POINT ( 'NONE',  ( 0.1874999999999999722, 2.500000000000000000, 0.000000000000000000 ) ) ;
#140 = VECTOR ( 'NONE', #14, 39.37007874015748143 ) ;
#141 = EDGE_CURVE ( 'NONE', #230, #72, #35, .T. ) ;
#142 = FILL_AREA_STYLE ('',( #262 ) ) ;
#143 = MANIFOLD_SOLID_BREP ( 'Revolve - Tool Body (Tipped Off)', #122 ) ;
#144 = SURFACE_STYLE_USAGE ( .BOTH. , #10 ) ;
#145 = DIRECTION ( 'NONE',  ( -1.468600448673977089E-16, 1.000000000000000000, -0.000000000000000000 ) ) ;
#146 = STYLED_ITEM ( 'NONE', ( #4 ), #18 ) ;
#147 = EDGE_CURVE ( 'NONE', #72, #230, #209, .T. ) ;
#148 = ORIENTED_EDGE ( 'NONE', *, *, #147, .F. ) ;
#149 = EDGE_LOOP ( 'NONE', ( #265, #182 ) ) ;
#150 = UNCERTAINTY_MEASURE_WITH_UNIT (LENGTH_MEASURE( 1.000000000000000082E-05 ), #113, 'distance_accuracy_value', 'NONE');
#151 = DIRECTION ( 'NONE',  ( -1.000000000000000000, -1.821231995776178437E-16, 0.000000000000000000 ) ) ;
#152 = CYLINDRICAL_SURFACE ( 'NONE', #174, 0.1874999999999998890 ) ;
#153 =( NAMED_UNIT ( * ) PLANE_ANGLE_UNIT ( ) SI_UNIT ( $, .RADIAN. ) );
#154 = FILL_AREA_STYLE ('',( #185 ) ) ;
#155 = FILL_AREA_STYLE ('',( #258 ) ) ;
#156 = LINE ( 'NONE', #32, #51 ) ;
#157 = COLOUR_RGB ( '',1.000000000000000000, 0.000000000000000000, 0.000000000000000000 ) ;
#158 = FACE_OUTER_BOUND ( 'NONE', #268, .T. ) ;
#159 = PRODUCT_DEFINITION ( 'UNKNOWN', '', #309, #64 ) ;
#160 = PRESENTATION_STYLE_ASSIGNMENT (( #144 ) ) ;
#161 = PRESENTATION_LAYER_ASSIGNMENT (  '', '', ( #304 ) ) ;
#162 = SURFACE_SIDE_STYLE ('',( #166 ) ) ;
#163 = PRESENTATION_STYLE_ASSIGNMENT (( #26 ) ) ;
#164 = CARTESIAN_POINT ( 'NONE',  ( 2.801539409366032693E-16, 0.1754311821012033978, 0.000000000000000000 ) ) ;
#165 = EDGE_CURVE ( 'NONE', #175, #108, #15, .T. ) ;
#166 = SURFACE_STYLE_FILL_AREA ( #142 ) ;
#167 = VECTOR ( 'NONE', #110, 39.37007874015748854 ) ;
#168 = SURFACE_STYLE_FILL_AREA ( #62 ) ;
#169 = AXIS2_PLACEMENT_3D ( 'NONE', #202, #181, #294 ) ;
#170 = EDGE_LOOP ( 'NONE', ( #248, #24 ) ) ;
#171 = APPLICATION_PROTOCOL_DEFINITION ( 'draft international standard', 'automotive_design', 1998, #67 ) ;
#172 = DIRECTION ( 'NONE',  ( 1.350672323656716052E-33, -1.000000000000000000, -0.000000000000000000 ) ) ;
#173 = STYLED_ITEM ( 'NONE', ( #163 ), #201 ) ;
#174 = AXIS2_PLACEMENT_3D ( 'NONE', #274, #249, #208 ) ;
#175 = VERTEX_POINT ( 'NONE', #90 ) ;
#176 = DIMENSIONAL_EXPONENTS ( 1.000000000000000000, 0.000000000000000000, 0.000000000000000000, 0.000000000000000000, 0.000000000000000000, 0.000000000000000000, 0.000000000000000000 ) ;
#177 = FILL_AREA_STYLE ('',( #53 ) ) ;
#178 = LENGTH_MEASURE_WITH_UNIT ( LENGTH_MEASURE( 0.02539999999999999897 ), #48 );
#179 = AXIS2_PLACEMENT_3D ( 'NONE', #277, #124, #203 ) ;
#180 = CARTESIAN_POINT ( 'NONE',  ( -0.1875000000000001110, 2.500000000000000000, 0.000000000000000000 ) ) ;
#181 = DIRECTION ( 'NONE',  ( -1.468600448673977089E-16, 1.000000000000000000, -0.000000000000000000 ) ) ;
#182 = ORIENTED_EDGE ( 'NONE', *, *, #290, .F. ) ;
#183 = FACE_OUTER_BOUND ( 'NONE', #149, .T. ) ;
#184 = EDGE_CURVE ( 'NONE', #41, #224, #156, .T. ) ;
#185 = FILL_AREA_STYLE_COLOUR ( '', #255 ) ;
#186 = DIRECTION ( 'NONE',  ( -1.468600448673977089E-16, 1.000000000000000000, -0.000000000000000000 ) ) ;
#187 = CARTESIAN_POINT ( 'NONE',  ( -0.03500000000000000333, -9.454706265597014120E-35, 0.000000000000000000 ) ) ;
#188 = LENGTH_MEASURE_WITH_UNIT ( LENGTH_MEASURE( 0.02539999999999999897 ), #257 );
#189 = DIRECTION ( 'NONE',  ( 1.000000000000000000, 0.000000000000000000, 0.000000000000000000 ) ) ;
#190 = DIRECTION ( 'NONE',  ( -1.000000000000000000, -1.350672323656716223E-33, 0.000000000000000000 ) ) ;
#191 = EDGE_LOOP ( 'NONE', ( #247, #101, #114, #81 ) ) ;
#192 = CLOSED_SHELL ( 'NONE', ( #201, #18, #42, #91 ) ) ;
#193 = CARTESIAN_POINT ( 'NONE',  ( -0.03500000000000000333, -9.454706265597014120E-35, 0.000000000000000000 ) ) ;
#194 = LINE ( 'NONE', #187, #17 ) ;
#195 = PRESENTATION_STYLE_ASSIGNMENT (( #263 ) ) ;
#196 = DIRECTION ( 'NONE',  ( 0.000000000000000000, 0.000000000000000000, 1.000000000000000000 ) ) ;
#197 = CARTESIAN_POINT ( 'NONE',  ( 0.000000000000000000, 0.000000000000000000, 0.000000000000000000 ) ) ;
#198 = AXIS2_PLACEMENT_3D ( 'NONE', #55, #239, #57 ) ;
#199 = ORIENTED_EDGE ( 'NONE', *, *, #232, .F. ) ;
#200 =( CONVERSION_BASED_UNIT ( 'INCH', #221 ) LENGTH_UNIT ( ) NAMED_UNIT ( #222 ) );
#201 = ADVANCED_FACE ( 'NONE', ( #284 ), #213, .T. ) ;
#202 = CARTESIAN_POINT ( 'NONE',  ( -6.123233995736766036E-17, 2.500000000000000000, 0.000000000000000000 ) ) ;
#203 = DIRECTION ( 'NONE',  ( -1.000000000000000000, 0.000000000000000000, 0.000000000000000000 ) ) ;
#204 = EDGE_LOOP ( 'NONE', ( #58, #289, #127, #133 ) ) ;
#205 =( NAMED_UNIT ( * ) PLANE_ANGLE_UNIT ( ) SI_UNIT ( $, .RADIAN. ) );
#206 = DIMENSIONAL_EXPONENTS ( 1.000000000000000000, 0.000000000000000000, 0.000000000000000000, 0.000000000000000000, 0.000000000000000000, 0.000000000000000000, 0.000000000000000000 ) ;
#207 = UNCERTAINTY_MEASURE_WITH_UNIT (LENGTH_MEASURE( 1.000000000000000082E-05 ), #233, 'distance_accuracy_value', 'NONE');
#208 = DIRECTION ( 'NONE',  ( -1.000000000000000000, 0.000000000000000000, 0.000000000000000000 ) ) ;
#209 = CIRCLE ( 'NONE', #109, 0.03500000000000000333 ) ;
#210 = PLANE ( 'NONE',  #226 ) ;
#211 = DIRECTION ( 'NONE',  ( 1.350672323656716223E-33, -1.000000000000000000, -0.000000000000000000 ) ) ;
#212 =( NAMED_UNIT ( * ) PLANE_ANGLE_UNIT ( ) SI_UNIT ( $, .RADIAN. ) );
#213 = CONICAL_SURFACE ( 'NONE', #74, 0.03500000000000000333, 0.7155849933176767763 ) ;
#214 = CARTESIAN_POINT ( 'NONE',  ( 6.385105040622816835E-68, -4.727353132798507060E-35, 0.000000000000000000 ) ) ;
#215 = CARTESIAN_POINT ( 'NONE',  ( -0.1874999999999994449, 0.1754311821012033423, 0.000000000000000000 ) ) ;
#216 = LINE ( 'NONE', #136, #167 ) ;
#217 = CARTESIAN_POINT ( 'NONE',  ( -2.369500423704768587E-34, 0.1754311821012033423, 0.000000000000000000 ) ) ;
#218 =( LENGTH_UNIT ( ) NAMED_UNIT ( * ) SI_UNIT ( $, .METRE. ) );
#219 =( NAMED_UNIT ( * ) PLANE_ANGLE_UNIT ( ) SI_UNIT ( $, .RADIAN. ) );
#220 = VERTEX_POINT ( 'NONE', #215 ) ;
#221 = LENGTH_MEASURE_WITH_UNIT ( LENGTH_MEASURE( 0.02539999999999999897 ), #218 );
#222 = DIMENSIONAL_EXPONENTS ( 1.000000000000000000, 0.000000000000000000, 0.000000000000000000, 0.000000000000000000, 0.000000000000000000, 0.000000000000000000, 0.000000000000000000 ) ;
#223 = SURFACE_STYLE_FILL_AREA ( #154 ) ;
#224 = VERTEX_POINT ( 'NONE', #92 ) ;
#225 = SURFACE_SIDE_STYLE ('',( #223 ) ) ;
#226 = AXIS2_PLACEMENT_3D ( 'NONE', #267, #172, #264 ) ;
#227 = DIMENSIONAL_EXPONENTS ( 1.000000000000000000, 0.000000000000000000, 0.000000000000000000, 0.000000000000000000, 0.000000000000000000, 0.000000000000000000, 0.000000000000000000 ) ;
#228 = FACE_OUTER_BOUND ( 'NONE', #191, .T. ) ;
#229 = AXIS2_PLACEMENT_3D ( 'NONE', #20, #132, #272 ) ;
#230 = VERTEX_POINT ( 'NONE', #193 ) ;
#231 = CARTESIAN_POINT ( 'NONE',  ( 6.385105040622816835E-68, -4.727353132798507060E-35, 0.000000000000000000 ) ) ;
#232 = EDGE_CURVE ( 'NONE', #230, #175, #194, .T. ) ;
#233 =( CONVERSION_BASED_UNIT ( 'INCH', #178 ) LENGTH_UNIT ( ) NAMED_UNIT ( #206 ) );
#234 = CIRCLE ( 'NONE', #82, 0.1875000000000000555 ) ;
#235 = DIRECTION ( 'NONE',  ( 1.000000000000000000, 1.350672323656716223E-33, 0.000000000000000000 ) ) ;
#236 = SURFACE_STYLE_FILL_AREA ( #305 ) ;
#237 =( GEOMETRIC_REPRESENTATION_CONTEXT ( 3 ) GLOBAL_UNCERTAINTY_ASSIGNED_CONTEXT ( ( #123 ) ) GLOBAL_UNIT_ASSIGNED_CONTEXT ( ( #241, #28, #11 ) ) REPRESENTATION_CONTEXT ( 'NONE', 'WORKASPACE' ) );
#238 = DIRECTION ( 'NONE',  ( 1.468600448673977089E-16, -1.000000000000000000, 0.000000000000000000 ) ) ;
#239 = DIRECTION ( 'NONE',  ( -1.468600448673977089E-16, 1.000000000000000000, 0.000000000000000000 ) ) ;
#240 = FACE_OUTER_BOUND ( 'NONE', #204, .T. ) ;
#241 =( CONVERSION_BASED_UNIT ( 'INCH', #34 ) LENGTH_UNIT ( ) NAMED_UNIT ( #104 ) );
#242 = STYLED_ITEM ( 'NONE', ( #160 ), #91 ) ;
#243 = CIRCLE ( 'NONE', #302, 0.1874999999999996947 ) ;
#244 = ORIENTED_EDGE ( 'NONE', *, *, #141, .T. ) ;
#245 = PRODUCT_DEFINITION_SHAPE ( 'NONE', 'NONE',  #159 ) ;
#246 = CIRCLE ( 'NONE', #38, 0.1874999999999996947 ) ;
#247 = ORIENTED_EDGE ( 'NONE', *, *, #27, .T. ) ;
#248 = ORIENTED_EDGE ( 'NONE', *, *, #27, .F. ) ;
#249 = DIRECTION ( 'NONE',  ( -1.468600448673977089E-16, 1.000000000000000000, -0.000000000000000000 ) ) ;
#250 = AXIS2_PLACEMENT_3D ( 'NONE', #287, #49, #131 ) ;
#251 = PRESENTATION_LAYER_ASSIGNMENT (  '', '', ( #146 ) ) ;
#252 = DIMENSIONAL_EXPONENTS ( 1.000000000000000000, 0.000000000000000000, 0.000000000000000000, 0.000000000000000000, 0.000000000000000000, 0.000000000000000000, 0.000000000000000000 ) ;
#253 = DIRECTION ( 'NONE',  ( -1.350672323656716223E-33, 1.000000000000000000, 0.000000000000000000 ) ) ;
#254 = COLOUR_RGB ( '',1.000000000000000000, 0.000000000000000000, 0.000000000000000000 ) ;
#255 = COLOUR_RGB ( '',1.000000000000000000, 0.000000000000000000, 0.000000000000000000 ) ;
#256 = DIRECTION ( 'NONE',  ( 1.350672323656716223E-33, -1.000000000000000000, -0.000000000000000000 ) ) ;
#257 =( LENGTH_UNIT ( ) NAMED_UNIT ( * ) SI_UNIT ( $, .METRE. ) );
#258 = FILL_AREA_STYLE_COLOUR ( '', #3 ) ;
#259 =( NAMED_UNIT ( * ) SI_UNIT ( $, .STERADIAN. ) SOLID_ANGLE_UNIT ( ) );
#260 = DIRECTION ( 'NONE',  ( -1.000000000000000000, -1.821231995776178437E-16, 0.000000000000000000 ) ) ;
#261 = STYLED_ITEM ( 'NONE', ( #279 ), #143 ) ;
#262 = FILL_AREA_STYLE_COLOUR ( '', #157 ) ;
#263 = SURFACE_STYLE_USAGE ( .BOTH. , #93 ) ;
#264 = DIRECTION ( 'NONE',  ( 1.000000000000000000, 1.350672323656716052E-33, 0.000000000000000000 ) ) ;
#265 = ORIENTED_EDGE ( 'NONE', *, *, #165, .F. ) ;
#266 = MECHANICAL_DESIGN_GEOMETRIC_PRESENTATION_REPRESENTATION (  '', ( #242 ), #306 ) ;
#267 = CARTESIAN_POINT ( 'NONE',  ( 3.192552520311408418E-68, -2.363676566399253530E-35, 0.000000000000000000 ) ) ;
#268 = EDGE_LOOP ( 'NONE', ( #125, #278 ) ) ;
#269 = AXIS2_PLACEMENT_3D ( 'NONE', #139, #238, #9 ) ;
#270 = PLANE ( 'NONE',  #229 ) ;
#271 = ADVANCED_FACE ( 'NONE', ( #61 ), #95, .F. ) ;
#272 = DIRECTION ( 'NONE',  ( -1.000000000000000000, -1.350672323656716052E-33, 0.000000000000000000 ) ) ;
#273 = SURFACE_SIDE_STYLE ('',( #78 ) ) ;
#274 = CARTESIAN_POINT ( 'NONE',  ( -6.123233995736766036E-17, 2.500000000000000000, 0.000000000000000000 ) ) ;
#275 = CARTESIAN_POINT ( 'NONE',  ( 2.801539409366032693E-16, 0.1754311821012033978, 0.000000000000000000 ) ) ;
#276 = AXIS2_PLACEMENT_3D ( 'NONE', #112, #211, #189 ) ;
#277 = CARTESIAN_POINT ( 'NONE',  ( -6.123233995736764803E-17, 2.500000000000000000, 0.000000000000000000 ) ) ;
#278 = ORIENTED_EDGE ( 'NONE', *, *, #107, .T. ) ;
#279 = PRESENTATION_STYLE_ASSIGNMENT (( #25 ) ) ;
#280 = LINE ( 'NONE', #282, #140 ) ;
#281 = EDGE_LOOP ( 'NONE', ( #244, #295 ) ) ;
#282 = CARTESIAN_POINT ( 'NONE',  ( -0.1874999999999999445, 2.500000000000000000, 0.000000000000000000 ) ) ;
#283 =( NAMED_UNIT ( * ) SI_UNIT ( $, .STERADIAN. ) SOLID_ANGLE_UNIT ( ) );
#284 = FACE_OUTER_BOUND ( 'NONE', #69, .T. ) ;
#285 = FILL_AREA_STYLE_COLOUR ( '', #254 ) ;
#286 =( GEOMETRIC_REPRESENTATION_CONTEXT ( 3 ) GLOBAL_UNCERTAINTY_ASSIGNED_CONTEXT ( ( #115 ) ) GLOBAL_UNIT_ASSIGNED_CONTEXT ( ( #200, #1, #40 ) ) REPRESENTATION_CONTEXT ( 'NONE', 'WORKASPACE' ) );
#287 = CARTESIAN_POINT ( 'NONE',  ( 6.385105040622816835E-68, -4.727353132798507060E-35, 0.000000000000000000 ) ) ;
#288 = ADVANCED_FACE ( 'NONE', ( #158 ), #29, .F. ) ;
#289 = ORIENTED_EDGE ( 'NONE', *, *, #141, .F. ) ;
#290 = EDGE_CURVE ( 'NONE', #108, #175, #135, .T. ) ;
#291 = MECHANICAL_DESIGN_GEOMETRIC_PRESENTATION_REPRESENTATION (  '', ( #261 ), #89 ) ;
#292 =( NAMED_UNIT ( * ) SI_UNIT ( $, .STERADIAN. ) SOLID_ANGLE_UNIT ( ) );
#293 =( GEOMETRIC_REPRESENTATION_CONTEXT ( 3 ) GLOBAL_UNCERTAINTY_ASSIGNED_CONTEXT ( ( #207 ) ) GLOBAL_UNIT_ASSIGNED_CONTEXT ( ( #233, #205, #292 ) ) REPRESENTATION_CONTEXT ( 'NONE', 'WORKASPACE' ) );
#294 = DIRECTION ( 'NONE',  ( -1.000000000000000000, 0.000000000000000000, 0.000000000000000000 ) ) ;
#295 = ORIENTED_EDGE ( 'NONE', *, *, #147, .T. ) ;
#296 = LENGTH_MEASURE_WITH_UNIT ( LENGTH_MEASURE( 0.02539999999999999897 ), #106 );
#297 = SURFACE_STYLE_USAGE ( .BOTH. , #225 ) ;
#298 = UNCERTAINTY_MEASURE_WITH_UNIT (LENGTH_MEASURE( 1.000000000000000082E-05 ), #56, 'distance_accuracy_value', 'NONE');
#299 =( NAMED_UNIT ( * ) PLANE_ANGLE_UNIT ( ) SI_UNIT ( $, .RADIAN. ) );
#300 = FACE_OUTER_BOUND ( 'NONE', #281, .T. ) ;
#301 =( LENGTH_UNIT ( ) NAMED_UNIT ( * ) SI_UNIT ( $, .METRE. ) );
#302 = AXIS2_PLACEMENT_3D ( 'NONE', #164, #186, #260 ) ;
#303 = DIRECTION ( 'NONE',  ( 1.000000000000000000, 0.000000000000000000, 0.000000000000000000 ) ) ;
#304 = STYLED_ITEM ( 'NONE', ( #5 ), #31 ) ;
#305 = FILL_AREA_STYLE ('',( #285 ) ) ;
#306 =( GEOMETRIC_REPRESENTATION_CONTEXT ( 3 ) GLOBAL_UNCERTAINTY_ASSIGNED_CONTEXT ( ( #298 ) ) GLOBAL_UNIT_ASSIGNED_CONTEXT ( ( #56, #219, #120 ) ) REPRESENTATION_CONTEXT ( 'NONE', 'WORKASPACE' ) );
#307 = DIRECTION ( 'NONE',  ( -1.000000000000000000, 0.000000000000000000, 0.000000000000000000 ) ) ;
#308 = UNCERTAINTY_MEASURE_WITH_UNIT (LENGTH_MEASURE( 1.000000000000000082E-05 ), #111, 'distance_accuracy_value', 'NONE');
#309 = PRODUCT_DEFINITION_FORMATION_WITH_SPECIFIED_SOURCE ( 'ANY', '', #46, .NOT_KNOWN. ) ;
ENDSEC;
END-ISO-10303-21;
