ISO-10303-21;
HEADER;
FILE_DESCRIPTION (( 'STEP AP214' ),
    '1' );
FILE_NAME ('00692.STEP',
    '2023-06-22T14:14:39',
    ( '' ),
    ( '' ),
    'SwSTEP 2.0',
    'SolidWorks 2023',
    '' );
FILE_SCHEMA (( 'AUTOMOTIVE_DESIGN' ));
ENDSEC;

DATA;
#1 = FILL_AREA_STYLE ('',( #173 ) ) ;
#2 = SURFACE_STYLE_USAGE ( .BOTH. , #79 ) ;
#3 = AXIS2_PLACEMENT_3D ( 'NONE', #129, #233, #234 ) ;
#4 = LENGTH_MEASURE_WITH_UNIT ( LENGTH_MEASURE( 0.02539999999999999897 ), #5 );
#5 =( LENGTH_UNIT ( ) NAMED_UNIT ( * ) SI_UNIT ( $, .METRE. ) );
#6 = COLOUR_RGB ( '',1.000000000000000000, 0.000000000000000000, 0.000000000000000000 ) ;
#7 = ORIENTED_EDGE ( 'NONE', *, *, #56, .F. ) ;
#8 = CARTESIAN_POINT ( 'NONE',  ( 0.3750000000000000555, 6.000000000000000888, 0.000000000000000000 ) ) ;
#9 = SURFACE_STYLE_USAGE ( .BOTH. , #131 ) ;
#10 = CLOSED_SHELL ( 'NONE', ( #112, #292, #133, #260 ) ) ;
#11 = UNCERTAINTY_MEASURE_WITH_UNIT (LENGTH_MEASURE( 1.000000000000000082E-05 ), #54, 'distance_accuracy_value', 'NONE');
#12 = ORIENTED_EDGE ( 'NONE', *, *, #13, .T. ) ;
#13 = EDGE_CURVE ( 'NONE', #277, #229, #52, .T. ) ;
#14 = ORIENTED_EDGE ( 'NONE', *, *, #190, .T. ) ;
#15 = ORIENTED_EDGE ( 'NONE', *, *, #205, .F. ) ;
#16 = UNCERTAINTY_MEASURE_WITH_UNIT (LENGTH_MEASURE( 1.000000000000000082E-05 ), #100, 'distance_accuracy_value', 'NONE');
#17 = DIRECTION ( 'NONE',  ( 4.453261087808560759E-17, -1.000000000000000000, 0.000000000000000000 ) ) ;
#18 = DIRECTION ( 'NONE',  ( -1.000000000000000000, 0.000000000000000000, 0.000000000000000000 ) ) ;
#19 = CIRCLE ( 'NONE', #250, 0.3750000000000000555 ) ;
#20 =( LENGTH_UNIT ( ) NAMED_UNIT ( * ) SI_UNIT ( $, .METRE. ) );
#21 = PLANE ( 'NONE',  #195 ) ;
#22 = FILL_AREA_STYLE ('',( #166 ) ) ;
#23 = COLOUR_RGB ( '',0.7921568627450980005, 0.8196078431372548767, 0.9333333333333333481 ) ;
#24 = EDGE_CURVE ( 'NONE', #182, #83, #246, .T. ) ;
#25 = SURFACE_STYLE_FILL_AREA ( #267 ) ;
#26 = PLANE ( 'NONE',  #29 ) ;
#27 = PRODUCT_DEFINITION_SHAPE ( 'NONE', 'NONE',  #278 ) ;
#28 =( CONVERSION_BASED_UNIT ( 'INCH', #291 ) LENGTH_UNIT ( ) NAMED_UNIT ( #302 ) );
#29 = AXIS2_PLACEMENT_3D ( 'NONE', #152, #206, #286 ) ;
#30 = ORIENTED_EDGE ( 'NONE', *, *, #24, .F. ) ;
#31 = DIRECTION ( 'NONE',  ( -0.000000000000000000, -1.000000000000000000, -0.000000000000000000 ) ) ;
#32 = DIRECTION ( 'NONE',  ( -0.000000000000000000, -1.000000000000000000, -0.000000000000000000 ) ) ;
#33 = DIMENSIONAL_EXPONENTS ( 1.000000000000000000, 0.000000000000000000, 0.000000000000000000, 0.000000000000000000, 0.000000000000000000, 0.000000000000000000, 0.000000000000000000 ) ;
#34 = AXIS2_PLACEMENT_3D ( 'NONE', #183, #139, #275 ) ;
#35 = PRESENTATION_LAYER_ASSIGNMENT (  '', '', ( #188 ) ) ;
#36 = EDGE_LOOP ( 'NONE', ( #235, #209 ) ) ;
#37 = PRESENTATION_STYLE_ASSIGNMENT (( #9 ) ) ;
#38 = ORIENTED_EDGE ( 'NONE', *, *, #190, .F. ) ;
#39 = LINE ( 'NONE', #135, #117 ) ;
#40 = ORIENTED_EDGE ( 'NONE', *, *, #205, .T. ) ;
#41 = DIRECTION ( 'NONE',  ( -0.000000000000000000, -1.000000000000000000, -0.000000000000000000 ) ) ;
#42 = AXIS2_PLACEMENT_3D ( 'NONE', #82, #236, #18 ) ;
#43 = CARTESIAN_POINT ( 'NONE',  ( 0.000000000000000000, 0.000000000000000000, 0.000000000000000000 ) ) ;
#44 = PRESENTATION_STYLE_ASSIGNMENT (( #118 ) ) ;
#45 = DIRECTION ( 'NONE',  ( -1.000000000000000000, -4.453261087808560759E-17, 0.000000000000000000 ) ) ;
#46 = EDGE_CURVE ( 'NONE', #229, #277, #288, .T. ) ;
#47 = CARTESIAN_POINT ( 'NONE',  ( 3.718412684285603637E-34, 3.250000000000000000, 0.000000000000000000 ) ) ;
#48 = PRESENTATION_LAYER_ASSIGNMENT (  '', '', ( #282 ) ) ;
#49 = SURFACE_STYLE_FILL_AREA ( #22 ) ;
#50 = PRESENTATION_STYLE_ASSIGNMENT (( #226 ) ) ;
#51 = SURFACE_STYLE_FILL_AREA ( #172 ) ;
#52 = CIRCLE ( 'NONE', #42, 0.3750000000000000555 ) ;
#53 =( NAMED_UNIT ( * ) SI_UNIT ( $, .STERADIAN. ) SOLID_ANGLE_UNIT ( ) );
#54 =( CONVERSION_BASED_UNIT ( 'INCH', #307 ) LENGTH_UNIT ( ) NAMED_UNIT ( #217 ) );
#55 = CIRCLE ( 'NONE', #270, 0.3750000000000000555 ) ;
#56 = EDGE_CURVE ( 'NONE', #301, #185, #244, .T. ) ;
#57 = ORIENTED_EDGE ( 'NONE', *, *, #153, .F. ) ;
#58 = ORIENTED_EDGE ( 'NONE', *, *, #198, .F. ) ;
#59 = MECHANICAL_DESIGN_GEOMETRIC_PRESENTATION_REPRESENTATION (  '', ( #188 ), #146 ) ;
#60 = UNCERTAINTY_MEASURE_WITH_UNIT (LENGTH_MEASURE( 1.000000000000000082E-05 ), #147, 'distance_accuracy_value', 'NONE');
#61 = DIMENSIONAL_EXPONENTS ( 1.000000000000000000, 0.000000000000000000, 0.000000000000000000, 0.000000000000000000, 0.000000000000000000, 0.000000000000000000, 0.000000000000000000 ) ;
#62 = ORIENTED_EDGE ( 'NONE', *, *, #149, .T. ) ;
#63 =( NAMED_UNIT ( * ) SI_UNIT ( $, .STERADIAN. ) SOLID_ANGLE_UNIT ( ) );
#64 = DIRECTION ( 'NONE',  ( 1.000000000000000000, 4.453261087808560759E-17, 0.000000000000000000 ) ) ;
#65 = ORIENTED_EDGE ( 'NONE', *, *, #220, .T. ) ;
#66 = CARTESIAN_POINT ( 'NONE',  ( 0.3750000000000000555, 6.000000000000000888, 4.592425496802576684E-17 ) ) ;
#67 = SURFACE_SIDE_STYLE ('',( #284 ) ) ;
#68 = PRODUCT_DEFINITION_FORMATION_WITH_SPECIFIED_SOURCE ( 'ANY', '', #192, .NOT_KNOWN. ) ;
#69 = FACE_OUTER_BOUND ( 'NONE', #296, .T. ) ;
#70 = FACE_OUTER_BOUND ( 'NONE', #36, .T. ) ;
#71 = SURFACE_STYLE_FILL_AREA ( #1 ) ;
#72 = CLOSED_SHELL ( 'NONE', ( #242, #99, #94, #175 ) ) ;
#73 = VECTOR ( 'NONE', #128, 39.37007874015748143 ) ;
#74 = SURFACE_SIDE_STYLE ('',( #49 ) ) ;
#75 = PRESENTATION_STYLE_ASSIGNMENT (( #197 ) ) ;
#76 = DIRECTION ( 'NONE',  ( 0.000000000000000000, 0.000000000000000000, -1.000000000000000000 ) ) ;
#77 = CARTESIAN_POINT ( 'NONE',  ( -0.3750000000000002776, 6.000000000000000888, 0.000000000000000000 ) ) ;
#78 = COLOUR_RGB ( '',1.000000000000000000, 0.000000000000000000, 0.000000000000000000 ) ;
#79 = SURFACE_SIDE_STYLE ('',( #51 ) ) ;
#80 = LENGTH_MEASURE_WITH_UNIT ( LENGTH_MEASURE( 0.02539999999999999897 ), #212 );
#81 = PRESENTATION_LAYER_ASSIGNMENT (  '', '', ( #232 ) ) ;
#82 = CARTESIAN_POINT ( 'NONE',  ( 0.000000000000000000, 3.250000000000000000, 0.000000000000000000 ) ) ;
#83 = VERTEX_POINT ( 'NONE', #219 ) ;
#84 =( NAMED_UNIT ( * ) PLANE_ANGLE_UNIT ( ) SI_UNIT ( $, .RADIAN. ) );
#85 = LINE ( 'NONE', #274, #294 ) ;
#86 = PRESENTATION_LAYER_ASSIGNMENT (  '', '', ( #216 ) ) ;
#87 = DIRECTION ( 'NONE',  ( -1.000000000000000000, 0.000000000000000000, 0.000000000000000000 ) ) ;
#88 =( NAMED_UNIT ( * ) PLANE_ANGLE_UNIT ( ) SI_UNIT ( $, .RADIAN. ) );
#89 = ADVANCED_BREP_SHAPE_REPRESENTATION ( '00692', ( #259, #151, #171 ), #303 ) ;
#90 = FACE_OUTER_BOUND ( 'NONE', #186, .T. ) ;
#91 =( GEOMETRIC_REPRESENTATION_CONTEXT ( 3 ) GLOBAL_UNCERTAINTY_ASSIGNED_CONTEXT ( ( #290 ) ) GLOBAL_UNIT_ASSIGNED_CONTEXT ( ( #306, #88, #119 ) ) REPRESENTATION_CONTEXT ( 'NONE', 'WORKASPACE' ) );
#92 = DIRECTION ( 'NONE',  ( 0.000000000000000000, 0.000000000000000000, -1.000000000000000000 ) ) ;
#93 = FILL_AREA_STYLE ('',( #95 ) ) ;
#94 = ADVANCED_FACE ( 'NONE', ( #224 ), #281, .T. ) ;
#95 = FILL_AREA_STYLE_COLOUR ( '', #269 ) ;
#96 = PRESENTATION_LAYER_ASSIGNMENT (  '', '', ( #164 ) ) ;
#97 = CIRCLE ( 'NONE', #110, 0.3750000000000001665 ) ;
#98 = DIRECTION ( 'NONE',  ( 0.000000000000000000, -1.000000000000000000, -0.000000000000000000 ) ) ;
#99 = ADVANCED_FACE ( 'NONE', ( #70 ), #21, .F. ) ;
#100 =( CONVERSION_BASED_UNIT ( 'INCH', #4 ) LENGTH_UNIT ( ) NAMED_UNIT ( #61 ) );
#101 = AXIS2_PLACEMENT_3D ( 'NONE', #289, #98, #76 ) ;
#102 =( NAMED_UNIT ( * ) PLANE_ANGLE_UNIT ( ) SI_UNIT ( $, .RADIAN. ) );
#103 = CARTESIAN_POINT ( 'NONE',  ( 4.592425496802575451E-17, 0.000000000000000000, 0.3750000000000000555 ) ) ;
#104 =( NAMED_UNIT ( * ) PLANE_ANGLE_UNIT ( ) SI_UNIT ( $, .RADIAN. ) );
#105 = AXIS2_PLACEMENT_3D ( 'NONE', #141, #193, #92 ) ;
#106 = DIRECTION ( 'NONE',  ( 0.000000000000000000, 0.000000000000000000, -1.000000000000000000 ) ) ;
#107 = ORIENTED_EDGE ( 'NONE', *, *, #149, .F. ) ;
#108 = ORIENTED_EDGE ( 'NONE', *, *, #56, .T. ) ;
#109 = DIRECTION ( 'NONE',  ( -0.000000000000000000, -1.000000000000000000, -0.000000000000000000 ) ) ;
#110 = AXIS2_PLACEMENT_3D ( 'NONE', #248, #295, #271 ) ;
#111 =( NAMED_UNIT ( * ) PLANE_ANGLE_UNIT ( ) SI_UNIT ( $, .RADIAN. ) );
#112 = ADVANCED_FACE ( 'NONE', ( #90 ), #241, .T. ) ;
#113 = SURFACE_SIDE_STYLE ('',( #71 ) ) ;
#114 = PRODUCT_CONTEXT ( 'NONE', #265, 'mechanical' ) ;
#115 = PLANE ( 'NONE',  #101 ) ;
#116 = DIRECTION ( 'NONE',  ( -1.000000000000000000, 0.000000000000000000, 0.000000000000000000 ) ) ;
#117 = VECTOR ( 'NONE', #109, 39.37007874015748143 ) ;
#118 = SURFACE_STYLE_USAGE ( .BOTH. , #74 ) ;
#119 =( NAMED_UNIT ( * ) SI_UNIT ( $, .STERADIAN. ) SOLID_ANGLE_UNIT ( ) );
#120 = CYLINDRICAL_SURFACE ( 'NONE', #3, 0.3750000000000000555 ) ;
#121 =( LENGTH_UNIT ( ) NAMED_UNIT ( * ) SI_UNIT ( $, .METRE. ) );
#122 = DIRECTION ( 'NONE',  ( -4.453261087808560759E-17, 1.000000000000000000, -0.000000000000000000 ) ) ;
#123 = AXIS2_PLACEMENT_3D ( 'NONE', #272, #32, #106 ) ;
#124 =( LENGTH_UNIT ( ) NAMED_UNIT ( * ) SI_UNIT ( $, .METRE. ) );
#125 = EDGE_LOOP ( 'NONE', ( #299, #62, #127, #30 ) ) ;
#126 = CARTESIAN_POINT ( 'NONE',  ( 0.000000000000000000, 0.000000000000000000, 0.000000000000000000 ) ) ;
#127 = ORIENTED_EDGE ( 'NONE', *, *, #198, .T. ) ;
#128 = DIRECTION ( 'NONE',  ( -4.453261087808560759E-17, 1.000000000000000000, -0.000000000000000000 ) ) ;
#129 = CARTESIAN_POINT ( 'NONE',  ( 0.000000000000000000, 0.000000000000000000, 0.000000000000000000 ) ) ;
#130 = AXIS2_PLACEMENT_3D ( 'NONE', #285, #122, #116 ) ;
#131 = SURFACE_SIDE_STYLE ('',( #253 ) ) ;
#132 = AXIS2_PLACEMENT_3D ( 'NONE', #215, #304, #87 ) ;
#133 = ADVANCED_FACE ( 'NONE', ( #143 ), #120, .T. ) ;
#134 = UNCERTAINTY_MEASURE_WITH_UNIT (LENGTH_MEASURE( 1.000000000000000082E-05 ), #201, 'distance_accuracy_value', 'NONE');
#135 = CARTESIAN_POINT ( 'NONE',  ( 0.000000000000000000, 0.000000000000000000, -0.3750000000000000555 ) ) ;
#136 = EDGE_LOOP ( 'NONE', ( #254, #273 ) ) ;
#137 = DIMENSIONAL_EXPONENTS ( 1.000000000000000000, 0.000000000000000000, 0.000000000000000000, 0.000000000000000000, 0.000000000000000000, 0.000000000000000000, 0.000000000000000000 ) ;
#138 = DIRECTION ( 'NONE',  ( -1.000000000000000000, 0.000000000000000000, 0.000000000000000000 ) ) ;
#139 = DIRECTION ( 'NONE',  ( -4.453261087808560759E-17, 1.000000000000000000, -0.000000000000000000 ) ) ;
#140 = DIRECTION ( 'NONE',  ( 1.000000000000000000, 0.000000000000000000, 0.000000000000000000 ) ) ;
#141 = CARTESIAN_POINT ( 'NONE',  ( 0.000000000000000000, 0.000000000000000000, 0.000000000000000000 ) ) ;
#142 = PRODUCT_RELATED_PRODUCT_CATEGORY ( 'part', '', ( #192 ) ) ;
#143 = FACE_OUTER_BOUND ( 'NONE', #125, .T. ) ;
#144 = UNCERTAINTY_MEASURE_WITH_UNIT (LENGTH_MEASURE( 1.000000000000000082E-05 ), #28, 'distance_accuracy_value', 'NONE');
#145 = DIRECTION ( 'NONE',  ( -4.453261087808560759E-17, 1.000000000000000000, -0.000000000000000000 ) ) ;
#146 =( GEOMETRIC_REPRESENTATION_CONTEXT ( 3 ) GLOBAL_UNCERTAINTY_ASSIGNED_CONTEXT ( ( #60 ) ) GLOBAL_UNIT_ASSIGNED_CONTEXT ( ( #147, #111, #223 ) ) REPRESENTATION_CONTEXT ( 'NONE', 'WORKASPACE' ) );
#147 =( CONVERSION_BASED_UNIT ( 'INCH', #221 ) LENGTH_UNIT ( ) NAMED_UNIT ( #137 ) );
#148 = PRESENTATION_STYLE_ASSIGNMENT (( #2 ) ) ;
#149 = EDGE_CURVE ( 'NONE', #185, #301, #55, .T. ) ;
#150 = SURFACE_SIDE_STYLE ('',( #25 ) ) ;
#151 = MANIFOLD_SOLID_BREP ( 'Revolve - Tool Body (Straight Shanked)', #72 ) ;
#152 = CARTESIAN_POINT ( 'NONE',  ( 0.000000000000000000, 3.250000000000000000, 0.000000000000000000 ) ) ;
#153 = EDGE_CURVE ( 'NONE', #277, #213, #85, .T. ) ;
#154 =( GEOMETRIC_REPRESENTATION_CONTEXT ( 3 ) GLOBAL_UNCERTAINTY_ASSIGNED_CONTEXT ( ( #16 ) ) GLOBAL_UNIT_ASSIGNED_CONTEXT ( ( #100, #178, #53 ) ) REPRESENTATION_CONTEXT ( 'NONE', 'WORKASPACE' ) );
#155 = DIRECTION ( 'NONE',  ( -0.000000000000000000, -1.000000000000000000, -0.000000000000000000 ) ) ;
#156 = ORIENTED_EDGE ( 'NONE', *, *, #298, .F. ) ;
#157 = PLANE ( 'NONE',  #238 ) ;
#158 = EDGE_CURVE ( 'NONE', #229, #297, #208, .T. ) ;
#159 = STYLED_ITEM ( 'NONE', ( #75 ), #112 ) ;
#160 = MECHANICAL_DESIGN_GEOMETRIC_PRESENTATION_REPRESENTATION (  '', ( #216 ), #203 ) ;
#161 = DIMENSIONAL_EXPONENTS ( 1.000000000000000000, 0.000000000000000000, 0.000000000000000000, 0.000000000000000000, 0.000000000000000000, 0.000000000000000000, 0.000000000000000000 ) ;
#162 = LINE ( 'NONE', #103, #245 ) ;
#163 =( LENGTH_UNIT ( ) NAMED_UNIT ( * ) SI_UNIT ( $, .METRE. ) );
#164 = STYLED_ITEM ( 'NONE', ( #148 ), #260 ) ;
#165 = APPLICATION_PROTOCOL_DEFINITION ( 'draft international standard', 'automotive_design', 1998, #265 ) ;
#166 = FILL_AREA_STYLE_COLOUR ( '', #23 ) ;
#167 = DIRECTION ( 'NONE',  ( -4.453261087808560759E-17, 1.000000000000000000, 0.000000000000000000 ) ) ;
#168 = APPLICATION_PROTOCOL_DEFINITION ( 'draft international standard', 'automotive_design', 1998, #240 ) ;
#169 = PRESENTATION_STYLE_ASSIGNMENT (( #266 ) ) ;
#170 = MECHANICAL_DESIGN_GEOMETRIC_PRESENTATION_REPRESENTATION (  '', ( #282 ), #154 ) ;
#171 = AXIS2_PLACEMENT_3D ( 'NONE', #43, #222, #140 ) ;
#172 = FILL_AREA_STYLE ('',( #239 ) ) ;
#173 = FILL_AREA_STYLE_COLOUR ( '', #258 ) ;
#174 = FACE_OUTER_BOUND ( 'NONE', #251, .T. ) ;
#175 = ADVANCED_FACE ( 'NONE', ( #189 ), #157, .F. ) ;
#176 = CARTESIAN_POINT ( 'NONE',  ( 0.000000000000000000, 3.250000000000000000, -0.3750000000000000555 ) ) ;
#177 = PRESENTATION_LAYER_ASSIGNMENT (  '', '', ( #159 ) ) ;
#178 =( NAMED_UNIT ( * ) PLANE_ANGLE_UNIT ( ) SI_UNIT ( $, .RADIAN. ) );
#179 = ORIENTED_EDGE ( 'NONE', *, *, #158, .F. ) ;
#180 =( NAMED_UNIT ( * ) SI_UNIT ( $, .STERADIAN. ) SOLID_ANGLE_UNIT ( ) );
#181 = CARTESIAN_POINT ( 'NONE',  ( 4.592425496802575451E-17, 0.000000000000000000, 0.3750000000000000555 ) ) ;
#182 = VERTEX_POINT ( 'NONE', #181 ) ;
#183 = CARTESIAN_POINT ( 'NONE',  ( 0.000000000000000000, 3.250000000000000000, 0.000000000000000000 ) ) ;
#184 = DIRECTION ( 'NONE',  ( 0.000000000000000000, 0.000000000000000000, -1.000000000000000000 ) ) ;
#185 = VERTEX_POINT ( 'NONE', #255 ) ;
#186 = EDGE_LOOP ( 'NONE', ( #108, #65, #156, #58 ) ) ;
#187 = DIRECTION ( 'NONE',  ( -4.453261087808560759E-17, 1.000000000000000000, -0.000000000000000000 ) ) ;
#188 = STYLED_ITEM ( 'NONE', ( #44 ), #259 ) ;
#189 = FACE_OUTER_BOUND ( 'NONE', #249, .T. ) ;
#190 = EDGE_CURVE ( 'NONE', #297, #213, #97, .T. ) ;
#191 = FACE_OUTER_BOUND ( 'NONE', #136, .T. ) ;
#192 = PRODUCT ( '00692', '00692', '', ( #114 ) ) ;
#193 = DIRECTION ( 'NONE',  ( -0.000000000000000000, -1.000000000000000000, -0.000000000000000000 ) ) ;
#194 = CARTESIAN_POINT ( 'NONE',  ( -0.3750000000000000555, 3.250000000000000000, 0.000000000000000000 ) ) ;
#195 = AXIS2_PLACEMENT_3D ( 'NONE', #47, #167, #45 ) ;
#196 =( GEOMETRIC_REPRESENTATION_CONTEXT ( 3 ) GLOBAL_UNCERTAINTY_ASSIGNED_CONTEXT ( ( #134 ) ) GLOBAL_UNIT_ASSIGNED_CONTEXT ( ( #201, #102, #225 ) ) REPRESENTATION_CONTEXT ( 'NONE', 'WORKASPACE' ) );
#197 = SURFACE_STYLE_USAGE ( .BOTH. , #67 ) ;
#198 = EDGE_CURVE ( 'NONE', #301, #83, #39, .T. ) ;
#199 = SHAPE_DEFINITION_REPRESENTATION ( #27, #89 ) ;
#200 = MECHANICAL_DESIGN_GEOMETRIC_PRESENTATION_REPRESENTATION (  '', ( #232 ), #264 ) ;
#201 =( CONVERSION_BASED_UNIT ( 'INCH', #204 ) LENGTH_UNIT ( ) NAMED_UNIT ( #161 ) );
#202 = CARTESIAN_POINT ( 'NONE',  ( 0.3750000000000000555, 3.250000000000000000, 4.592425496802576684E-17 ) ) ;
#203 =( GEOMETRIC_REPRESENTATION_CONTEXT ( 3 ) GLOBAL_UNCERTAINTY_ASSIGNED_CONTEXT ( ( #211 ) ) GLOBAL_UNIT_ASSIGNED_CONTEXT ( ( #300, #104, #256 ) ) REPRESENTATION_CONTEXT ( 'NONE', 'WORKASPACE' ) );
#204 = LENGTH_MEASURE_WITH_UNIT ( LENGTH_MEASURE( 0.02539999999999999897 ), #121 );
#205 = EDGE_CURVE ( 'NONE', #213, #297, #237, .T. ) ;
#206 = DIRECTION ( 'NONE',  ( 0.000000000000000000, 1.000000000000000000, 0.000000000000000000 ) ) ;
#207 =( NAMED_UNIT ( * ) PLANE_ANGLE_UNIT ( ) SI_UNIT ( $, .RADIAN. ) );
#208 = LINE ( 'NONE', #279, #73 ) ;
#209 = ORIENTED_EDGE ( 'NONE', *, *, #13, .F. ) ;
#210 = FILL_AREA_STYLE ('',( #276 ) ) ;
#211 = UNCERTAINTY_MEASURE_WITH_UNIT (LENGTH_MEASURE( 1.000000000000000082E-05 ), #300, 'distance_accuracy_value', 'NONE');
#212 =( LENGTH_UNIT ( ) NAMED_UNIT ( * ) SI_UNIT ( $, .METRE. ) );
#213 = VERTEX_POINT ( 'NONE', #66 ) ;
#214 = PRODUCT_DEFINITION_CONTEXT ( 'detailed design', #240, 'design' ) ;
#215 = CARTESIAN_POINT ( 'NONE',  ( -1.224646799147354440E-16, 6.000000000000000888, 0.000000000000000000 ) ) ;
#216 = STYLED_ITEM ( 'NONE', ( #37 ), #151 ) ;
#217 = DIMENSIONAL_EXPONENTS ( 1.000000000000000000, 0.000000000000000000, 0.000000000000000000, 0.000000000000000000, 0.000000000000000000, 0.000000000000000000, 0.000000000000000000 ) ;
#218 = DIRECTION ( 'NONE',  ( 0.000000000000000000, 0.000000000000000000, -1.000000000000000000 ) ) ;
#219 = CARTESIAN_POINT ( 'NONE',  ( 0.000000000000000000, 0.000000000000000000, -0.3750000000000000555 ) ) ;
#220 = EDGE_CURVE ( 'NONE', #185, #182, #162, .T. ) ;
#221 = LENGTH_MEASURE_WITH_UNIT ( LENGTH_MEASURE( 0.02539999999999999897 ), #20 );
#222 = DIRECTION ( 'NONE',  ( 0.000000000000000000, 0.000000000000000000, 1.000000000000000000 ) ) ;
#223 =( NAMED_UNIT ( * ) SI_UNIT ( $, .STERADIAN. ) SOLID_ANGLE_UNIT ( ) );
#224 = FACE_OUTER_BOUND ( 'NONE', #257, .T. ) ;
#225 =( NAMED_UNIT ( * ) SI_UNIT ( $, .STERADIAN. ) SOLID_ANGLE_UNIT ( ) );
#226 = SURFACE_STYLE_USAGE ( .BOTH. , #150 ) ;
#227 = FILL_AREA_STYLE_COLOUR ( '', #6 ) ;
#228 = COLOUR_RGB ( '',0.7921568627450980005, 0.8196078431372548767, 0.9333333333333333481 ) ;
#229 = VERTEX_POINT ( 'NONE', #194 ) ;
#230 = ORIENTED_EDGE ( 'NONE', *, *, #46, .T. ) ;
#231 = ORIENTED_EDGE ( 'NONE', *, *, #153, .T. ) ;
#232 = STYLED_ITEM ( 'NONE', ( #169 ), #133 ) ;
#233 = DIRECTION ( 'NONE',  ( -0.000000000000000000, -1.000000000000000000, -0.000000000000000000 ) ) ;
#234 = DIRECTION ( 'NONE',  ( 0.000000000000000000, 0.000000000000000000, -1.000000000000000000 ) ) ;
#235 = ORIENTED_EDGE ( 'NONE', *, *, #46, .F. ) ;
#236 = DIRECTION ( 'NONE',  ( -4.453261087808560759E-17, 1.000000000000000000, -0.000000000000000000 ) ) ;
#237 = CIRCLE ( 'NONE', #132, 0.3750000000000001665 ) ;
#238 = AXIS2_PLACEMENT_3D ( 'NONE', #8, #17, #64 ) ;
#239 = FILL_AREA_STYLE_COLOUR ( '', #78 ) ;
#240 = APPLICATION_CONTEXT ( 'automotive_design' ) ;
#241 = CYLINDRICAL_SURFACE ( 'NONE', #105, 0.3750000000000000555 ) ;
#242 = ADVANCED_FACE ( 'NONE', ( #69 ), #283, .T. ) ;
#243 =( LENGTH_UNIT ( ) NAMED_UNIT ( * ) SI_UNIT ( $, .METRE. ) );
#244 = CIRCLE ( 'NONE', #123, 0.3750000000000000555 ) ;
#245 = VECTOR ( 'NONE', #31, 39.37007874015748143 ) ;
#246 = CIRCLE ( 'NONE', #308, 0.3750000000000000555 ) ;
#247 = ORIENTED_EDGE ( 'NONE', *, *, #158, .T. ) ;
#248 = CARTESIAN_POINT ( 'NONE',  ( -1.224646799147354440E-16, 6.000000000000000888, 0.000000000000000000 ) ) ;
#249 = EDGE_LOOP ( 'NONE', ( #14, #40 ) ) ;
#250 = AXIS2_PLACEMENT_3D ( 'NONE', #126, #268, #287 ) ;
#251 = EDGE_LOOP ( 'NONE', ( #7, #107 ) ) ;
#252 = MECHANICAL_DESIGN_GEOMETRIC_PRESENTATION_REPRESENTATION (  '', ( #164 ), #196 ) ;
#253 = SURFACE_STYLE_FILL_AREA ( #210 ) ;
#254 = ORIENTED_EDGE ( 'NONE', *, *, #298, .T. ) ;
#255 = CARTESIAN_POINT ( 'NONE',  ( 4.592425496802575451E-17, 3.250000000000000000, 0.3750000000000000555 ) ) ;
#256 =( NAMED_UNIT ( * ) SI_UNIT ( $, .STERADIAN. ) SOLID_ANGLE_UNIT ( ) );
#257 = EDGE_LOOP ( 'NONE', ( #57, #12, #247, #15 ) ) ;
#258 = COLOUR_RGB ( '',1.000000000000000000, 0.000000000000000000, 0.000000000000000000 ) ;
#259 = MANIFOLD_SOLID_BREP ( 'Revolve - Cutting Edge', #10 ) ;
#260 = ADVANCED_FACE ( 'NONE', ( #191 ), #115, .T. ) ;
#261 = CARTESIAN_POINT ( 'NONE',  ( -1.224646799147354440E-16, 6.000000000000000888, 0.000000000000000000 ) ) ;
#262 = MECHANICAL_DESIGN_GEOMETRIC_PRESENTATION_REPRESENTATION (  '', ( #159 ), #91 ) ;
#263 = LENGTH_MEASURE_WITH_UNIT ( LENGTH_MEASURE( 0.02539999999999999897 ), #163 );
#264 =( GEOMETRIC_REPRESENTATION_CONTEXT ( 3 ) GLOBAL_UNCERTAINTY_ASSIGNED_CONTEXT ( ( #11 ) ) GLOBAL_UNIT_ASSIGNED_CONTEXT ( ( #54, #207, #180 ) ) REPRESENTATION_CONTEXT ( 'NONE', 'WORKASPACE' ) );
#265 = APPLICATION_CONTEXT ( 'automotive_design' ) ;
#266 = SURFACE_STYLE_USAGE ( .BOTH. , #113 ) ;
#267 = FILL_AREA_STYLE ('',( #227 ) ) ;
#268 = DIRECTION ( 'NONE',  ( -0.000000000000000000, -1.000000000000000000, -0.000000000000000000 ) ) ;
#269 = COLOUR_RGB ( '',1.000000000000000000, 0.000000000000000000, 0.000000000000000000 ) ;
#270 = AXIS2_PLACEMENT_3D ( 'NONE', #293, #155, #184 ) ;
#271 = DIRECTION ( 'NONE',  ( -1.000000000000000000, 0.000000000000000000, 0.000000000000000000 ) ) ;
#272 = CARTESIAN_POINT ( 'NONE',  ( 0.000000000000000000, 3.250000000000000000, 0.000000000000000000 ) ) ;
#273 = ORIENTED_EDGE ( 'NONE', *, *, #24, .T. ) ;
#274 = CARTESIAN_POINT ( 'NONE',  ( 0.3749999999999999445, 6.000000000000000888, 4.592425496802576068E-17 ) ) ;
#275 = DIRECTION ( 'NONE',  ( -1.000000000000000000, 0.000000000000000000, 0.000000000000000000 ) ) ;
#276 = FILL_AREA_STYLE_COLOUR ( '', #228 ) ;
#277 = VERTEX_POINT ( 'NONE', #202 ) ;
#278 = PRODUCT_DEFINITION ( 'UNKNOWN', '', #68, #214 ) ;
#279 = CARTESIAN_POINT ( 'NONE',  ( -0.3750000000000002220, 6.000000000000000888, 0.000000000000000000 ) ) ;
#280 = DIMENSIONAL_EXPONENTS ( 1.000000000000000000, 0.000000000000000000, 0.000000000000000000, 0.000000000000000000, 0.000000000000000000, 0.000000000000000000, 0.000000000000000000 ) ;
#281 = CYLINDRICAL_SURFACE ( 'NONE', #130, 0.3750000000000001110 ) ;
#282 = STYLED_ITEM ( 'NONE', ( #50 ), #292 ) ;
#283 = CYLINDRICAL_SURFACE ( 'NONE', #309, 0.3750000000000001110 ) ;
#284 = SURFACE_STYLE_FILL_AREA ( #93 ) ;
#285 = CARTESIAN_POINT ( 'NONE',  ( -1.224646799147354440E-16, 6.000000000000000888, 0.000000000000000000 ) ) ;
#286 = DIRECTION ( 'NONE',  ( 0.000000000000000000, -0.000000000000000000, 1.000000000000000000 ) ) ;
#287 = DIRECTION ( 'NONE',  ( 0.000000000000000000, 0.000000000000000000, -1.000000000000000000 ) ) ;
#288 = CIRCLE ( 'NONE', #34, 0.3750000000000000555 ) ;
#289 = CARTESIAN_POINT ( 'NONE',  ( 0.000000000000000000, 0.000000000000000000, 0.000000000000000000 ) ) ;
#290 = UNCERTAINTY_MEASURE_WITH_UNIT (LENGTH_MEASURE( 1.000000000000000082E-05 ), #306, 'distance_accuracy_value', 'NONE');
#291 = LENGTH_MEASURE_WITH_UNIT ( LENGTH_MEASURE( 0.02539999999999999897 ), #124 );
#292 = ADVANCED_FACE ( 'NONE', ( #174 ), #26, .T. ) ;
#293 = CARTESIAN_POINT ( 'NONE',  ( 0.000000000000000000, 3.250000000000000000, 0.000000000000000000 ) ) ;
#294 = VECTOR ( 'NONE', #187, 39.37007874015748143 ) ;
#295 = DIRECTION ( 'NONE',  ( -4.453261087808560759E-17, 1.000000000000000000, -0.000000000000000000 ) ) ;
#296 = EDGE_LOOP ( 'NONE', ( #230, #231, #38, #179 ) ) ;
#297 = VERTEX_POINT ( 'NONE', #77 ) ;
#298 = EDGE_CURVE ( 'NONE', #83, #182, #19, .T. ) ;
#299 = ORIENTED_EDGE ( 'NONE', *, *, #220, .F. ) ;
#300 =( CONVERSION_BASED_UNIT ( 'INCH', #80 ) LENGTH_UNIT ( ) NAMED_UNIT ( #33 ) );
#301 = VERTEX_POINT ( 'NONE', #176 ) ;
#302 = DIMENSIONAL_EXPONENTS ( 1.000000000000000000, 0.000000000000000000, 0.000000000000000000, 0.000000000000000000, 0.000000000000000000, 0.000000000000000000, 0.000000000000000000 ) ;
#303 =( GEOMETRIC_REPRESENTATION_CONTEXT ( 3 ) GLOBAL_UNCERTAINTY_ASSIGNED_CONTEXT ( ( #144 ) ) GLOBAL_UNIT_ASSIGNED_CONTEXT ( ( #28, #84, #63 ) ) REPRESENTATION_CONTEXT ( 'NONE', 'WORKASPACE' ) );
#304 = DIRECTION ( 'NONE',  ( -4.453261087808560759E-17, 1.000000000000000000, -0.000000000000000000 ) ) ;
#305 = CARTESIAN_POINT ( 'NONE',  ( 0.000000000000000000, 0.000000000000000000, 0.000000000000000000 ) ) ;
#306 =( CONVERSION_BASED_UNIT ( 'INCH', #263 ) LENGTH_UNIT ( ) NAMED_UNIT ( #280 ) );
#307 = LENGTH_MEASURE_WITH_UNIT ( LENGTH_MEASURE( 0.02539999999999999897 ), #243 );
#308 = AXIS2_PLACEMENT_3D ( 'NONE', #305, #41, #218 ) ;
#309 = AXIS2_PLACEMENT_3D ( 'NONE', #261, #145, #138 ) ;
ENDSEC;
END-ISO-10303-21;
