ISO-10303-21;
HEADER;
FILE_DESCRIPTION (( 'STEP AP214' ),
    '1' );
FILE_NAME ('84791.STEP',
    '2023-07-05T16:29:35',
    ( '' ),
    ( '' ),
    'SwSTEP 2.0',
    'SolidWorks 2023',
    '' );
FILE_SCHEMA (( 'AUTOMOTIVE_DESIGN' ));
ENDSEC;

DATA;
#1 = CIRCLE ( 'NONE', #192, 0.3749999999999999445 ) ;
#2 = SHAPE_DEFINITION_REPRESENTATION ( #194, #206 ) ;
#3 = PRESENTATION_LAYER_ASSIGNMENT (  '', '', ( #108 ) ) ;
#4 =( NAMED_UNIT ( * ) PLANE_ANGLE_UNIT ( ) SI_UNIT ( $, .RADIAN. ) );
#5 = CARTESIAN_POINT ( 'NONE',  ( 0.3749999999999998890, 3.000000000000000444, 4.592425496802572986E-17 ) ) ;
#6 = ORIENTED_EDGE ( 'NONE', *, *, #244, .F. ) ;
#7 = AXIS2_PLACEMENT_3D ( 'NONE', #172, #94, #73 ) ;
#8 = DIRECTION ( 'NONE',  ( -1.457912856127801637E-16, 1.000000000000000000, -0.000000000000000000 ) ) ;
#9 = PLANE ( 'NONE',  #171 ) ;
#10 = ORIENTED_EDGE ( 'NONE', *, *, #61, .F. ) ;
#11 = LINE ( 'NONE', #125, #99 ) ;
#12 = LENGTH_MEASURE_WITH_UNIT ( LENGTH_MEASURE( 0.02539999999999999897 ), #129 );
#13 = MANIFOLD_SOLID_BREP ( 'Revolve - Tool Body (Pointed)', #230 ) ;
#14 = FILL_AREA_STYLE_COLOUR ( '', #23 ) ;
#15 =( LENGTH_UNIT ( ) NAMED_UNIT ( * ) SI_UNIT ( $, .METRE. ) );
#16 = MANIFOLD_SOLID_BREP ( 'Revolve - Cutting Edge', #143 ) ;
#17 = DIRECTION ( 'NONE',  ( 0.000000000000000000, 0.000000000000000000, -1.000000000000000000 ) ) ;
#18 =( GEOMETRIC_REPRESENTATION_CONTEXT ( 3 ) GLOBAL_UNCERTAINTY_ASSIGNED_CONTEXT ( ( #104 ) ) GLOBAL_UNIT_ASSIGNED_CONTEXT ( ( #112, #152, #24 ) ) REPRESENTATION_CONTEXT ( 'NONE', 'WORKASPACE' ) );
#19 = SURFACE_SIDE_STYLE ('',( #21 ) ) ;
#20 = LENGTH_MEASURE_WITH_UNIT ( LENGTH_MEASURE( 0.02539999999999999897 ), #50 );
#21 = SURFACE_STYLE_FILL_AREA ( #135 ) ;
#22 = DIRECTION ( 'NONE',  ( -0.000000000000000000, -1.000000000000000000, -0.000000000000000000 ) ) ;
#23 = COLOUR_RGB ( '',1.000000000000000000, 0.000000000000000000, 0.000000000000000000 ) ;
#24 =( NAMED_UNIT ( * ) SI_UNIT ( $, .STERADIAN. ) SOLID_ANGLE_UNIT ( ) );
#25 = PRODUCT ( '84791', '84791', '', ( #245 ) ) ;
#26 = AXIS2_PLACEMENT_3D ( 'NONE', #250, #119, #197 ) ;
#27 = ADVANCED_FACE ( 'NONE', ( #183 ), #157, .T. ) ;
#28 = CARTESIAN_POINT ( 'NONE',  ( -0.3749999999999992784, 0.3749999999999985012, 0.000000000000000000 ) ) ;
#29 = ORIENTED_EDGE ( 'NONE', *, *, #109, .F. ) ;
#30 = CARTESIAN_POINT ( 'NONE',  ( -0.3750000000000000555, 3.000000000000000444, 0.000000000000000000 ) ) ;
#31 = APPLICATION_CONTEXT ( 'automotive_design' ) ;
#32 = STYLED_ITEM ( 'NONE', ( #191 ), #16 ) ;
#33 = CARTESIAN_POINT ( 'NONE',  ( -6.123233995736770966E-17, 3.000000000000000444, 0.000000000000000000 ) ) ;
#34 = ORIENTED_EDGE ( 'NONE', *, *, #193, .F. ) ;
#35 = CARTESIAN_POINT ( 'NONE',  ( 0.000000000000000000, 0.3749999999999987232, 0.000000000000000000 ) ) ;
#36 = LINE ( 'NONE', #156, #223 ) ;
#37 = ORIENTED_EDGE ( 'NONE', *, *, #244, .T. ) ;
#38 = DIRECTION ( 'NONE',  ( -0.000000000000000000, -1.000000000000000000, -0.000000000000000000 ) ) ;
#39 = FACE_OUTER_BOUND ( 'NONE', #161, .T. ) ;
#40 = SURFACE_SIDE_STYLE ('',( #224 ) ) ;
#41 = DIMENSIONAL_EXPONENTS ( 1.000000000000000000, 0.000000000000000000, 0.000000000000000000, 0.000000000000000000, 0.000000000000000000, 0.000000000000000000, 0.000000000000000000 ) ;
#42 =( NAMED_UNIT ( * ) SI_UNIT ( $, .STERADIAN. ) SOLID_ANGLE_UNIT ( ) );
#43 = CIRCLE ( 'NONE', #146, 0.3749999999999999445 ) ;
#44 = UNCERTAINTY_MEASURE_WITH_UNIT (LENGTH_MEASURE( 1.000000000000000082E-05 ), #182, 'distance_accuracy_value', 'NONE');
#45 = PRODUCT_DEFINITION_FORMATION_WITH_SPECIFIED_SOURCE ( 'ANY', '', #25, .NOT_KNOWN. ) ;
#46 = CARTESIAN_POINT ( 'NONE',  ( 3.214697847761804542E-16, 0.3749999999999986122, 0.000000000000000000 ) ) ;
#47 = SURFACE_STYLE_FILL_AREA ( #265 ) ;
#48 = FILL_AREA_STYLE ('',( #233 ) ) ;
#49 = DIRECTION ( 'NONE',  ( -1.457912856127801637E-16, 1.000000000000000000, -0.000000000000000000 ) ) ;
#50 =( LENGTH_UNIT ( ) NAMED_UNIT ( * ) SI_UNIT ( $, .METRE. ) );
#51 = LINE ( 'NONE', #131, #195 ) ;
#52 = SURFACE_STYLE_USAGE ( .BOTH. , #40 ) ;
#53 = LENGTH_MEASURE_WITH_UNIT ( LENGTH_MEASURE( 0.02539999999999999897 ), #190 );
#54 = APPLICATION_PROTOCOL_DEFINITION ( 'draft international standard', 'automotive_design', 1998, #113 ) ;
#55 = SURFACE_STYLE_USAGE ( .BOTH. , #19 ) ;
#56 = CARTESIAN_POINT ( 'NONE',  ( 0.000000000000000000, 0.3749999999999987232, 0.000000000000000000 ) ) ;
#57 = ADVANCED_FACE ( 'NONE', ( #199 ), #80, .F. ) ;
#58 = LINE ( 'NONE', #136, #134 ) ;
#59 =( NAMED_UNIT ( * ) SI_UNIT ( $, .STERADIAN. ) SOLID_ANGLE_UNIT ( ) );
#60 = VERTEX_POINT ( 'NONE', #234 ) ;
#61 = EDGE_CURVE ( 'NONE', #142, #118, #74, .T. ) ;
#62 = AXIS2_PLACEMENT_3D ( 'NONE', #82, #158, #160 ) ;
#63 = CARTESIAN_POINT ( 'NONE',  ( 0.000000000000000000, 0.000000000000000000, 0.000000000000000000 ) ) ;
#64 = ORIENTED_EDGE ( 'NONE', *, *, #193, .T. ) ;
#65 =( NAMED_UNIT ( * ) PLANE_ANGLE_UNIT ( ) SI_UNIT ( $, .RADIAN. ) );
#66 = ADVANCED_FACE ( 'NONE', ( #178 ), #9, .F. ) ;
#67 = STYLED_ITEM ( 'NONE', ( #207 ), #261 ) ;
#68 = SURFACE_STYLE_FILL_AREA ( #167 ) ;
#69 =( CONVERSION_BASED_UNIT ( 'INCH', #12 ) LENGTH_UNIT ( ) NAMED_UNIT ( #85 ) );
#70 =( NAMED_UNIT ( * ) SI_UNIT ( $, .STERADIAN. ) SOLID_ANGLE_UNIT ( ) );
#71 = FILL_AREA_STYLE_COLOUR ( '', #236 ) ;
#72 = MECHANICAL_DESIGN_GEOMETRIC_PRESENTATION_REPRESENTATION (  '', ( #198 ), #18 ) ;
#73 = DIRECTION ( 'NONE',  ( -1.000000000000000000, 0.000000000000000000, 0.000000000000000000 ) ) ;
#74 = CIRCLE ( 'NONE', #117, 0.3749999999999999445 ) ;
#75 = PRODUCT_RELATED_PRODUCT_CATEGORY ( 'part', '', ( #25 ) ) ;
#76 = CARTESIAN_POINT ( 'NONE',  ( 3.214697847761804049E-16, 0.3749999999999987232, 0.000000000000000000 ) ) ;
#77 = ORIENTED_EDGE ( 'NONE', *, *, #168, .T. ) ;
#78 =( GEOMETRIC_REPRESENTATION_CONTEXT ( 3 ) GLOBAL_UNCERTAINTY_ASSIGNED_CONTEXT ( ( #151 ) ) GLOBAL_UNIT_ASSIGNED_CONTEXT ( ( #69, #86, #111 ) ) REPRESENTATION_CONTEXT ( 'NONE', 'WORKASPACE' ) );
#79 = EDGE_LOOP ( 'NONE', ( #29, #37, #203 ) ) ;
#80 = PLANE ( 'NONE',  #62 ) ;
#81 = EDGE_LOOP ( 'NONE', ( #138, #196 ) ) ;
#82 = CARTESIAN_POINT ( 'NONE',  ( 0.3749999999999998890, 3.000000000000000444, 0.000000000000000000 ) ) ;
#83 = VERTEX_POINT ( 'NONE', #63 ) ;
#84 =( LENGTH_UNIT ( ) NAMED_UNIT ( * ) SI_UNIT ( $, .METRE. ) );
#85 = DIMENSIONAL_EXPONENTS ( 1.000000000000000000, 0.000000000000000000, 0.000000000000000000, 0.000000000000000000, 0.000000000000000000, 0.000000000000000000, 0.000000000000000000 ) ;
#86 =( NAMED_UNIT ( * ) PLANE_ANGLE_UNIT ( ) SI_UNIT ( $, .RADIAN. ) );
#87 = FACE_OUTER_BOUND ( 'NONE', #124, .T. ) ;
#88 = DIRECTION ( 'NONE',  ( -1.000000000000000000, -1.821231995776177451E-16, 0.000000000000000000 ) ) ;
#89 = SURFACE_SIDE_STYLE ('',( #47 ) ) ;
#90 = DIRECTION ( 'NONE',  ( 0.000000000000000000, 0.000000000000000000, 1.000000000000000000 ) ) ;
#91 =( GEOMETRIC_REPRESENTATION_CONTEXT ( 3 ) GLOBAL_UNCERTAINTY_ASSIGNED_CONTEXT ( ( #140 ) ) GLOBAL_UNIT_ASSIGNED_CONTEXT ( ( #188, #242, #70 ) ) REPRESENTATION_CONTEXT ( 'NONE', 'WORKASPACE' ) );
#92 = EDGE_CURVE ( 'NONE', #60, #142, #36, .T. ) ;
#93 =( LENGTH_UNIT ( ) NAMED_UNIT ( * ) SI_UNIT ( $, .METRE. ) );
#94 = DIRECTION ( 'NONE',  ( -1.457912856127801637E-16, 1.000000000000000000, -0.000000000000000000 ) ) ;
#95 = CIRCLE ( 'NONE', #181, 0.3749999999999999445 ) ;
#96 = CARTESIAN_POINT ( 'NONE',  ( 0.000000000000000000, 0.3749999999999987232, 0.3749999999999999445 ) ) ;
#97 = ORIENTED_EDGE ( 'NONE', *, *, #246, .F. ) ;
#98 = ADVANCED_FACE ( 'NONE', ( #139 ), #202, .T. ) ;
#99 = VECTOR ( 'NONE', #144, 39.37007874015748143 ) ;
#100 = DIRECTION ( 'NONE',  ( -1.000000000000000000, 0.000000000000000000, 0.000000000000000000 ) ) ;
#101 = CARTESIAN_POINT ( 'NONE',  ( -6.123233995736770966E-17, 3.000000000000000444, 0.000000000000000000 ) ) ;
#102 = EDGE_LOOP ( 'NONE', ( #77, #200, #97, #34 ) ) ;
#103 = SURFACE_SIDE_STYLE ('',( #105 ) ) ;
#104 = UNCERTAINTY_MEASURE_WITH_UNIT (LENGTH_MEASURE( 1.000000000000000082E-05 ), #112, 'distance_accuracy_value', 'NONE');
#105 = SURFACE_STYLE_FILL_AREA ( #201 ) ;
#106 = FILL_AREA_STYLE_COLOUR ( '', #247 ) ;
#107 = LENGTH_MEASURE_WITH_UNIT ( LENGTH_MEASURE( 0.02539999999999999897 ), #15 );
#108 = STYLED_ITEM ( 'NONE', ( #209 ), #13 ) ;
#109 = EDGE_CURVE ( 'NONE', #83, #163, #58, .T. ) ;
#110 = AXIS2_PLACEMENT_3D ( 'NONE', #228, #211, #169 ) ;
#111 =( NAMED_UNIT ( * ) SI_UNIT ( $, .STERADIAN. ) SOLID_ANGLE_UNIT ( ) );
#112 =( CONVERSION_BASED_UNIT ( 'INCH', #20 ) LENGTH_UNIT ( ) NAMED_UNIT ( #260 ) );
#113 = APPLICATION_CONTEXT ( 'automotive_design' ) ;
#114 =( CONVERSION_BASED_UNIT ( 'INCH', #53 ) LENGTH_UNIT ( ) NAMED_UNIT ( #128 ) );
#115 = DIRECTION ( 'NONE',  ( 0.000000000000000000, 0.000000000000000000, -1.000000000000000000 ) ) ;
#116 = MECHANICAL_DESIGN_GEOMETRIC_PRESENTATION_REPRESENTATION (  '', ( #67 ), #263 ) ;
#117 = AXIS2_PLACEMENT_3D ( 'NONE', #33, #8, #100 ) ;
#118 = VERTEX_POINT ( 'NONE', #30 ) ;
#119 = DIRECTION ( 'NONE',  ( -1.457912856127801637E-16, 1.000000000000000000, -0.000000000000000000 ) ) ;
#120 = PRODUCT_DEFINITION_CONTEXT ( 'detailed design', #31, 'design' ) ;
#121 = DIRECTION ( 'NONE',  ( -1.000000000000000000, 0.000000000000000000, 0.000000000000000000 ) ) ;
#122 = PRODUCT_DEFINITION ( 'UNKNOWN', '', #45, #120 ) ;
#123 = DIRECTION ( 'NONE',  ( -1.457912856127801637E-16, 1.000000000000000000, -0.000000000000000000 ) ) ;
#124 = EDGE_LOOP ( 'NONE', ( #6, #252, #235 ) ) ;
#125 = CARTESIAN_POINT ( 'NONE',  ( 0.000000000000000000, 0.000000000000000000, 0.000000000000000000 ) ) ;
#126 = MECHANICAL_DESIGN_GEOMETRIC_PRESENTATION_REPRESENTATION (  '', ( #175 ), #133 ) ;
#127 = SURFACE_STYLE_USAGE ( .BOTH. , #89 ) ;
#128 = DIMENSIONAL_EXPONENTS ( 1.000000000000000000, 0.000000000000000000, 0.000000000000000000, 0.000000000000000000, 0.000000000000000000, 0.000000000000000000, 0.000000000000000000 ) ;
#129 =( LENGTH_UNIT ( ) NAMED_UNIT ( * ) SI_UNIT ( $, .METRE. ) );
#130 = COLOUR_RGB ( '',0.7921568627450980005, 0.8196078431372548767, 0.9333333333333333481 ) ;
#131 = CARTESIAN_POINT ( 'NONE',  ( -0.3749999999999998890, 3.000000000000000444, 0.000000000000000000 ) ) ;
#132 = APPLICATION_PROTOCOL_DEFINITION ( 'draft international standard', 'automotive_design', 1998, #31 ) ;
#133 =( GEOMETRIC_REPRESENTATION_CONTEXT ( 3 ) GLOBAL_UNCERTAINTY_ASSIGNED_CONTEXT ( ( #189 ) ) GLOBAL_UNIT_ASSIGNED_CONTEXT ( ( #114, #4, #59 ) ) REPRESENTATION_CONTEXT ( 'NONE', 'WORKASPACE' ) );
#134 = VECTOR ( 'NONE', #215, 39.37007874015748143 ) ;
#135 = FILL_AREA_STYLE ('',( #71 ) ) ;
#136 = CARTESIAN_POINT ( 'NONE',  ( 0.000000000000000000, 0.000000000000000000, 0.000000000000000000 ) ) ;
#137 =( GEOMETRIC_REPRESENTATION_CONTEXT ( 3 ) GLOBAL_UNCERTAINTY_ASSIGNED_CONTEXT ( ( #44 ) ) GLOBAL_UNIT_ASSIGNED_CONTEXT ( ( #182, #65, #42 ) ) REPRESENTATION_CONTEXT ( 'NONE', 'WORKASPACE' ) );
#138 = ORIENTED_EDGE ( 'NONE', *, *, #246, .T. ) ;
#139 = FACE_OUTER_BOUND ( 'NONE', #102, .T. ) ;
#140 = UNCERTAINTY_MEASURE_WITH_UNIT (LENGTH_MEASURE( 1.000000000000000082E-05 ), #188, 'distance_accuracy_value', 'NONE');
#141 = VERTEX_POINT ( 'NONE', #28 ) ;
#142 = VERTEX_POINT ( 'NONE', #5 ) ;
#143 = CLOSED_SHELL ( 'NONE', ( #229, #27, #261 ) ) ;
#144 = DIRECTION ( 'NONE',  ( 8.659560562354947649E-17, 0.7071067811865463515, -0.7071067811865486830 ) ) ;
#145 = CARTESIAN_POINT ( 'NONE',  ( 4.592425496802574219E-17, 0.3749999999999987232, -0.3749999999999999445 ) ) ;
#146 = AXIS2_PLACEMENT_3D ( 'NONE', #101, #49, #121 ) ;
#147 = SURFACE_SIDE_STYLE ('',( #68 ) ) ;
#148 = DIRECTION ( 'NONE',  ( 0.000000000000000000, 0.000000000000000000, 1.000000000000000000 ) ) ;
#149 = PRESENTATION_STYLE_ASSIGNMENT (( #225 ) ) ;
#150 = CIRCLE ( 'NONE', #26, 0.3749999999999996114 ) ;
#151 = UNCERTAINTY_MEASURE_WITH_UNIT (LENGTH_MEASURE( 1.000000000000000082E-05 ), #69, 'distance_accuracy_value', 'NONE');
#152 =( NAMED_UNIT ( * ) PLANE_ANGLE_UNIT ( ) SI_UNIT ( $, .RADIAN. ) );
#153 = MECHANICAL_DESIGN_GEOMETRIC_PRESENTATION_REPRESENTATION (  '', ( #108 ), #78 ) ;
#154 = CARTESIAN_POINT ( 'NONE',  ( 0.000000000000000000, 0.3749999999999987232, 0.000000000000000000 ) ) ;
#155 = MECHANICAL_DESIGN_GEOMETRIC_PRESENTATION_REPRESENTATION (  '', ( #32 ), #91 ) ;
#156 = CARTESIAN_POINT ( 'NONE',  ( 0.3749999999999997780, 3.000000000000000444, 4.592425496802572370E-17 ) ) ;
#157 = PLANE ( 'NONE',  #187 ) ;
#158 = DIRECTION ( 'NONE',  ( 1.457912856127801637E-16, -1.000000000000000000, 0.000000000000000000 ) ) ;
#159 = ORIENTED_EDGE ( 'NONE', *, *, #170, .T. ) ;
#160 = DIRECTION ( 'NONE',  ( 1.000000000000000000, 1.457912856127801637E-16, 0.000000000000000000 ) ) ;
#161 = EDGE_LOOP ( 'NONE', ( #179, #159, #64, #10 ) ) ;
#162 = DIRECTION ( 'NONE',  ( -1.457912856127801637E-16, 1.000000000000000000, -0.000000000000000000 ) ) ;
#163 = VERTEX_POINT ( 'NONE', #96 ) ;
#164 = LENGTH_MEASURE_WITH_UNIT ( LENGTH_MEASURE( 0.02539999999999999897 ), #93 );
#165 = PRESENTATION_LAYER_ASSIGNMENT (  '', '', ( #67 ) ) ;
#166 = UNCERTAINTY_MEASURE_WITH_UNIT (LENGTH_MEASURE( 1.000000000000000082E-05 ), #257, 'distance_accuracy_value', 'NONE');
#167 = FILL_AREA_STYLE ('',( #106 ) ) ;
#168 = EDGE_CURVE ( 'NONE', #141, #60, #150, .T. ) ;
#169 = DIRECTION ( 'NONE',  ( 1.000000000000000000, 0.000000000000000000, 0.000000000000000000 ) ) ;
#170 = EDGE_CURVE ( 'NONE', #60, #141, #262, .T. ) ;
#171 = AXIS2_PLACEMENT_3D ( 'NONE', #76, #255, #237 ) ;
#172 = CARTESIAN_POINT ( 'NONE',  ( -6.123233995736772199E-17, 3.000000000000000444, 0.000000000000000000 ) ) ;
#173 = CARTESIAN_POINT ( 'NONE',  ( -6.123233995736772199E-17, 3.000000000000000444, 0.000000000000000000 ) ) ;
#174 = EDGE_LOOP ( 'NONE', ( #177, #216 ) ) ;
#175 = STYLED_ITEM ( 'NONE', ( #243 ), #229 ) ;
#176 = EDGE_LOOP ( 'NONE', ( #180, #254 ) ) ;
#177 = ORIENTED_EDGE ( 'NONE', *, *, #168, .F. ) ;
#178 = FACE_OUTER_BOUND ( 'NONE', #174, .T. ) ;
#179 = ORIENTED_EDGE ( 'NONE', *, *, #92, .F. ) ;
#180 = ORIENTED_EDGE ( 'NONE', *, *, #218, .F. ) ;
#181 = AXIS2_PLACEMENT_3D ( 'NONE', #56, #22, #115 ) ;
#182 =( CONVERSION_BASED_UNIT ( 'INCH', #238 ) LENGTH_UNIT ( ) NAMED_UNIT ( #256 ) );
#183 = FACE_OUTER_BOUND ( 'NONE', #176, .T. ) ;
#184 = DIRECTION ( 'NONE',  ( 0.000000000000000000, 1.000000000000000000, 0.000000000000000000 ) ) ;
#185 = DIRECTION ( 'NONE',  ( -1.457912856127801637E-16, 1.000000000000000000, -0.000000000000000000 ) ) ;
#186 = FILL_AREA_STYLE_COLOUR ( '', #239 ) ;
#187 = AXIS2_PLACEMENT_3D ( 'NONE', #154, #253, #220 ) ;
#188 =( CONVERSION_BASED_UNIT ( 'INCH', #164 ) LENGTH_UNIT ( ) NAMED_UNIT ( #226 ) );
#189 = UNCERTAINTY_MEASURE_WITH_UNIT (LENGTH_MEASURE( 1.000000000000000082E-05 ), #114, 'distance_accuracy_value', 'NONE');
#190 =( LENGTH_UNIT ( ) NAMED_UNIT ( * ) SI_UNIT ( $, .METRE. ) );
#191 = PRESENTATION_STYLE_ASSIGNMENT (( #127 ) ) ;
#192 = AXIS2_PLACEMENT_3D ( 'NONE', #35, #38, #17 ) ;
#193 = EDGE_CURVE ( 'NONE', #141, #118, #51, .T. ) ;
#194 = PRODUCT_DEFINITION_SHAPE ( 'NONE', 'NONE',  #122 ) ;
#195 = VECTOR ( 'NONE', #162, 39.37007874015748143 ) ;
#196 = ORIENTED_EDGE ( 'NONE', *, *, #61, .T. ) ;
#197 = DIRECTION ( 'NONE',  ( -1.000000000000000000, -1.821231995776177451E-16, 0.000000000000000000 ) ) ;
#198 = STYLED_ITEM ( 'NONE', ( #149 ), #27 ) ;
#199 = FACE_OUTER_BOUND ( 'NONE', #81, .T. ) ;
#200 = ORIENTED_EDGE ( 'NONE', *, *, #92, .T. ) ;
#201 = FILL_AREA_STYLE ('',( #14 ) ) ;
#202 = CYLINDRICAL_SURFACE ( 'NONE', #210, 0.3749999999999998335 ) ;
#203 = ORIENTED_EDGE ( 'NONE', *, *, #241, .T. ) ;
#204 =( NAMED_UNIT ( * ) PLANE_ANGLE_UNIT ( ) SI_UNIT ( $, .RADIAN. ) );
#205 = CYLINDRICAL_SURFACE ( 'NONE', #7, 0.3749999999999998335 ) ;
#206 = ADVANCED_BREP_SHAPE_REPRESENTATION ( '84791', ( #16, #13, #110 ), #137 ) ;
#207 = PRESENTATION_STYLE_ASSIGNMENT (( #259 ) ) ;
#208 = ADVANCED_FACE ( 'NONE', ( #39 ), #205, .T. ) ;
#209 = PRESENTATION_STYLE_ASSIGNMENT (( #52 ) ) ;
#210 = AXIS2_PLACEMENT_3D ( 'NONE', #173, #217, #249 ) ;
#211 = DIRECTION ( 'NONE',  ( 0.000000000000000000, 0.000000000000000000, 1.000000000000000000 ) ) ;
#212 = AXIS2_PLACEMENT_3D ( 'NONE', #213, #240, #90 ) ;
#213 = CARTESIAN_POINT ( 'NONE',  ( 0.000000000000000000, 39.37007874015748143, 0.000000000000000000 ) ) ;
#214 = CONICAL_SURFACE ( 'NONE', #212, 39.37007874015760933, 0.7853981633974499443 ) ;
#215 = DIRECTION ( 'NONE',  ( 0.000000000000000000, 0.7071067811865463515, 0.7071067811865486830 ) ) ;
#216 = ORIENTED_EDGE ( 'NONE', *, *, #170, .F. ) ;
#217 = DIRECTION ( 'NONE',  ( -1.457912856127801637E-16, 1.000000000000000000, -0.000000000000000000 ) ) ;
#218 = EDGE_CURVE ( 'NONE', #163, #251, #95, .T. ) ;
#219 = PRESENTATION_LAYER_ASSIGNMENT (  '', '', ( #32 ) ) ;
#220 = DIRECTION ( 'NONE',  ( 0.000000000000000000, -0.000000000000000000, 1.000000000000000000 ) ) ;
#221 = AXIS2_PLACEMENT_3D ( 'NONE', #222, #184, #148 ) ;
#222 = CARTESIAN_POINT ( 'NONE',  ( 0.000000000000000000, 39.37007874015748143, 0.000000000000000000 ) ) ;
#223 = VECTOR ( 'NONE', #123, 39.37007874015748143 ) ;
#224 = SURFACE_STYLE_FILL_AREA ( #48 ) ;
#225 = SURFACE_STYLE_USAGE ( .BOTH. , #147 ) ;
#226 = DIMENSIONAL_EXPONENTS ( 1.000000000000000000, 0.000000000000000000, 0.000000000000000000, 0.000000000000000000, 0.000000000000000000, 0.000000000000000000, 0.000000000000000000 ) ;
#227 = PRESENTATION_LAYER_ASSIGNMENT (  '', '', ( #198 ) ) ;
#228 = CARTESIAN_POINT ( 'NONE',  ( 0.000000000000000000, 0.000000000000000000, 0.000000000000000000 ) ) ;
#229 = ADVANCED_FACE ( 'NONE', ( #231 ), #214, .T. ) ;
#230 = CLOSED_SHELL ( 'NONE', ( #98, #66, #208, #57 ) ) ;
#231 = FACE_OUTER_BOUND ( 'NONE', #79, .T. ) ;
#232 = AXIS2_PLACEMENT_3D ( 'NONE', #46, #185, #88 ) ;
#233 = FILL_AREA_STYLE_COLOUR ( '', #130 ) ;
#234 = CARTESIAN_POINT ( 'NONE',  ( 0.3749999999999999445, 0.3749999999999986677, 4.592425496802574219E-17 ) ) ;
#235 = ORIENTED_EDGE ( 'NONE', *, *, #218, .T. ) ;
#236 = COLOUR_RGB ( '',1.000000000000000000, 0.000000000000000000, 0.000000000000000000 ) ;
#237 = DIRECTION ( 'NONE',  ( -1.000000000000000000, -1.457912856127801637E-16, 0.000000000000000000 ) ) ;
#238 = LENGTH_MEASURE_WITH_UNIT ( LENGTH_MEASURE( 0.02539999999999999897 ), #84 );
#239 = COLOUR_RGB ( '',0.7921568627450980005, 0.8196078431372548767, 0.9333333333333333481 ) ;
#240 = DIRECTION ( 'NONE',  ( 0.000000000000000000, 1.000000000000000000, 0.000000000000000000 ) ) ;
#241 = EDGE_CURVE ( 'NONE', #251, #163, #1, .T. ) ;
#242 =( NAMED_UNIT ( * ) PLANE_ANGLE_UNIT ( ) SI_UNIT ( $, .RADIAN. ) );
#243 = PRESENTATION_STYLE_ASSIGNMENT (( #55 ) ) ;
#244 = EDGE_CURVE ( 'NONE', #83, #251, #11, .T. ) ;
#245 = PRODUCT_CONTEXT ( 'NONE', #113, 'mechanical' ) ;
#246 = EDGE_CURVE ( 'NONE', #118, #142, #43, .T. ) ;
#247 = COLOUR_RGB ( '',1.000000000000000000, 0.000000000000000000, 0.000000000000000000 ) ;
#248 = CONICAL_SURFACE ( 'NONE', #221, 39.37007874015760933, 0.7853981633974499443 ) ;
#249 = DIRECTION ( 'NONE',  ( -1.000000000000000000, 0.000000000000000000, 0.000000000000000000 ) ) ;
#250 = CARTESIAN_POINT ( 'NONE',  ( 3.214697847761804542E-16, 0.3749999999999986122, 0.000000000000000000 ) ) ;
#251 = VERTEX_POINT ( 'NONE', #145 ) ;
#252 = ORIENTED_EDGE ( 'NONE', *, *, #109, .T. ) ;
#253 = DIRECTION ( 'NONE',  ( 0.000000000000000000, 1.000000000000000000, 0.000000000000000000 ) ) ;
#254 = ORIENTED_EDGE ( 'NONE', *, *, #241, .F. ) ;
#255 = DIRECTION ( 'NONE',  ( -1.457912856127801637E-16, 1.000000000000000000, 0.000000000000000000 ) ) ;
#256 = DIMENSIONAL_EXPONENTS ( 1.000000000000000000, 0.000000000000000000, 0.000000000000000000, 0.000000000000000000, 0.000000000000000000, 0.000000000000000000, 0.000000000000000000 ) ;
#257 =( CONVERSION_BASED_UNIT ( 'INCH', #107 ) LENGTH_UNIT ( ) NAMED_UNIT ( #41 ) );
#258 = PRESENTATION_LAYER_ASSIGNMENT (  '', '', ( #175 ) ) ;
#259 = SURFACE_STYLE_USAGE ( .BOTH. , #103 ) ;
#260 = DIMENSIONAL_EXPONENTS ( 1.000000000000000000, 0.000000000000000000, 0.000000000000000000, 0.000000000000000000, 0.000000000000000000, 0.000000000000000000, 0.000000000000000000 ) ;
#261 = ADVANCED_FACE ( 'NONE', ( #87 ), #248, .T. ) ;
#262 = CIRCLE ( 'NONE', #232, 0.3749999999999996114 ) ;
#263 =( GEOMETRIC_REPRESENTATION_CONTEXT ( 3 ) GLOBAL_UNCERTAINTY_ASSIGNED_CONTEXT ( ( #166 ) ) GLOBAL_UNIT_ASSIGNED_CONTEXT ( ( #257, #204, #264 ) ) REPRESENTATION_CONTEXT ( 'NONE', 'WORKASPACE' ) );
#264 =( NAMED_UNIT ( * ) SI_UNIT ( $, .STERADIAN. ) SOLID_ANGLE_UNIT ( ) );
#265 = FILL_AREA_STYLE ('',( #186 ) ) ;
ENDSEC;
END-ISO-10303-21;
