ISO-10303-21;
HEADER;
FILE_DESCRIPTION (( 'STEP AP214' ),
    '1' );
FILE_NAME ('Micro_RME-035-2.STEP',
    '2021-09-01T23:17:46',
    ( '' ),
    ( '' ),
    'SwSTEP 2.0',
    'SolidWorks 2020',
    '' );
FILE_SCHEMA (( 'AUTOMOTIVE_DESIGN' ));
ENDSEC;

DATA;
#1 = STYLED_ITEM ( 'NONE', ( #203 ), #86 ) ;
#2 = DIRECTION ( 'NONE',  ( -1.000000000000000000, 0.0000000000000000000, 0.0000000000000000000 ) ) ;
#3 = DIRECTION ( 'NONE',  ( 1.000000000000000000, 0.0000000000000000000, 0.0000000000000000000 ) ) ;
#4 = EDGE_CURVE ( 'NONE', #250, #129, #178, .T. ) ;
#5 = DIRECTION ( 'NONE',  ( 0.0000000000000000000, 0.0000000000000000000, -1.000000000000000000 ) ) ;
#6 = CARTESIAN_POINT ( 'NONE',  ( 0.0000000000000000000, 0.0000000000000000000, 0.0000000000000000000 ) ) ;
#7 = CIRCLE ( 'NONE', #48, 0.01748250000000000151 ) ;
#8 = EDGE_LOOP ( 'NONE', ( #268, #91, #174, #65 ) ) ;
#9 = DIRECTION ( 'NONE',  ( 1.000000000000000000, 0.0000000000000000000, -0.0000000000000000000 ) ) ;
#10 = ORIENTED_EDGE ( 'NONE', *, *, #22, .T. ) ;
#11 = ORIENTED_EDGE ( 'NONE', *, *, #176, .T. ) ;
#12 = CIRCLE ( 'NONE', #264, 0.04750000000000064587 ) ;
#13 = MECHANICAL_DESIGN_GEOMETRIC_PRESENTATION_REPRESENTATION (  '', ( #251 ), #215 ) ;
#14 = DIRECTION ( 'NONE',  ( -1.000000000000000000, 0.0000000000000000000, 0.0000000000000000000 ) ) ;
#15 = ORIENTED_EDGE ( 'NONE', *, *, #249, .T. ) ;
#16 = APPLICATION_PROTOCOL_DEFINITION ( 'draft international standard', 'automotive_design', 1998, #159 ) ;
#17 = ADVANCED_FACE ( 'NONE', ( #128 ), #127, .T. ) ;
#18 = PRESENTATION_LAYER_ASSIGNMENT (  '', '', ( #1 ) ) ;
#19 = AXIS2_PLACEMENT_3D ( 'NONE', #189, #27, #2 ) ;
#20 = LINE ( 'NONE', #45, #256 ) ;
#21 = ORIENTED_EDGE ( 'NONE', *, *, #113, .F. ) ;
#22 = EDGE_CURVE ( 'NONE', #250, #142, #61, .T. ) ;
#23 = CARTESIAN_POINT ( 'NONE',  ( 0.04750000000000064587, 6.735557395310483192E-18, 1.500000000000000222 ) ) ;
#24 = DIRECTION ( 'NONE',  ( -1.224646799147353454E-16, -0.0000000000000000000, -1.000000000000000000 ) ) ;
#25 = ORIENTED_EDGE ( 'NONE', *, *, #125, .F. ) ;
#26 = DIRECTION ( 'NONE',  ( -0.0000000000000000000, -0.0000000000000000000, -1.000000000000000000 ) ) ;
#27 = DIRECTION ( 'NONE',  ( -0.0000000000000000000, -0.0000000000000000000, -1.000000000000000000 ) ) ;
#28 = ORIENTED_EDGE ( 'NONE', *, *, #52, .T. ) ;
#29 = FACE_OUTER_BOUND ( 'NONE', #167, .T. ) ;
#30 = CONICAL_SURFACE ( 'NONE', #290, 0.01748250000000000151, 0.1745329251994338915 ) ;
#31 = CONICAL_SURFACE ( 'NONE', #149, 0.04750000000000064587, 0.7853981633974466137 ) ;
#32 = FILL_AREA_STYLE_COLOUR ( '', #44 ) ;
#33 = ORIENTED_EDGE ( 'NONE', *, *, #130, .T. ) ;
#34 = EDGE_CURVE ( 'NONE', #212, #50, #12, .T. ) ;
#35 = EDGE_LOOP ( 'NONE', ( #246, #10, #240, #175 ) ) ;
#36 = AXIS2_PLACEMENT_3D ( 'NONE', #295, #89, #64 ) ;
#37 = SURFACE_STYLE_USAGE ( .BOTH. , #243 ) ;
#38 = ORIENTED_EDGE ( 'NONE', *, *, #43, .T. ) ;
#39 = ADVANCED_BREP_SHAPE_REPRESENTATION ( 'Micro_RME-035-2', ( #86, #70 ), #101 ) ;
#40 = FILL_AREA_STYLE_COLOUR ( '', #213 ) ;
#41 = EDGE_LOOP ( 'NONE', ( #285, #15, #21, #106 ) ) ;
#42 = DIRECTION ( 'NONE',  ( -1.224646799147353454E-16, -0.0000000000000000000, -1.000000000000000000 ) ) ;
#43 = EDGE_CURVE ( 'NONE', #75, #142, #148, .T. ) ;
#44 = COLOUR_RGB ( '',0.7921568627450980005, 0.8196078431372548767, 0.9333333333333333481 ) ;
#45 = CARTESIAN_POINT ( 'NONE',  ( 0.01748250000000000151, 2.140988766609360157E-18, -2.140988766609360927E-18 ) ) ;
#46 = DIRECTION ( 'NONE',  ( -1.000000000000000000, 0.0000000000000000000, 0.0000000000000000000 ) ) ;
#47 = CARTESIAN_POINT ( 'NONE',  ( 0.06250000000000002776, 7.654042494670959086E-18, 1.485000000000000764 ) ) ;
#48 = AXIS2_PLACEMENT_3D ( 'NONE', #121, #164, #100 ) ;
#49 = DIRECTION ( 'NONE',  ( 1.000000000000000000, 0.0000000000000000000, 0.0000000000000000000 ) ) ;
#50 = VERTEX_POINT ( 'NONE', #23 ) ;
#51 = DIRECTION ( 'NONE',  ( 0.0000000000000000000, 0.0000000000000000000, 1.000000000000000000 ) ) ;
#52 = EDGE_CURVE ( 'NONE', #56, #62, #232, .T. ) ;
#53 = FACE_OUTER_BOUND ( 'NONE', #244, .T. ) ;
#54 = AXIS2_PLACEMENT_3D ( 'NONE', #162, #139, #261 ) ;
#55 = PRODUCT_CONTEXT ( 'NONE', #159, 'mechanical' ) ;
#56 = VERTEX_POINT ( 'NONE', #66 ) ;
#57 = EDGE_LOOP ( 'NONE', ( #194, #145, #38, #179 ) ) ;
#58 = EDGE_CURVE ( 'NONE', #56, #218, #115, .T. ) ;
#59 = ORIENTED_EDGE ( 'NONE', *, *, #104, .F. ) ;
#60 = DIRECTION ( 'NONE',  ( 1.000000000000000000, 0.0000000000000000000, 0.0000000000000000000 ) ) ;
#61 = LINE ( 'NONE', #107, #230 ) ;
#62 = VERTEX_POINT ( 'NONE', #205 ) ;
#63 =( NAMED_UNIT ( * ) SI_UNIT ( $, .STERADIAN. ) SOLID_ANGLE_UNIT ( ) );
#64 = DIRECTION ( 'NONE',  ( 1.000000000000000000, 0.0000000000000000000, 0.0000000000000000000 ) ) ;
#65 = ORIENTED_EDGE ( 'NONE', *, *, #4, .F. ) ;
#66 = CARTESIAN_POINT ( 'NONE',  ( -0.01748249999999999110, 4.897515630640160392E-18, 0.1049999999999999961 ) ) ;
#67 = CYLINDRICAL_SURFACE ( 'NONE', #82, 0.01748250000000000151 ) ;
#68 = AXIS2_PLACEMENT_3D ( 'NONE', #132, #144, #248 ) ;
#69 = CIRCLE ( 'NONE', #109, 0.04750000000000064587 ) ;
#70 = AXIS2_PLACEMENT_3D ( 'NONE', #265, #272, #84 ) ;
#71 = CARTESIAN_POINT ( 'NONE',  ( 0.0000000000000000000, 0.0000000000000000000, 1.500000000000000222 ) ) ;
#72 = DIRECTION ( 'NONE',  ( 0.0000000000000000000, 0.0000000000000000000, 1.000000000000000000 ) ) ;
#73 = DIRECTION ( 'NONE',  ( -1.000000000000000000, 0.0000000000000000000, 1.224646799147353454E-16 ) ) ;
#74 = LINE ( 'NONE', #207, #188 ) ;
#75 = VERTEX_POINT ( 'NONE', #255 ) ;
#76 = ADVANCED_FACE ( 'NONE', ( #111 ), #226, .T. ) ;
#77 = FACE_OUTER_BOUND ( 'NONE', #41, .T. ) ;
#78 = CARTESIAN_POINT ( 'NONE',  ( -0.06249999999999997918, 0.0000000000000000000, 0.3603069293146389240 ) ) ;
#79 = AXIS2_PLACEMENT_3D ( 'NONE', #96, #122, #277 ) ;
#80 = DIRECTION ( 'NONE',  ( 0.0000000000000000000, 0.0000000000000000000, 1.000000000000000000 ) ) ;
#81 =( CONVERSION_BASED_UNIT ( 'INCH', #192 ) LENGTH_UNIT ( ) NAMED_UNIT ( #266 ) );
#82 = AXIS2_PLACEMENT_3D ( 'NONE', #157, #42, #228 ) ;
#83 = AXIS2_PLACEMENT_3D ( 'NONE', #6, #24, #73 ) ;
#84 = DIRECTION ( 'NONE',  ( 1.000000000000000000, 0.0000000000000000000, 0.0000000000000000000 ) ) ;
#85 = ORIENTED_EDGE ( 'NONE', *, *, #98, .T. ) ;
#86 = MANIFOLD_SOLID_BREP ( 'Cut-Revolve1', #155 ) ;
#87 = ADVANCED_FACE ( 'NONE', ( #257 ), #30, .T. ) ;
#88 = DIRECTION ( 'NONE',  ( 1.000000000000000000, 0.0000000000000000000, 0.0000000000000000000 ) ) ;
#89 = DIRECTION ( 'NONE',  ( 0.0000000000000000000, 0.0000000000000000000, -1.000000000000000000 ) ) ;
#90 = EDGE_CURVE ( 'NONE', #62, #141, #200, .T. ) ;
#91 = ORIENTED_EDGE ( 'NONE', *, *, #34, .F. ) ;
#92 = CARTESIAN_POINT ( 'NONE',  ( 2.621955040038593916E-34, 0.0000000000000000000, 2.140988766609360927E-18 ) ) ;
#93 = DIRECTION ( 'NONE',  ( -1.224646799147353454E-16, -0.0000000000000000000, -1.000000000000000000 ) ) ;
#94 = AXIS2_PLACEMENT_3D ( 'NONE', #222, #273, #14 ) ;
#95 = CIRCLE ( 'NONE', #79, 0.01748250000000000151 ) ;
#96 = CARTESIAN_POINT ( 'NONE',  ( 2.621955040038593916E-34, 0.0000000000000000000, 2.140988766609360927E-18 ) ) ;
#97 = FACE_OUTER_BOUND ( 'NONE', #165, .T. ) ;
#98 = EDGE_CURVE ( 'NONE', #218, #142, #260, .T. ) ;
#99 = CIRCLE ( 'NONE', #185, 0.01748250000000000151 ) ;
#100 = DIRECTION ( 'NONE',  ( -1.000000000000000000, 0.0000000000000000000, 0.0000000000000000000 ) ) ;
#101 =( GEOMETRIC_REPRESENTATION_CONTEXT ( 3 ) GLOBAL_UNCERTAINTY_ASSIGNED_CONTEXT ( ( #154 ) ) GLOBAL_UNIT_ASSIGNED_CONTEXT ( ( #199, #292, #196 ) ) REPRESENTATION_CONTEXT ( 'NONE', 'WORKASPACE' ) );
#102 = ORIENTED_EDGE ( 'NONE', *, *, #58, .T. ) ;
#103 = CARTESIAN_POINT ( 'NONE',  ( 0.06250000000000006939, 7.654042494670963708E-18, 0.3603069293146389240 ) ) ;
#104 = EDGE_CURVE ( 'NONE', #56, #75, #99, .T. ) ;
#105 =( LENGTH_UNIT ( ) NAMED_UNIT ( * ) SI_UNIT ( $, .METRE. ) );
#106 = ORIENTED_EDGE ( 'NONE', *, *, #143, .F. ) ;
#107 = CARTESIAN_POINT ( 'NONE',  ( 0.06250000000000002776, 7.654042494670959086E-18, 1.500000000000000222 ) ) ;
#108 = APPLICATION_PROTOCOL_DEFINITION ( 'draft international standard', 'automotive_design', 1998, #214 ) ;
#109 = AXIS2_PLACEMENT_3D ( 'NONE', #166, #72, #3 ) ;
#110 = DIRECTION ( 'NONE',  ( 1.000000000000000000, 0.0000000000000000000, 0.0000000000000000000 ) ) ;
#111 = FACE_OUTER_BOUND ( 'NONE', #171, .T. ) ;
#112 = DIRECTION ( 'NONE',  ( -1.224646799147353454E-16, -0.0000000000000000000, -1.000000000000000000 ) ) ;
#113 = EDGE_CURVE ( 'NONE', #129, #250, #204, .T. ) ;
#114 = CONICAL_SURFACE ( 'NONE', #163, 0.01748250000000000151, 0.1745329251994338915 ) ;
#115 = LINE ( 'NONE', #229, #147 ) ;
#116 =( NAMED_UNIT ( * ) PLANE_ANGLE_UNIT ( ) SI_UNIT ( $, .RADIAN. ) );
#117 = ADVANCED_FACE ( 'NONE', ( #253 ), #67, .T. ) ;
#118 = DIRECTION ( 'NONE',  ( 0.7071067811865462405, 8.659560562354916834E-17, -0.7071067811865486830 ) ) ;
#119 =( GEOMETRIC_REPRESENTATION_CONTEXT ( 3 ) GLOBAL_UNCERTAINTY_ASSIGNED_CONTEXT ( ( #168 ) ) GLOBAL_UNIT_ASSIGNED_CONTEXT ( ( #134, #116, #63 ) ) REPRESENTATION_CONTEXT ( 'NONE', 'WORKASPACE' ) );
#120 = PRESENTATION_LAYER_ASSIGNMENT (  '', '', ( #251 ) ) ;
#121 = CARTESIAN_POINT ( 'NONE',  ( 1.285879139104721102E-17, 0.0000000000000000000, 0.1049999999999999961 ) ) ;
#122 = DIRECTION ( 'NONE',  ( -1.224646799147353454E-16, -0.0000000000000000000, -1.000000000000000000 ) ) ;
#123 = DIRECTION ( 'NONE',  ( -0.7071067811865462405, 0.0000000000000000000, -0.7071067811865486830 ) ) ;
#124 = AXIS2_PLACEMENT_3D ( 'NONE', #202, #183, #88 ) ;
#125 = EDGE_CURVE ( 'NONE', #75, #141, #20, .T. ) ;
#126 = ORIENTED_EDGE ( 'NONE', *, *, #90, .F. ) ;
#127 = CONICAL_SURFACE ( 'NONE', #94, 0.04750000000000064587, 0.7853981633974466137 ) ;
#128 = FACE_OUTER_BOUND ( 'NONE', #8, .T. ) ;
#129 = VERTEX_POINT ( 'NONE', #182 ) ;
#130 = EDGE_CURVE ( 'NONE', #50, #212, #69, .T. ) ;
#131 = CARTESIAN_POINT ( 'NONE',  ( 0.01748250000000001539, 0.0000000000000000000, 0.1049999999999999961 ) ) ;
#132 = CARTESIAN_POINT ( 'NONE',  ( 0.0000000000000000000, 0.0000000000000000000, 1.485000000000000764 ) ) ;
#133 = CIRCLE ( 'NONE', #54, 0.06250000000000002776 ) ;
#134 =( CONVERSION_BASED_UNIT ( 'INCH', #180 ) LENGTH_UNIT ( ) NAMED_UNIT ( #247 ) );
#135 = DIRECTION ( 'NONE',  ( -1.224646799147353454E-16, -0.0000000000000000000, -1.000000000000000000 ) ) ;
#136 = SURFACE_STYLE_FILL_AREA ( #276 ) ;
#137 = VECTOR ( 'NONE', #224, 39.37007874015748143 ) ;
#138 = DIRECTION ( 'NONE',  ( -0.1736481776669311916, 2.126576849575783316E-17, 0.9848077530122080203 ) ) ;
#139 = DIRECTION ( 'NONE',  ( -1.224646799147353454E-16, -0.0000000000000000000, -1.000000000000000000 ) ) ;
#140 = DIRECTION ( 'NONE',  ( 1.224646799147353454E-16, 0.0000000000000000000, 1.000000000000000000 ) ) ;
#141 = VERTEX_POINT ( 'NONE', #241 ) ;
#142 = VERTEX_POINT ( 'NONE', #103 ) ;
#143 = EDGE_CURVE ( 'NONE', #212, #129, #74, .T. ) ;
#144 = DIRECTION ( 'NONE',  ( 0.0000000000000000000, 0.0000000000000000000, -1.000000000000000000 ) ) ;
#145 = ORIENTED_EDGE ( 'NONE', *, *, #235, .F. ) ;
#146 = ADVANCED_FACE ( 'NONE', ( #53 ), #169, .T. ) ;
#147 = VECTOR ( 'NONE', #138, 39.37007874015747433 ) ;
#148 = LINE ( 'NONE', #131, #137 ) ;
#149 = AXIS2_PLACEMENT_3D ( 'NONE', #210, #5, #46 ) ;
#150 = CARTESIAN_POINT ( 'NONE',  ( 0.0000000000000000000, 0.0000000000000000000, 1.500000000000000222 ) ) ;
#151 = ADVANCED_FACE ( 'NONE', ( #187 ), #114, .T. ) ;
#152 = CARTESIAN_POINT ( 'NONE',  ( 1.285879139104721102E-17, 0.0000000000000000000, 0.1049999999999999961 ) ) ;
#153 = SURFACE_SIDE_STYLE ('',( #136 ) ) ;
#154 = UNCERTAINTY_MEASURE_WITH_UNIT (LENGTH_MEASURE( 1.000000000000000082E-05 ), #199, 'distance_accuracy_value', 'NONE');
#155 = CLOSED_SHELL ( 'NONE', ( #233, #151, #299, #271, #76, #146, #17, #87, #117, #156 ) ) ;
#156 = ADVANCED_FACE ( 'NONE', ( #97 ), #238, .F. ) ;
#157 = CARTESIAN_POINT ( 'NONE',  ( 0.0000000000000000000, 0.0000000000000000000, 0.0000000000000000000 ) ) ;
#158 =( LENGTH_UNIT ( ) NAMED_UNIT ( * ) SI_UNIT ( $, .METRE. ) );
#159 = APPLICATION_CONTEXT ( 'automotive_design' ) ;
#160 = CARTESIAN_POINT ( 'NONE',  ( -0.06250000000000002776, 0.0000000000000000000, 1.500000000000000222 ) ) ;
#161 = PRODUCT ( 'Micro_RME-035-2', 'Micro_RME-035-2', '', ( #55 ) ) ;
#162 = CARTESIAN_POINT ( 'NONE',  ( 4.412487276957843594E-17, 0.0000000000000000000, 0.3603069293146389240 ) ) ;
#163 = AXIS2_PLACEMENT_3D ( 'NONE', #234, #140, #49 ) ;
#164 = DIRECTION ( 'NONE',  ( -1.224646799147353454E-16, -0.0000000000000000000, -1.000000000000000000 ) ) ;
#165 = EDGE_LOOP ( 'NONE', ( #263, #281 ) ) ;
#166 = CARTESIAN_POINT ( 'NONE',  ( 0.0000000000000000000, 0.0000000000000000000, 1.500000000000000222 ) ) ;
#167 = EDGE_LOOP ( 'NONE', ( #223, #201, #126, #286 ) ) ;
#168 = UNCERTAINTY_MEASURE_WITH_UNIT (LENGTH_MEASURE( 1.000000000000000082E-05 ), #134, 'distance_accuracy_value', 'NONE');
#169 = PLANE ( 'NONE',  #219 ) ;
#170 = ORIENTED_EDGE ( 'NONE', *, *, #34, .T. ) ;
#171 = EDGE_LOOP ( 'NONE', ( #190, #173, #11, #293 ) ) ;
#172 = SURFACE_STYLE_FILL_AREA ( #217 ) ;
#173 = ORIENTED_EDGE ( 'NONE', *, *, #4, .T. ) ;
#174 = ORIENTED_EDGE ( 'NONE', *, *, #143, .T. ) ;
#175 = ORIENTED_EDGE ( 'NONE', *, *, #176, .F. ) ;
#176 = EDGE_CURVE ( 'NONE', #129, #218, #278, .T. ) ;
#177 = DIRECTION ( 'NONE',  ( -1.000000000000000000, 0.0000000000000000000, 1.224646799147353454E-16 ) ) ;
#178 = CIRCLE ( 'NONE', #68, 0.06250000000000002776 ) ;
#179 = ORIENTED_EDGE ( 'NONE', *, *, #239, .T. ) ;
#180 = LENGTH_MEASURE_WITH_UNIT ( LENGTH_MEASURE( 0.02539999999999999897 ), #158 );
#181 = AXIS2_PLACEMENT_3D ( 'NONE', #71, #206, #298 ) ;
#182 = CARTESIAN_POINT ( 'NONE',  ( -0.06250000000000002776, 0.0000000000000000000, 1.485000000000000764 ) ) ;
#183 = DIRECTION ( 'NONE',  ( -1.224646799147353454E-16, -0.0000000000000000000, -1.000000000000000000 ) ) ;
#184 = PRODUCT_DEFINITION_CONTEXT ( 'detailed design', #214, 'design' ) ;
#185 = AXIS2_PLACEMENT_3D ( 'NONE', #152, #135, #252 ) ;
#186 = CARTESIAN_POINT ( 'NONE',  ( 0.0000000000000000000, 0.0000000000000000000, 1.500000000000000222 ) ) ;
#187 = FACE_OUTER_BOUND ( 'NONE', #198, .T. ) ;
#188 = VECTOR ( 'NONE', #123, 39.37007874015748854 ) ;
#189 = CARTESIAN_POINT ( 'NONE',  ( 0.0000000000000000000, 0.0000000000000000000, 1.500000000000000222 ) ) ;
#190 = ORIENTED_EDGE ( 'NONE', *, *, #22, .F. ) ;
#191 = LINE ( 'NONE', #259, #291 ) ;
#192 = LENGTH_MEASURE_WITH_UNIT ( LENGTH_MEASURE( 0.02539999999999999897 ), #105 );
#193 = DIMENSIONAL_EXPONENTS ( 1.000000000000000000, 0.0000000000000000000, 0.0000000000000000000, 0.0000000000000000000, 0.0000000000000000000, 0.0000000000000000000, 0.0000000000000000000 ) ;
#194 = ORIENTED_EDGE ( 'NONE', *, *, #58, .F. ) ;
#195 = AXIS2_PLACEMENT_3D ( 'NONE', #92, #93, #177 ) ;
#196 =( NAMED_UNIT ( * ) SI_UNIT ( $, .STERADIAN. ) SOLID_ANGLE_UNIT ( ) );
#197 = ORIENTED_EDGE ( 'NONE', *, *, #284, .F. ) ;
#198 = EDGE_LOOP ( 'NONE', ( #59, #102, #85, #242 ) ) ;
#199 =( CONVERSION_BASED_UNIT ( 'INCH', #279 ) LENGTH_UNIT ( ) NAMED_UNIT ( #193 ) );
#200 = CIRCLE ( 'NONE', #195, 0.01748250000000000151 ) ;
#201 = ORIENTED_EDGE ( 'NONE', *, *, #125, .T. ) ;
#202 = CARTESIAN_POINT ( 'NONE',  ( 4.412487276957843594E-17, 0.0000000000000000000, 0.3603069293146389240 ) ) ;
#203 = PRESENTATION_STYLE_ASSIGNMENT (( #294 ) ) ;
#204 = CIRCLE ( 'NONE', #36, 0.06250000000000002776 ) ;
#205 = CARTESIAN_POINT ( 'NONE',  ( -0.01748250000000000151, 0.0000000000000000000, 4.281977533218721854E-18 ) ) ;
#206 = DIRECTION ( 'NONE',  ( -0.0000000000000000000, -0.0000000000000000000, -1.000000000000000000 ) ) ;
#207 = CARTESIAN_POINT ( 'NONE',  ( -0.04750000000000064587, 0.0000000000000000000, 1.500000000000000222 ) ) ;
#208 = MECHANICAL_DESIGN_GEOMETRIC_PRESENTATION_REPRESENTATION (  '', ( #1 ), #119 ) ;
#209 = DIRECTION ( 'NONE',  ( 1.000000000000000000, 0.0000000000000000000, -0.0000000000000000000 ) ) ;
#210 = CARTESIAN_POINT ( 'NONE',  ( 0.0000000000000000000, 0.0000000000000000000, 1.500000000000000222 ) ) ;
#211 = CARTESIAN_POINT ( 'NONE',  ( 0.0000000000000000000, 0.0000000000000000000, 0.0000000000000000000 ) ) ;
#212 = VERTEX_POINT ( 'NONE', #283 ) ;
#213 = COLOUR_RGB ( '',0.7921568627450980005, 0.8196078431372548767, 0.9333333333333333481 ) ;
#214 = APPLICATION_CONTEXT ( 'automotive_design' ) ;
#215 =( GEOMETRIC_REPRESENTATION_CONTEXT ( 3 ) GLOBAL_UNCERTAINTY_ASSIGNED_CONTEXT ( ( #262 ) ) GLOBAL_UNIT_ASSIGNED_CONTEXT ( ( #81, #269, #267 ) ) REPRESENTATION_CONTEXT ( 'NONE', 'WORKASPACE' ) );
#216 = CYLINDRICAL_SURFACE ( 'NONE', #83, 0.01748250000000000151 ) ;
#217 = FILL_AREA_STYLE ('',( #32 ) ) ;
#218 = VERTEX_POINT ( 'NONE', #78 ) ;
#219 = AXIS2_PLACEMENT_3D ( 'NONE', #186, #282, #9 ) ;
#220 = PRODUCT_DEFINITION_FORMATION_WITH_SPECIFIED_SOURCE ( 'ANY', '', #161, .NOT_KNOWN. ) ;
#221 = PRODUCT_DEFINITION ( 'UNKNOWN', '', #220, #184 ) ;
#222 = CARTESIAN_POINT ( 'NONE',  ( 0.0000000000000000000, 0.0000000000000000000, 1.500000000000000222 ) ) ;
#223 = ORIENTED_EDGE ( 'NONE', *, *, #104, .T. ) ;
#224 = DIRECTION ( 'NONE',  ( 0.1736481776669313859, 0.0000000000000000000, 0.9848077530122077983 ) ) ;
#225 = ORIENTED_EDGE ( 'NONE', *, *, #235, .T. ) ;
#226 = CYLINDRICAL_SURFACE ( 'NONE', #181, 0.06250000000000002776 ) ;
#227 = PRODUCT_DEFINITION_SHAPE ( 'NONE', 'NONE',  #221 ) ;
#228 = DIRECTION ( 'NONE',  ( -1.000000000000000000, 0.0000000000000000000, 1.224646799147353454E-16 ) ) ;
#229 = CARTESIAN_POINT ( 'NONE',  ( -0.01748249999999999110, 2.140988766609360927E-18, 0.1049999999999999961 ) ) ;
#230 = VECTOR ( 'NONE', #288, 39.37007874015748143 ) ;
#231 = PRODUCT_RELATED_PRODUCT_CATEGORY ( 'part', '', ( #161 ) ) ;
#232 = LINE ( 'NONE', #274, #270 ) ;
#233 = ADVANCED_FACE ( 'NONE', ( #29 ), #216, .T. ) ;
#234 = CARTESIAN_POINT ( 'NONE',  ( 1.285879139104721102E-17, 0.0000000000000000000, 0.1049999999999999961 ) ) ;
#235 = EDGE_CURVE ( 'NONE', #75, #56, #7, .T. ) ;
#236 =( LENGTH_UNIT ( ) NAMED_UNIT ( * ) SI_UNIT ( $, .METRE. ) );
#237 = CYLINDRICAL_SURFACE ( 'NONE', #19, 0.06250000000000002776 ) ;
#238 = PLANE ( 'NONE',  #296 ) ;
#239 = EDGE_CURVE ( 'NONE', #142, #218, #133, .T. ) ;
#240 = ORIENTED_EDGE ( 'NONE', *, *, #98, .F. ) ;
#241 = CARTESIAN_POINT ( 'NONE',  ( 0.01748250000000000151, 2.140988766609360157E-18, 0.0000000000000000000 ) ) ;
#242 = ORIENTED_EDGE ( 'NONE', *, *, #43, .F. ) ;
#243 = SURFACE_SIDE_STYLE ('',( #172 ) ) ;
#244 = EDGE_LOOP ( 'NONE', ( #170, #33 ) ) ;
#245 = SHAPE_DEFINITION_REPRESENTATION ( #227, #39 ) ;
#246 = ORIENTED_EDGE ( 'NONE', *, *, #113, .T. ) ;
#247 = DIMENSIONAL_EXPONENTS ( 1.000000000000000000, 0.0000000000000000000, 0.0000000000000000000, 0.0000000000000000000, 0.0000000000000000000, 0.0000000000000000000, 0.0000000000000000000 ) ;
#248 = DIRECTION ( 'NONE',  ( 1.000000000000000000, 0.0000000000000000000, 0.0000000000000000000 ) ) ;
#249 = EDGE_CURVE ( 'NONE', #50, #250, #191, .T. ) ;
#250 = VERTEX_POINT ( 'NONE', #47 ) ;
#251 = STYLED_ITEM ( 'NONE', ( #289 ), #39 ) ;
#252 = DIRECTION ( 'NONE',  ( -1.000000000000000000, 0.0000000000000000000, 0.0000000000000000000 ) ) ;
#253 = FACE_OUTER_BOUND ( 'NONE', #287, .T. ) ;
#254 = CARTESIAN_POINT ( 'NONE',  ( 1.285879139104721102E-17, 0.0000000000000000000, 0.1049999999999999961 ) ) ;
#255 = CARTESIAN_POINT ( 'NONE',  ( 0.01748250000000001539, 0.0000000000000000000, 0.1049999999999999961 ) ) ;
#256 = VECTOR ( 'NONE', #297, 39.37007874015748143 ) ;
#257 = FACE_OUTER_BOUND ( 'NONE', #57, .T. ) ;
#258 = FACE_OUTER_BOUND ( 'NONE', #35, .T. ) ;
#259 = CARTESIAN_POINT ( 'NONE',  ( 0.04750000000000064587, 5.817072295950006528E-18, 1.500000000000000222 ) ) ;
#260 = CIRCLE ( 'NONE', #124, 0.06250000000000002776 ) ;
#261 = DIRECTION ( 'NONE',  ( 1.000000000000000000, 0.0000000000000000000, 0.0000000000000000000 ) ) ;
#262 = UNCERTAINTY_MEASURE_WITH_UNIT (LENGTH_MEASURE( 1.000000000000000082E-05 ), #81, 'distance_accuracy_value', 'NONE');
#263 = ORIENTED_EDGE ( 'NONE', *, *, #90, .T. ) ;
#264 = AXIS2_PLACEMENT_3D ( 'NONE', #150, #80, #60 ) ;
#265 = CARTESIAN_POINT ( 'NONE',  ( 0.0000000000000000000, 0.0000000000000000000, 0.0000000000000000000 ) ) ;
#266 = DIMENSIONAL_EXPONENTS ( 1.000000000000000000, 0.0000000000000000000, 0.0000000000000000000, 0.0000000000000000000, 0.0000000000000000000, 0.0000000000000000000, 0.0000000000000000000 ) ;
#267 =( NAMED_UNIT ( * ) SI_UNIT ( $, .STERADIAN. ) SOLID_ANGLE_UNIT ( ) );
#268 = ORIENTED_EDGE ( 'NONE', *, *, #249, .F. ) ;
#269 =( NAMED_UNIT ( * ) PLANE_ANGLE_UNIT ( ) SI_UNIT ( $, .RADIAN. ) );
#270 = VECTOR ( 'NONE', #112, 39.37007874015748143 ) ;
#271 = ADVANCED_FACE ( 'NONE', ( #258 ), #237, .T. ) ;
#272 = DIRECTION ( 'NONE',  ( 0.0000000000000000000, 0.0000000000000000000, 1.000000000000000000 ) ) ;
#273 = DIRECTION ( 'NONE',  ( 0.0000000000000000000, 0.0000000000000000000, -1.000000000000000000 ) ) ;
#274 = CARTESIAN_POINT ( 'NONE',  ( -0.01748250000000000151, 0.0000000000000000000, 2.140988766609360927E-18 ) ) ;
#275 = DIRECTION ( 'NONE',  ( 1.224646799147353454E-16, 0.0000000000000000000, 1.000000000000000000 ) ) ;
#276 = FILL_AREA_STYLE ('',( #40 ) ) ;
#277 = DIRECTION ( 'NONE',  ( -1.000000000000000000, 0.0000000000000000000, 1.224646799147353454E-16 ) ) ;
#278 = LINE ( 'NONE', #160, #280 ) ;
#279 = LENGTH_MEASURE_WITH_UNIT ( LENGTH_MEASURE( 0.02539999999999999897 ), #236 );
#280 = VECTOR ( 'NONE', #26, 39.37007874015748143 ) ;
#281 = ORIENTED_EDGE ( 'NONE', *, *, #284, .T. ) ;
#282 = DIRECTION ( 'NONE',  ( 0.0000000000000000000, 0.0000000000000000000, 1.000000000000000000 ) ) ;
#283 = CARTESIAN_POINT ( 'NONE',  ( -0.04750000000000064587, 0.0000000000000000000, 1.500000000000000222 ) ) ;
#284 = EDGE_CURVE ( 'NONE', #141, #62, #95, .T. ) ;
#285 = ORIENTED_EDGE ( 'NONE', *, *, #130, .F. ) ;
#286 = ORIENTED_EDGE ( 'NONE', *, *, #52, .F. ) ;
#287 = EDGE_LOOP ( 'NONE', ( #25, #225, #28, #197 ) ) ;
#288 = DIRECTION ( 'NONE',  ( -0.0000000000000000000, -0.0000000000000000000, -1.000000000000000000 ) ) ;
#289 = PRESENTATION_STYLE_ASSIGNMENT (( #37 ) ) ;
#290 = AXIS2_PLACEMENT_3D ( 'NONE', #254, #275, #110 ) ;
#291 = VECTOR ( 'NONE', #118, 39.37007874015748854 ) ;
#292 =( NAMED_UNIT ( * ) PLANE_ANGLE_UNIT ( ) SI_UNIT ( $, .RADIAN. ) );
#293 = ORIENTED_EDGE ( 'NONE', *, *, #239, .F. ) ;
#294 = SURFACE_STYLE_USAGE ( .BOTH. , #153 ) ;
#295 = CARTESIAN_POINT ( 'NONE',  ( 0.0000000000000000000, 0.0000000000000000000, 1.485000000000000764 ) ) ;
#296 = AXIS2_PLACEMENT_3D ( 'NONE', #211, #51, #209 ) ;
#297 = DIRECTION ( 'NONE',  ( -1.224646799147353454E-16, -0.0000000000000000000, -1.000000000000000000 ) ) ;
#298 = DIRECTION ( 'NONE',  ( -1.000000000000000000, 0.0000000000000000000, 0.0000000000000000000 ) ) ;
#299 = ADVANCED_FACE ( 'NONE', ( #77 ), #31, .T. ) ;
ENDSEC;
END-ISO-10303-21;
