ISO-10303-21;
HEADER;
FILE_DESCRIPTION (( 'STEP AP214' ),
    '1' );
FILE_NAME ('Micro_MMBM-020-15.STEP',
    '2021-09-03T16:30:24',
    ( '' ),
    ( '' ),
    'SwSTEP 2.0',
    'SolidWorks 2020',
    '' );
FILE_SCHEMA (( 'AUTOMOTIVE_DESIGN' ));
ENDSEC;

DATA;
#1 = AXIS2_PLACEMENT_3D ( 'NONE', #356, #331, #329 ) ;
#2 = CARTESIAN_POINT ( 'NONE',  ( -0.1031100000000002570, 0.0000000000000000000, 2.244094000000000033 ) ) ;
#3 = CIRCLE ( 'NONE', #189, 0.03936606300000000669 ) ;
#4 = PRODUCT_RELATED_PRODUCT_CATEGORY ( 'part', '', ( #10 ) ) ;
#5 = DIRECTION ( 'NONE',  ( 0.0000000000000000000, 0.0000000000000000000, -1.000000000000000000 ) ) ;
#6 = CARTESIAN_POINT ( 'NONE',  ( 0.0000000000000000000, 0.0000000000000000000, 0.0000000000000000000 ) ) ;
#7 = AXIS2_PLACEMENT_3D ( 'NONE', #264, #165, #309 ) ;
#8 = AXIS2_PLACEMENT_3D ( 'NONE', #93, #35, #36 ) ;
#9 = LINE ( 'NONE', #358, #15 ) ;
#10 = PRODUCT ( 'Micro_MMBM-020-15', 'Micro_MMBM-020-15', '', ( #95 ) ) ;
#11 =( NAMED_UNIT ( * ) SI_UNIT ( $, .STERADIAN. ) SOLID_ANGLE_UNIT ( ) );
#12 = CARTESIAN_POINT ( 'NONE',  ( -0.03740150000000001113, 0.0000000000000000000, 0.08988159042539359267 ) ) ;
#13 =( NAMED_UNIT ( * ) PLANE_ANGLE_UNIT ( ) SI_UNIT ( $, .RADIAN. ) );
#14 = VECTOR ( 'NONE', #155, 39.37007874015748143 ) ;
#15 = VECTOR ( 'NONE', #250, 39.37007874015748854 ) ;
#16 = AXIS2_PLACEMENT_3D ( 'NONE', #89, #350, #116 ) ;
#17 = EDGE_CURVE ( 'NONE', #286, #207, #183, .T. ) ;
#18 = CARTESIAN_POINT ( 'NONE',  ( 0.0000000000000000000, 0.0000000000000000000, 0.07874000000000000443 ) ) ;
#19 = ORIENTED_EDGE ( 'NONE', *, *, #268, .F. ) ;
#20 = UNCERTAINTY_MEASURE_WITH_UNIT (LENGTH_MEASURE( 1.000000000000000082E-05 ), #349, 'distance_accuracy_value', 'NONE');
#21 = EDGE_LOOP ( 'NONE', ( #73, #224, #291, #105 ) ) ;
#22 = DIRECTION ( 'NONE',  ( 0.0000000000000000000, 0.0000000000000000000, -1.000000000000000000 ) ) ;
#23 = AXIS2_PLACEMENT_3D ( 'NONE', #70, #305, #363 ) ;
#24 = EDGE_LOOP ( 'NONE', ( #306, #311, #129, #139 ) ) ;
#25 = FACE_OUTER_BOUND ( 'NONE', #24, .T. ) ;
#26 = ORIENTED_EDGE ( 'NONE', *, *, #202, .T. ) ;
#27 = DIRECTION ( 'NONE',  ( 0.7071067811865358044, 8.659560562354788645E-17, -0.7071067811865590080 ) ) ;
#28 = ORIENTED_EDGE ( 'NONE', *, *, #120, .F. ) ;
#29 = LINE ( 'NONE', #100, #31 ) ;
#30 = ORIENTED_EDGE ( 'NONE', *, *, #321, .F. ) ;
#31 = VECTOR ( 'NONE', #60, 39.37007874015748143 ) ;
#32 = CARTESIAN_POINT ( 'NONE',  ( 0.0000000000000000000, 0.0000000000000000000, 2.244094000000000033 ) ) ;
#33 = DIRECTION ( 'NONE',  ( -1.000000000000000000, 0.0000000000000000000, 0.0000000000000000000 ) ) ;
#34 = VERTEX_POINT ( 'NONE', #247 ) ;
#35 = DIRECTION ( 'NONE',  ( 0.0000000000000000000, 0.0000000000000000000, 1.000000000000000000 ) ) ;
#36 = DIRECTION ( 'NONE',  ( 1.000000000000000000, 0.0000000000000000000, -0.0000000000000000000 ) ) ;
#37 = DIRECTION ( 'NONE',  ( -0.0000000000000000000, -0.0000000000000000000, -1.000000000000000000 ) ) ;
#38 = ADVANCED_FACE ( 'NONE', ( #241 ), #212, .T. ) ;
#39 = CONICAL_SURFACE ( 'NONE', #112, 0.1031100000000002570, 0.7853981633974318477 ) ;
#40 = SURFACE_STYLE_USAGE ( .BOTH. , #182 ) ;
#41 = EDGE_CURVE ( 'NONE', #336, #376, #9, .T. ) ;
#42 =( CONVERSION_BASED_UNIT ( 'INCH', #243 ) LENGTH_UNIT ( ) NAMED_UNIT ( #58 ) );
#43 = EDGE_CURVE ( 'NONE', #72, #376, #160, .T. ) ;
#44 =( NAMED_UNIT ( * ) SI_UNIT ( $, .STERADIAN. ) SOLID_ANGLE_UNIT ( ) );
#45 = ORIENTED_EDGE ( 'NONE', *, *, #187, .F. ) ;
#46 = ORIENTED_EDGE ( 'NONE', *, *, #41, .T. ) ;
#47 = DIRECTION ( 'NONE',  ( -0.0000000000000000000, -0.0000000000000000000, -1.000000000000000000 ) ) ;
#48 = VERTEX_POINT ( 'NONE', #333 ) ;
#49 = CYLINDRICAL_SURFACE ( 'NONE', #204, 0.03936606300000000669 ) ;
#50 = VECTOR ( 'NONE', #127, 39.37007874015748143 ) ;
#51 = LENGTH_MEASURE_WITH_UNIT ( LENGTH_MEASURE( 0.02539999999999999897 ), #184 );
#52 = VERTEX_POINT ( 'NONE', #361 ) ;
#53 = DIRECTION ( 'NONE',  ( -1.000000000000000000, 0.0000000000000000000, 0.0000000000000000000 ) ) ;
#54 = ORIENTED_EDGE ( 'NONE', *, *, #357, .T. ) ;
#55 = FACE_OUTER_BOUND ( 'NONE', #57, .T. ) ;
#56 = EDGE_CURVE ( 'NONE', #286, #200, #320, .T. ) ;
#57 = EDGE_LOOP ( 'NONE', ( #316, #153, #46, #265 ) ) ;
#58 = DIMENSIONAL_EXPONENTS ( 1.000000000000000000, 0.0000000000000000000, 0.0000000000000000000, 0.0000000000000000000, 0.0000000000000000000, 0.0000000000000000000, 0.0000000000000000000 ) ;
#59 = DIRECTION ( 'NONE',  ( -0.0000000000000000000, -0.0000000000000000000, -1.000000000000000000 ) ) ;
#60 = DIRECTION ( 'NONE',  ( -0.0000000000000000000, -0.0000000000000000000, -1.000000000000000000 ) ) ;
#61 = DIRECTION ( 'NONE',  ( -1.000000000000000000, 0.0000000000000000000, 0.0000000000000000000 ) ) ;
#62 = DIRECTION ( 'NONE',  ( -1.000000000000000000, 0.0000000000000000000, 0.0000000000000000000 ) ) ;
#63 = CIRCLE ( 'NONE', #117, 0.1031100000000002570 ) ;
#64 = DIRECTION ( 'NONE',  ( -0.0000000000000000000, -0.0000000000000000000, -1.000000000000000000 ) ) ;
#65 = FACE_BOUND ( 'NONE', #226, .T. ) ;
#66 = PRESENTATION_LAYER_ASSIGNMENT (  '', '', ( #228 ) ) ;
#67 = FILL_AREA_STYLE_COLOUR ( '', #170 ) ;
#68 = ADVANCED_FACE ( 'NONE', ( #302 ), #148, .T. ) ;
#69 = DIRECTION ( 'NONE',  ( -0.0000000000000000000, -0.0000000000000000000, -1.000000000000000000 ) ) ;
#70 = CARTESIAN_POINT ( 'NONE',  ( 0.0000000000000000000, 0.0000000000000000000, 0.07874000000000000443 ) ) ;
#71 = AXIS2_PLACEMENT_3D ( 'NONE', #296, #111, #33 ) ;
#72 = VERTEX_POINT ( 'NONE', #151 ) ;
#73 = ORIENTED_EDGE ( 'NONE', *, *, #193, .T. ) ;
#74 = ORIENTED_EDGE ( 'NONE', *, *, #87, .T. ) ;
#75 = DIRECTION ( 'NONE',  ( -0.0000000000000000000, -0.0000000000000000000, -1.000000000000000000 ) ) ;
#76 = ORIENTED_EDGE ( 'NONE', *, *, #106, .F. ) ;
#77 = LINE ( 'NONE', #227, #365 ) ;
#78 = AXIS2_PLACEMENT_3D ( 'NONE', #322, #5, #88 ) ;
#79 = ORIENTED_EDGE ( 'NONE', *, *, #255, .T. ) ;
#80 = EDGE_LOOP ( 'NONE', ( #30, #307, #185, #123 ) ) ;
#81 = APPLICATION_CONTEXT ( 'automotive_design' ) ;
#82 = DIRECTION ( 'NONE',  ( -1.000000000000000000, 0.0000000000000000000, 0.0000000000000000000 ) ) ;
#83 = DIRECTION ( 'NONE',  ( 0.0000000000000000000, 0.0000000000000000000, 1.000000000000000000 ) ) ;
#84 = CIRCLE ( 'NONE', #108, 0.1181100000000000066 ) ;
#85 = CIRCLE ( 'NONE', #374, 0.03936606300000000669 ) ;
#86 = DIRECTION ( 'NONE',  ( 0.1736481776669306087, 2.126576849575774688E-17, -0.9848077530122080203 ) ) ;
#87 = EDGE_CURVE ( 'NONE', #48, #34, #353, .T. ) ;
#88 = DIRECTION ( 'NONE',  ( -1.000000000000000000, 0.0000000000000000000, 0.0000000000000000000 ) ) ;
#89 = CARTESIAN_POINT ( 'NONE',  ( 0.0000000000000000000, 0.0000000000000000000, 0.5905510000000000481 ) ) ;
#90 = PRODUCT_DEFINITION_SHAPE ( 'NONE', 'NONE',  #174 ) ;
#91 = AXIS2_PLACEMENT_3D ( 'NONE', #338, #75, #194 ) ;
#92 = CARTESIAN_POINT ( 'NONE',  ( 0.0000000000000000000, 0.0000000000000000000, 0.5905510000000000481 ) ) ;
#93 = CARTESIAN_POINT ( 'NONE',  ( 0.0000000000000000000, 0.0000000000000000000, 2.244094000000000033 ) ) ;
#94 = ORIENTED_EDGE ( 'NONE', *, *, #351, .T. ) ;
#95 = PRODUCT_CONTEXT ( 'NONE', #81, 'mechanical' ) ;
#96 = VECTOR ( 'NONE', #169, 39.37007874015748143 ) ;
#97 = DIRECTION ( 'NONE',  ( -1.000000000000000000, 0.0000000000000000000, 0.0000000000000000000 ) ) ;
#98 = VERTEX_POINT ( 'NONE', #12 ) ;
#99 = FILL_AREA_STYLE ('',( #67 ) ) ;
#100 = CARTESIAN_POINT ( 'NONE',  ( 0.1181100000000000066, 1.446430334472939084E-17, 2.244094000000000033 ) ) ;
#101 = EDGE_LOOP ( 'NONE', ( #54, #130 ) ) ;
#102 = FACE_OUTER_BOUND ( 'NONE', #262, .T. ) ;
#103 = MANIFOLD_SOLID_BREP ( 'Cut-Revolve1', #178 ) ;
#104 = CARTESIAN_POINT ( 'NONE',  ( 0.0000000000000000000, 0.0000000000000000000, 0.0000000000000000000 ) ) ;
#105 = ORIENTED_EDGE ( 'NONE', *, *, #255, .F. ) ;
#106 = EDGE_CURVE ( 'NONE', #157, #366, #304, .T. ) ;
#107 = CARTESIAN_POINT ( 'NONE',  ( -0.03936606300000000669, 0.0000000000000000000, 0.0000000000000000000 ) ) ;
#108 = AXIS2_PLACEMENT_3D ( 'NONE', #136, #22, #223 ) ;
#109 = CARTESIAN_POINT ( 'NONE',  ( 0.0000000000000000000, 0.0000000000000000000, 0.0000000000000000000 ) ) ;
#110 = CARTESIAN_POINT ( 'NONE',  ( 0.0000000000000000000, 0.0000000000000000000, 0.0000000000000000000 ) ) ;
#111 = DIRECTION ( 'NONE',  ( -0.0000000000000000000, 0.0000000000000000000, -1.000000000000000000 ) ) ;
#112 = AXIS2_PLACEMENT_3D ( 'NONE', #32, #199, #317 ) ;
#113 = STYLED_ITEM ( 'NONE', ( #310 ), #318 ) ;
#114 = DIRECTION ( 'NONE',  ( -1.000000000000000000, 0.0000000000000000000, 0.0000000000000000000 ) ) ;
#115 = CYLINDRICAL_SURFACE ( 'NONE', #337, 0.03740150000000003888 ) ;
#116 = DIRECTION ( 'NONE',  ( -1.000000000000000000, 0.0000000000000000000, 0.0000000000000000000 ) ) ;
#117 = AXIS2_PLACEMENT_3D ( 'NONE', #260, #83, #293 ) ;
#118 = CARTESIAN_POINT ( 'NONE',  ( -0.03936606300000000669, 0.0000000000000000000, 0.07874000000000000443 ) ) ;
#119 = VERTEX_POINT ( 'NONE', #377 ) ;
#120 = EDGE_CURVE ( 'NONE', #200, #156, #134, .T. ) ;
#121 =( NAMED_UNIT ( * ) PLANE_ANGLE_UNIT ( ) SI_UNIT ( $, .RADIAN. ) );
#122 = CIRCLE ( 'NONE', #138, 0.03740150000000006664 ) ;
#123 = ORIENTED_EDGE ( 'NONE', *, *, #41, .F. ) ;
#124 = CARTESIAN_POINT ( 'NONE',  ( -0.03936606300000000669, 0.0000000000000000000, 0.0000000000000000000 ) ) ;
#125 = EDGE_CURVE ( 'NONE', #119, #72, #77, .T. ) ;
#126 = DIRECTION ( 'NONE',  ( -1.000000000000000000, 0.0000000000000000000, 0.0000000000000000000 ) ) ;
#127 = DIRECTION ( 'NONE',  ( -0.0000000000000000000, -0.0000000000000000000, -1.000000000000000000 ) ) ;
#128 = PRODUCT_DEFINITION_CONTEXT ( 'detailed design', #137, 'design' ) ;
#129 = ORIENTED_EDGE ( 'NONE', *, *, #202, .F. ) ;
#130 = ORIENTED_EDGE ( 'NONE', *, *, #209, .T. ) ;
#131 = LINE ( 'NONE', #369, #96 ) ;
#132 = EDGE_CURVE ( 'NONE', #366, #98, #294, .T. ) ;
#133 = ORIENTED_EDGE ( 'NONE', *, *, #357, .F. ) ;
#134 = LINE ( 'NONE', #254, #50 ) ;
#135 = ORIENTED_EDGE ( 'NONE', *, *, #321, .T. ) ;
#136 = CARTESIAN_POINT ( 'NONE',  ( 0.0000000000000000000, 0.0000000000000000000, 2.229093999999999465 ) ) ;
#137 = APPLICATION_CONTEXT ( 'automotive_design' ) ;
#138 = AXIS2_PLACEMENT_3D ( 'NONE', #92, #267, #172 ) ;
#139 = ORIENTED_EDGE ( 'NONE', *, *, #351, .F. ) ;
#140 = FACE_OUTER_BOUND ( 'NONE', #101, .T. ) ;
#141 = CARTESIAN_POINT ( 'NONE',  ( 0.0000000000000000000, 0.0000000000000000000, 0.0000000000000000000 ) ) ;
#142 = DIRECTION ( 'NONE',  ( -0.0000000000000000000, -0.0000000000000000000, -1.000000000000000000 ) ) ;
#143 = VECTOR ( 'NONE', #213, 39.37007874015748143 ) ;
#144 = CARTESIAN_POINT ( 'NONE',  ( 0.03936606300000000669, 4.820952304798306567E-18, 0.07874000000000000443 ) ) ;
#145 = EDGE_CURVE ( 'NONE', #72, #48, #29, .T. ) ;
#146 = FACE_OUTER_BOUND ( 'NONE', #21, .T. ) ;
#147 =( LENGTH_UNIT ( ) NAMED_UNIT ( * ) SI_UNIT ( $, .METRE. ) );
#148 = CONICAL_SURFACE ( 'NONE', #23, 0.03936606300000000669, 0.1745329251994332254 ) ;
#149 = APPLICATION_PROTOCOL_DEFINITION ( 'draft international standard', 'automotive_design', 1998, #137 ) ;
#150 = ADVANCED_FACE ( 'NONE', ( #25 ), #257, .T. ) ;
#151 = CARTESIAN_POINT ( 'NONE',  ( 0.1181100000000000066, 1.446430334472939084E-17, 2.229093999999999465 ) ) ;
#152 = EDGE_CURVE ( 'NONE', #336, #119, #63, .T. ) ;
#153 = ORIENTED_EDGE ( 'NONE', *, *, #152, .F. ) ;
#154 = AXIS2_PLACEMENT_3D ( 'NONE', #271, #208, #236 ) ;
#155 = DIRECTION ( 'NONE',  ( -0.0000000000000000000, -0.0000000000000000000, -1.000000000000000000 ) ) ;
#156 = VERTEX_POINT ( 'NONE', #159 ) ;
#157 = VERTEX_POINT ( 'NONE', #232 ) ;
#158 = ORIENTED_EDGE ( 'NONE', *, *, #132, .T. ) ;
#159 = CARTESIAN_POINT ( 'NONE',  ( 0.03936606300000000669, 4.820952304798306567E-18, 0.0000000000000000000 ) ) ;
#160 = CIRCLE ( 'NONE', #179, 0.1181100000000000066 ) ;
#161 = PRODUCT_DEFINITION_FORMATION_WITH_SPECIFIED_SOURCE ( 'ANY', '', #10, .NOT_KNOWN. ) ;
#162 = APPLICATION_PROTOCOL_DEFINITION ( 'draft international standard', 'automotive_design', 1998, #81 ) ;
#163 = ORIENTED_EDGE ( 'NONE', *, *, #240, .T. ) ;
#164 = DIMENSIONAL_EXPONENTS ( 1.000000000000000000, 0.0000000000000000000, 0.0000000000000000000, 0.0000000000000000000, 0.0000000000000000000, 0.0000000000000000000, 0.0000000000000000000 ) ;
#165 = DIRECTION ( 'NONE',  ( -0.0000000000000000000, -0.0000000000000000000, -1.000000000000000000 ) ) ;
#166 = ORIENTED_EDGE ( 'NONE', *, *, #17, .T. ) ;
#167 = CARTESIAN_POINT ( 'NONE',  ( 0.0000000000000000000, 0.0000000000000000000, 0.0000000000000000000 ) ) ;
#168 = EDGE_LOOP ( 'NONE', ( #28, #256, #166, #216 ) ) ;
#169 = DIRECTION ( 'NONE',  ( -0.0000000000000000000, -0.0000000000000000000, -1.000000000000000000 ) ) ;
#170 = COLOUR_RGB ( '',0.7921568627450980005, 0.8196078431372548767, 0.9333333333333333481 ) ;
#171 = DIRECTION ( 'NONE',  ( -1.000000000000000000, 0.0000000000000000000, 0.0000000000000000000 ) ) ;
#172 = DIRECTION ( 'NONE',  ( -1.000000000000000000, 0.0000000000000000000, 0.0000000000000000000 ) ) ;
#173 = FACE_OUTER_BOUND ( 'NONE', #283, .T. ) ;
#174 = PRODUCT_DEFINITION ( 'UNKNOWN', '', #161, #128 ) ;
#175 =( GEOMETRIC_REPRESENTATION_CONTEXT ( 3 ) GLOBAL_UNCERTAINTY_ASSIGNED_CONTEXT ( ( #186 ) ) GLOBAL_UNIT_ASSIGNED_CONTEXT ( ( #42, #13, #190 ) ) REPRESENTATION_CONTEXT ( 'NONE', 'WORKASPACE' ) );
#176 = DIRECTION ( 'NONE',  ( -0.0000000000000000000, -0.0000000000000000000, -1.000000000000000000 ) ) ;
#177 = PLANE ( 'NONE',  #71 ) ;
#178 = CLOSED_SHELL ( 'NONE', ( #214, #150, #38, #360, #281, #263, #297, #234, #378, #68, #364, #326, #180 ) ) ;
#179 = AXIS2_PLACEMENT_3D ( 'NONE', #192, #221, #219 ) ;
#180 = ADVANCED_FACE ( 'NONE', ( #140 ), #203, .F. ) ;
#181 = AXIS2_PLACEMENT_3D ( 'NONE', #104, #246, #242 ) ;
#182 = SURFACE_SIDE_STYLE ('',( #248 ) ) ;
#183 = LINE ( 'NONE', #124, #14 ) ;
#184 =( LENGTH_UNIT ( ) NAMED_UNIT ( * ) SI_UNIT ( $, .METRE. ) );
#185 = ORIENTED_EDGE ( 'NONE', *, *, #193, .F. ) ;
#186 = UNCERTAINTY_MEASURE_WITH_UNIT (LENGTH_MEASURE( 1.000000000000000082E-05 ), #42, 'distance_accuracy_value', 'NONE');
#187 = EDGE_CURVE ( 'NONE', #98, #286, #367, .T. ) ;
#188 = VECTOR ( 'NONE', #313, 39.37007874015748143 ) ;
#189 = AXIS2_PLACEMENT_3D ( 'NONE', #379, #37, #171 ) ;
#190 =( NAMED_UNIT ( * ) SI_UNIT ( $, .STERADIAN. ) SOLID_ANGLE_UNIT ( ) );
#191 = EDGE_LOOP ( 'NONE', ( #76, #249, #94, #229 ) ) ;
#192 = CARTESIAN_POINT ( 'NONE',  ( 0.0000000000000000000, 0.0000000000000000000, 2.229093999999999465 ) ) ;
#193 = EDGE_CURVE ( 'NONE', #376, #72, #84, .T. ) ;
#194 = DIRECTION ( 'NONE',  ( -1.000000000000000000, 0.0000000000000000000, 0.0000000000000000000 ) ) ;
#195 = DIRECTION ( 'NONE',  ( -0.1736481776669306087, 0.0000000000000000000, -0.9848077530122080203 ) ) ;
#196 = AXIS2_PLACEMENT_3D ( 'NONE', #201, #59, #239 ) ;
#197 = PRESENTATION_LAYER_ASSIGNMENT (  '', '', ( #113 ) ) ;
#198 = ORIENTED_EDGE ( 'NONE', *, *, #43, .T. ) ;
#199 = DIRECTION ( 'NONE',  ( 0.0000000000000000000, 0.0000000000000000000, -1.000000000000000000 ) ) ;
#200 = VERTEX_POINT ( 'NONE', #290 ) ;
#201 = CARTESIAN_POINT ( 'NONE',  ( 0.0000000000000000000, 0.0000000000000000000, 2.244094000000000033 ) ) ;
#202 = EDGE_CURVE ( 'NONE', #98, #366, #373, .T. ) ;
#203 = PLANE ( 'NONE',  #252 ) ;
#204 = AXIS2_PLACEMENT_3D ( 'NONE', #109, #288, #53 ) ;
#205 = CIRCLE ( 'NONE', #154, 0.1031100000000002570 ) ;
#206 = DIRECTION ( 'NONE',  ( -0.0000000000000000000, -0.0000000000000000000, -1.000000000000000000 ) ) ;
#207 = VERTEX_POINT ( 'NONE', #107 ) ;
#208 = DIRECTION ( 'NONE',  ( 0.0000000000000000000, 0.0000000000000000000, 1.000000000000000000 ) ) ;
#209 = EDGE_CURVE ( 'NONE', #156, #207, #312, .T. ) ;
#210 = LINE ( 'NONE', #237, #143 ) ;
#211 = ORIENTED_EDGE ( 'NONE', *, *, #56, .F. ) ;
#212 = CONICAL_SURFACE ( 'NONE', #300, 0.03936606300000000669, 0.1745329251994332254 ) ;
#213 = DIRECTION ( 'NONE',  ( -0.0000000000000000000, -0.0000000000000000000, -1.000000000000000000 ) ) ;
#214 = ADVANCED_FACE ( 'NONE', ( #375 ), #49, .T. ) ;
#215 = CARTESIAN_POINT ( 'NONE',  ( 0.03740150000000001113, 4.700657515314640450E-18, 0.08988159042539359267 ) ) ;
#216 = ORIENTED_EDGE ( 'NONE', *, *, #209, .F. ) ;
#217 = VECTOR ( 'NONE', #195, 39.37007874015748143 ) ;
#218 = CIRCLE ( 'NONE', #16, 0.03740150000000006664 ) ;
#219 = DIRECTION ( 'NONE',  ( 1.000000000000000000, 0.0000000000000000000, 0.0000000000000000000 ) ) ;
#220 = SURFACE_SIDE_STYLE ('',( #370 ) ) ;
#221 = DIRECTION ( 'NONE',  ( 0.0000000000000000000, 0.0000000000000000000, -1.000000000000000000 ) ) ;
#222 = EDGE_LOOP ( 'NONE', ( #308, #259, #133, #362 ) ) ;
#223 = DIRECTION ( 'NONE',  ( 1.000000000000000000, 0.0000000000000000000, 0.0000000000000000000 ) ) ;
#224 = ORIENTED_EDGE ( 'NONE', *, *, #145, .T. ) ;
#225 = CYLINDRICAL_SURFACE ( 'NONE', #196, 0.1181100000000000066 ) ;
#226 = EDGE_LOOP ( 'NONE', ( #282, #314 ) ) ;
#227 = CARTESIAN_POINT ( 'NONE',  ( 0.1031100000000002570, 1.262733314600838667E-17, 2.244094000000000033 ) ) ;
#228 = STYLED_ITEM ( 'NONE', ( #276 ), #103 ) ;
#229 = ORIENTED_EDGE ( 'NONE', *, *, #132, .F. ) ;
#230 = DIRECTION ( 'NONE',  ( -0.0000000000000000000, -0.0000000000000000000, -1.000000000000000000 ) ) ;
#231 = ORIENTED_EDGE ( 'NONE', *, *, #187, .T. ) ;
#232 = CARTESIAN_POINT ( 'NONE',  ( 0.03740150000000007358, 4.580362725830981266E-18, 0.5905510000000000481 ) ) ;
#233 = AXIS2_PLACEMENT_3D ( 'NONE', #110, #345, #266 ) ;
#234 = ADVANCED_FACE ( 'NONE', ( #55 ), #39, .T. ) ;
#235 = DIRECTION ( 'NONE',  ( -1.000000000000000000, 0.0000000000000000000, 0.0000000000000000000 ) ) ;
#236 = DIRECTION ( 'NONE',  ( 1.000000000000000000, 0.0000000000000000000, 0.0000000000000000000 ) ) ;
#237 = CARTESIAN_POINT ( 'NONE',  ( -0.03740150000000003888, 0.0000000000000000000, 0.0000000000000000000 ) ) ;
#238 = AXIS2_PLACEMENT_3D ( 'NONE', #6, #64, #62 ) ;
#239 = DIRECTION ( 'NONE',  ( -1.000000000000000000, 0.0000000000000000000, 0.0000000000000000000 ) ) ;
#240 = EDGE_CURVE ( 'NONE', #34, #48, #275, .T. ) ;
#241 = FACE_OUTER_BOUND ( 'NONE', #344, .T. ) ;
#242 = DIRECTION ( 'NONE',  ( 1.000000000000000000, 0.0000000000000000000, 0.0000000000000000000 ) ) ;
#243 = LENGTH_MEASURE_WITH_UNIT ( LENGTH_MEASURE( 0.02539999999999999897 ), #334 );
#244 = AXIS2_PLACEMENT_3D ( 'NONE', #284, #343, #292 ) ;
#245 = CONICAL_SURFACE ( 'NONE', #78, 0.1031100000000002570, 0.7853981633974318477 ) ;
#246 = DIRECTION ( 'NONE',  ( 0.0000000000000000000, 0.0000000000000000000, 1.000000000000000000 ) ) ;
#247 = CARTESIAN_POINT ( 'NONE',  ( -0.1181100000000000066, 0.0000000000000000000, 0.5905510000000000481 ) ) ;
#248 = SURFACE_STYLE_FILL_AREA ( #99 ) ;
#249 = ORIENTED_EDGE ( 'NONE', *, *, #346, .T. ) ;
#250 = DIRECTION ( 'NONE',  ( -0.7071067811865358044, 0.0000000000000000000, -0.7071067811865590080 ) ) ;
#251 = EDGE_LOOP ( 'NONE', ( #163, #74 ) ) ;
#252 = AXIS2_PLACEMENT_3D ( 'NONE', #167, #371, #340 ) ;
#253 = MECHANICAL_DESIGN_GEOMETRIC_PRESENTATION_REPRESENTATION (  '', ( #113 ), #278 ) ;
#254 = CARTESIAN_POINT ( 'NONE',  ( 0.03936606300000000669, 4.820952304798306567E-18, 0.0000000000000000000 ) ) ;
#255 = EDGE_CURVE ( 'NONE', #376, #34, #131, .T. ) ;
#256 = ORIENTED_EDGE ( 'NONE', *, *, #274, .T. ) ;
#257 = CYLINDRICAL_SURFACE ( 'NONE', #233, 0.03740150000000003888 ) ;
#258 = SURFACE_STYLE_USAGE ( .BOTH. , #220 ) ;
#259 = ORIENTED_EDGE ( 'NONE', *, *, #120, .T. ) ;
#260 = CARTESIAN_POINT ( 'NONE',  ( 0.0000000000000000000, 0.0000000000000000000, 2.244094000000000033 ) ) ;
#261 = EDGE_LOOP ( 'NONE', ( #19, #158, #231, #339 ) ) ;
#262 = EDGE_LOOP ( 'NONE', ( #289, #198, #79, #341 ) ) ;
#263 = ADVANCED_FACE ( 'NONE', ( #102 ), #225, .T. ) ;
#264 = CARTESIAN_POINT ( 'NONE',  ( 0.0000000000000000000, 0.0000000000000000000, 0.0000000000000000000 ) ) ;
#265 = ORIENTED_EDGE ( 'NONE', *, *, #43, .F. ) ;
#266 = DIRECTION ( 'NONE',  ( -1.000000000000000000, 0.0000000000000000000, 0.0000000000000000000 ) ) ;
#267 = DIRECTION ( 'NONE',  ( -0.0000000000000000000, -0.0000000000000000000, -1.000000000000000000 ) ) ;
#268 = EDGE_CURVE ( 'NONE', #366, #200, #299, .T. ) ;
#269 = FACE_OUTER_BOUND ( 'NONE', #251, .T. ) ;
#270 = AXIS2_PLACEMENT_3D ( 'NONE', #315, #230, #82 ) ;
#271 = CARTESIAN_POINT ( 'NONE',  ( 0.0000000000000000000, 0.0000000000000000000, 2.244094000000000033 ) ) ;
#272 = CARTESIAN_POINT ( 'NONE',  ( 0.0000000000000000000, 0.0000000000000000000, 2.244094000000000033 ) ) ;
#273 = CYLINDRICAL_SURFACE ( 'NONE', #238, 0.03936606300000000669 ) ;
#274 = EDGE_CURVE ( 'NONE', #200, #286, #3, .T. ) ;
#275 = CIRCLE ( 'NONE', #270, 0.1181100000000000066 ) ;
#276 = PRESENTATION_STYLE_ASSIGNMENT (( #40 ) ) ;
#277 = FILL_AREA_STYLE_COLOUR ( '', #301 ) ;
#278 =( GEOMETRIC_REPRESENTATION_CONTEXT ( 3 ) GLOBAL_UNCERTAINTY_ASSIGNED_CONTEXT ( ( #285 ) ) GLOBAL_UNIT_ASSIGNED_CONTEXT ( ( #279, #121, #11 ) ) REPRESENTATION_CONTEXT ( 'NONE', 'WORKASPACE' ) );
#279 =( CONVERSION_BASED_UNIT ( 'INCH', #51 ) LENGTH_UNIT ( ) NAMED_UNIT ( #164 ) );
#280 = CARTESIAN_POINT ( 'NONE',  ( 0.0000000000000000000, 0.0000000000000000000, 0.07874000000000000443 ) ) ;
#281 = ADVANCED_FACE ( 'NONE', ( #146 ), #354, .T. ) ;
#282 = ORIENTED_EDGE ( 'NONE', *, *, #335, .F. ) ;
#283 = EDGE_LOOP ( 'NONE', ( #372, #135 ) ) ;
#284 = CARTESIAN_POINT ( 'NONE',  ( 0.0000000000000000000, 0.0000000000000000000, 0.08988159042539359267 ) ) ;
#285 = UNCERTAINTY_MEASURE_WITH_UNIT (LENGTH_MEASURE( 1.000000000000000082E-05 ), #279, 'distance_accuracy_value', 'NONE');
#286 = VERTEX_POINT ( 'NONE', #118 ) ;
#287 = AXIS2_PLACEMENT_3D ( 'NONE', #18, #47, #97 ) ;
#288 = DIRECTION ( 'NONE',  ( -0.0000000000000000000, -0.0000000000000000000, -1.000000000000000000 ) ) ;
#289 = ORIENTED_EDGE ( 'NONE', *, *, #145, .F. ) ;
#290 = CARTESIAN_POINT ( 'NONE',  ( 0.03936606300000000669, 4.820952304798306567E-18, 0.07874000000000000443 ) ) ;
#291 = ORIENTED_EDGE ( 'NONE', *, *, #240, .F. ) ;
#292 = DIRECTION ( 'NONE',  ( -1.000000000000000000, 0.0000000000000000000, 0.0000000000000000000 ) ) ;
#293 = DIRECTION ( 'NONE',  ( 1.000000000000000000, 0.0000000000000000000, 0.0000000000000000000 ) ) ;
#294 = CIRCLE ( 'NONE', #244, 0.03740150000000001113 ) ;
#295 = AXIS2_PLACEMENT_3D ( 'NONE', #272, #142, #61 ) ;
#296 = CARTESIAN_POINT ( 'NONE',  ( 0.03740150000000006664, 0.0000000000000000000, 0.5905510000000000481 ) ) ;
#297 = ADVANCED_FACE ( 'NONE', ( #173 ), #328, .T. ) ;
#298 = FACE_OUTER_BOUND ( 'NONE', #191, .T. ) ;
#299 = LINE ( 'NONE', #144, #359 ) ;
#300 = AXIS2_PLACEMENT_3D ( 'NONE', #280, #69, #126 ) ;
#301 = COLOUR_RGB ( '',0.7921568627450980005, 0.8196078431372548767, 0.9333333333333333481 ) ;
#302 = FACE_OUTER_BOUND ( 'NONE', #261, .T. ) ;
#303 = FILL_AREA_STYLE ('',( #277 ) ) ;
#304 = LINE ( 'NONE', #319, #188 ) ;
#305 = DIRECTION ( 'NONE',  ( -0.0000000000000000000, -0.0000000000000000000, -1.000000000000000000 ) ) ;
#306 = ORIENTED_EDGE ( 'NONE', *, *, #335, .T. ) ;
#307 = ORIENTED_EDGE ( 'NONE', *, *, #125, .T. ) ;
#308 = ORIENTED_EDGE ( 'NONE', *, *, #56, .T. ) ;
#309 = DIRECTION ( 'NONE',  ( -1.000000000000000000, 0.0000000000000000000, 0.0000000000000000000 ) ) ;
#310 = PRESENTATION_STYLE_ASSIGNMENT (( #258 ) ) ;
#311 = ORIENTED_EDGE ( 'NONE', *, *, #106, .T. ) ;
#312 = CIRCLE ( 'NONE', #7, 0.03936606300000000669 ) ;
#313 = DIRECTION ( 'NONE',  ( -0.0000000000000000000, -0.0000000000000000000, -1.000000000000000000 ) ) ;
#314 = ORIENTED_EDGE ( 'NONE', *, *, #346, .F. ) ;
#315 = CARTESIAN_POINT ( 'NONE',  ( 0.0000000000000000000, 0.0000000000000000000, 0.5905510000000000481 ) ) ;
#316 = ORIENTED_EDGE ( 'NONE', *, *, #125, .F. ) ;
#317 = DIRECTION ( 'NONE',  ( -1.000000000000000000, 0.0000000000000000000, 0.0000000000000000000 ) ) ;
#318 = ADVANCED_BREP_SHAPE_REPRESENTATION ( 'Micro_MMBM-020-15', ( #103, #181 ), #330 ) ;
#319 = CARTESIAN_POINT ( 'NONE',  ( 0.03740150000000003888, 4.580362725830977414E-18, 0.0000000000000000000 ) ) ;
#320 = CIRCLE ( 'NONE', #287, 0.03936606300000000669 ) ;
#321 = EDGE_CURVE ( 'NONE', #119, #336, #205, .T. ) ;
#322 = CARTESIAN_POINT ( 'NONE',  ( 0.0000000000000000000, 0.0000000000000000000, 2.244094000000000033 ) ) ;
#323 = DIMENSIONAL_EXPONENTS ( 1.000000000000000000, 0.0000000000000000000, 0.0000000000000000000, 0.0000000000000000000, 0.0000000000000000000, 0.0000000000000000000, 0.0000000000000000000 ) ;
#324 = FACE_OUTER_BOUND ( 'NONE', #80, .T. ) ;
#325 = FACE_OUTER_BOUND ( 'NONE', #168, .T. ) ;
#326 = ADVANCED_FACE ( 'NONE', ( #325 ), #273, .T. ) ;
#327 = CARTESIAN_POINT ( 'NONE',  ( 0.0000000000000000000, 0.0000000000000000000, 0.0000000000000000000 ) ) ;
#328 = PLANE ( 'NONE',  #8 ) ;
#329 = DIRECTION ( 'NONE',  ( -1.000000000000000000, 0.0000000000000000000, 0.0000000000000000000 ) ) ;
#330 =( GEOMETRIC_REPRESENTATION_CONTEXT ( 3 ) GLOBAL_UNCERTAINTY_ASSIGNED_CONTEXT ( ( #20 ) ) GLOBAL_UNIT_ASSIGNED_CONTEXT ( ( #349, #332, #44 ) ) REPRESENTATION_CONTEXT ( 'NONE', 'WORKASPACE' ) );
#331 = DIRECTION ( 'NONE',  ( -0.0000000000000000000, -0.0000000000000000000, -1.000000000000000000 ) ) ;
#332 =( NAMED_UNIT ( * ) PLANE_ANGLE_UNIT ( ) SI_UNIT ( $, .RADIAN. ) );
#333 = CARTESIAN_POINT ( 'NONE',  ( 0.1181100000000000066, 1.446430334472939084E-17, 0.5905510000000000481 ) ) ;
#334 =( LENGTH_UNIT ( ) NAMED_UNIT ( * ) SI_UNIT ( $, .METRE. ) );
#335 = EDGE_CURVE ( 'NONE', #52, #157, #218, .T. ) ;
#336 = VERTEX_POINT ( 'NONE', #2 ) ;
#337 = AXIS2_PLACEMENT_3D ( 'NONE', #327, #176, #235 ) ;
#338 = CARTESIAN_POINT ( 'NONE',  ( 0.0000000000000000000, 0.0000000000000000000, 0.08988159042539359267 ) ) ;
#339 = ORIENTED_EDGE ( 'NONE', *, *, #274, .F. ) ;
#340 = DIRECTION ( 'NONE',  ( 1.000000000000000000, 0.0000000000000000000, -0.0000000000000000000 ) ) ;
#341 = ORIENTED_EDGE ( 'NONE', *, *, #87, .F. ) ;
#342 = MECHANICAL_DESIGN_GEOMETRIC_PRESENTATION_REPRESENTATION (  '', ( #228 ), #175 ) ;
#343 = DIRECTION ( 'NONE',  ( -0.0000000000000000000, -0.0000000000000000000, -1.000000000000000000 ) ) ;
#344 = EDGE_LOOP ( 'NONE', ( #26, #368, #211, #45 ) ) ;
#345 = DIRECTION ( 'NONE',  ( -0.0000000000000000000, -0.0000000000000000000, -1.000000000000000000 ) ) ;
#346 = EDGE_CURVE ( 'NONE', #157, #52, #122, .T. ) ;
#347 = CARTESIAN_POINT ( 'NONE',  ( -0.03936606300000000669, 0.0000000000000000000, 0.07874000000000000443 ) ) ;
#348 = LENGTH_MEASURE_WITH_UNIT ( LENGTH_MEASURE( 0.02539999999999999897 ), #147 );
#349 =( CONVERSION_BASED_UNIT ( 'INCH', #348 ) LENGTH_UNIT ( ) NAMED_UNIT ( #323 ) );
#350 = DIRECTION ( 'NONE',  ( -0.0000000000000000000, -0.0000000000000000000, -1.000000000000000000 ) ) ;
#351 = EDGE_CURVE ( 'NONE', #52, #98, #210, .T. ) ;
#352 = CARTESIAN_POINT ( 'NONE',  ( -0.1181100000000000066, 0.0000000000000000000, 2.229093999999999465 ) ) ;
#353 = CIRCLE ( 'NONE', #1, 0.1181100000000000066 ) ;
#354 = CYLINDRICAL_SURFACE ( 'NONE', #295, 0.1181100000000000066 ) ;
#355 = SHAPE_DEFINITION_REPRESENTATION ( #90, #318 ) ;
#356 = CARTESIAN_POINT ( 'NONE',  ( 0.0000000000000000000, 0.0000000000000000000, 0.5905510000000000481 ) ) ;
#357 = EDGE_CURVE ( 'NONE', #207, #156, #85, .T. ) ;
#358 = CARTESIAN_POINT ( 'NONE',  ( -0.1031100000000002570, 0.0000000000000000000, 2.244094000000000033 ) ) ;
#359 = VECTOR ( 'NONE', #86, 39.37007874015748143 ) ;
#360 = ADVANCED_FACE ( 'NONE', ( #324 ), #245, .T. ) ;
#361 = CARTESIAN_POINT ( 'NONE',  ( -0.03740150000000006664, 0.0000000000000000000, 0.5905510000000000481 ) ) ;
#362 = ORIENTED_EDGE ( 'NONE', *, *, #17, .F. ) ;
#363 = DIRECTION ( 'NONE',  ( -1.000000000000000000, 0.0000000000000000000, 0.0000000000000000000 ) ) ;
#364 = ADVANCED_FACE ( 'NONE', ( #298 ), #115, .T. ) ;
#365 = VECTOR ( 'NONE', #27, 39.37007874015748854 ) ;
#366 = VERTEX_POINT ( 'NONE', #215 ) ;
#367 = LINE ( 'NONE', #347, #217 ) ;
#368 = ORIENTED_EDGE ( 'NONE', *, *, #268, .T. ) ;
#369 = CARTESIAN_POINT ( 'NONE',  ( -0.1181100000000000066, 0.0000000000000000000, 2.244094000000000033 ) ) ;
#370 = SURFACE_STYLE_FILL_AREA ( #303 ) ;
#371 = DIRECTION ( 'NONE',  ( 0.0000000000000000000, 0.0000000000000000000, 1.000000000000000000 ) ) ;
#372 = ORIENTED_EDGE ( 'NONE', *, *, #152, .T. ) ;
#373 = CIRCLE ( 'NONE', #91, 0.03740150000000001113 ) ;
#374 = AXIS2_PLACEMENT_3D ( 'NONE', #141, #206, #114 ) ;
#375 = FACE_OUTER_BOUND ( 'NONE', #222, .T. ) ;
#376 = VERTEX_POINT ( 'NONE', #352 ) ;
#377 = CARTESIAN_POINT ( 'NONE',  ( 0.1031100000000002570, 1.354581824536888722E-17, 2.244094000000000033 ) ) ;
#378 = ADVANCED_FACE ( 'NONE', ( #65, #269 ), #177, .T. ) ;
#379 = CARTESIAN_POINT ( 'NONE',  ( 0.0000000000000000000, 0.0000000000000000000, 0.07874000000000000443 ) ) ;
ENDSEC;
END-ISO-10303-21;
