ISO-10303-21;
HEADER;
FILE_DESCRIPTION (( 'STEP AP214' ),
    '1' );
FILE_NAME ('24317.STEP',
    '2023-06-22T17:07:41',
    ( '' ),
    ( '' ),
    'SwSTEP 2.0',
    'SolidWorks 2023',
    '' );
FILE_SCHEMA (( 'AUTOMOTIVE_DESIGN' ));
ENDSEC;

DATA;
#1 = EDGE_LOOP ( 'NONE', ( #250, #102, #177, #160 ) ) ;
#2 = AXIS2_PLACEMENT_3D ( 'NONE', #49, #27, #234 ) ;
#3 = DIRECTION ( 'NONE',  ( -0.000000000000000000, -1.000000000000000000, -0.000000000000000000 ) ) ;
#4 = DIRECTION ( 'NONE',  ( 0.000000000000000000, -1.000000000000000000, -0.000000000000000000 ) ) ;
#5 = ADVANCED_FACE ( 'NONE', ( #40 ), #142, .T. ) ;
#6 = VERTEX_POINT ( 'NONE', #115 ) ;
#7 = LENGTH_MEASURE_WITH_UNIT ( LENGTH_MEASURE( 0.02539999999999999897 ), #281 );
#8 = ADVANCED_FACE ( 'NONE', ( #255 ), #161, .T. ) ;
#9 = CARTESIAN_POINT ( 'NONE',  ( 3.061616997868383018E-17, 0.000000000000000000, 0.2500000000000000000 ) ) ;
#10 = VERTEX_POINT ( 'NONE', #147 ) ;
#11 = UNCERTAINTY_MEASURE_WITH_UNIT (LENGTH_MEASURE( 1.000000000000000082E-05 ), #270, 'distance_accuracy_value', 'NONE');
#12 = AXIS2_PLACEMENT_3D ( 'NONE', #188, #283, #45 ) ;
#13 = DIRECTION ( 'NONE',  ( -0.000000000000000000, -1.000000000000000000, -0.000000000000000000 ) ) ;
#14 = VERTEX_POINT ( 'NONE', #106 ) ;
#15 = FILL_AREA_STYLE_COLOUR ( '', #43 ) ;
#16 = SURFACE_SIDE_STYLE ('',( #77 ) ) ;
#17 = FILL_AREA_STYLE_COLOUR ( '', #220 ) ;
#18 = PRESENTATION_LAYER_ASSIGNMENT (  '', '', ( #189 ) ) ;
#19 = FILL_AREA_STYLE ('',( #80 ) ) ;
#20 = STYLED_ITEM ( 'NONE', ( #41 ), #5 ) ;
#21 = LENGTH_MEASURE_WITH_UNIT ( LENGTH_MEASURE( 0.02539999999999999897 ), #309 );
#22 = MECHANICAL_DESIGN_GEOMETRIC_PRESENTATION_REPRESENTATION (  '', ( #273 ), #139 ) ;
#23 =( CONVERSION_BASED_UNIT ( 'INCH', #203 ) LENGTH_UNIT ( ) NAMED_UNIT ( #111 ) );
#24 = PLANE ( 'NONE',  #192 ) ;
#25 = AXIS2_PLACEMENT_3D ( 'NONE', #31, #4, #227 ) ;
#26 = PRESENTATION_STYLE_ASSIGNMENT (( #201 ) ) ;
#27 = DIRECTION ( 'NONE',  ( -0.000000000000000000, -1.000000000000000000, -0.000000000000000000 ) ) ;
#28 = ORIENTED_EDGE ( 'NONE', *, *, #105, .F. ) ;
#29 = CARTESIAN_POINT ( 'NONE',  ( 1.224646799147353207E-16, 2.500000000000000000, 0.000000000000000000 ) ) ;
#30 = AXIS2_PLACEMENT_3D ( 'NONE', #163, #66, #191 ) ;
#31 = CARTESIAN_POINT ( 'NONE',  ( 0.000000000000000000, 0.000000000000000000, 0.000000000000000000 ) ) ;
#32 = ORIENTED_EDGE ( 'NONE', *, *, #123, .T. ) ;
#33 = UNCERTAINTY_MEASURE_WITH_UNIT (LENGTH_MEASURE( 1.000000000000000082E-05 ), #297, 'distance_accuracy_value', 'NONE');
#34 = FILL_AREA_STYLE_COLOUR ( '', #215 ) ;
#35 = EDGE_LOOP ( 'NONE', ( #52, #100 ) ) ;
#36 =( LENGTH_UNIT ( ) NAMED_UNIT ( * ) SI_UNIT ( $, .METRE. ) );
#37 = ORIENTED_EDGE ( 'NONE', *, *, #217, .F. ) ;
#38 = MECHANICAL_DESIGN_GEOMETRIC_PRESENTATION_REPRESENTATION (  '', ( #243 ), #181 ) ;
#39 =( NAMED_UNIT ( * ) PLANE_ANGLE_UNIT ( ) SI_UNIT ( $, .RADIAN. ) );
#40 = FACE_OUTER_BOUND ( 'NONE', #208, .T. ) ;
#41 = PRESENTATION_STYLE_ASSIGNMENT (( #244 ) ) ;
#42 = DIRECTION ( 'NONE',  ( -0.000000000000000000, -1.000000000000000000, -0.000000000000000000 ) ) ;
#43 = COLOUR_RGB ( '',1.000000000000000000, 0.000000000000000000, 0.000000000000000000 ) ;
#44 = ORIENTED_EDGE ( 'NONE', *, *, #105, .T. ) ;
#45 = DIRECTION ( 'NONE',  ( -1.000000000000000000, 6.997981709413445489E-17, 0.000000000000000000 ) ) ;
#46 = EDGE_CURVE ( 'NONE', #6, #202, #259, .T. ) ;
#47 = CARTESIAN_POINT ( 'NONE',  ( 1.224646799147353207E-16, 2.500000000000000000, 0.000000000000000000 ) ) ;
#48 = MECHANICAL_DESIGN_GEOMETRIC_PRESENTATION_REPRESENTATION (  '', ( #189 ), #233 ) ;
#49 = CARTESIAN_POINT ( 'NONE',  ( 0.000000000000000000, 0.7500000000000001110, 0.000000000000000000 ) ) ;
#50 = ORIENTED_EDGE ( 'NONE', *, *, #164, .F. ) ;
#51 =( GEOMETRIC_REPRESENTATION_CONTEXT ( 3 ) GLOBAL_UNCERTAINTY_ASSIGNED_CONTEXT ( ( #291 ) ) GLOBAL_UNIT_ASSIGNED_CONTEXT ( ( #62, #287, #60 ) ) REPRESENTATION_CONTEXT ( 'NONE', 'WORKASPACE' ) );
#52 = ORIENTED_EDGE ( 'NONE', *, *, #46, .F. ) ;
#53 = VERTEX_POINT ( 'NONE', #69 ) ;
#54 = CARTESIAN_POINT ( 'NONE',  ( 0.2500000000000000555, 0.7499999999999998890, 3.061616997868383634E-17 ) ) ;
#55 = ORIENTED_EDGE ( 'NONE', *, *, #229, .T. ) ;
#56 = EDGE_LOOP ( 'NONE', ( #198, #206 ) ) ;
#57 = ADVANCED_FACE ( 'NONE', ( #136 ), #94, .T. ) ;
#58 = PRESENTATION_LAYER_ASSIGNMENT (  '', '', ( #20 ) ) ;
#59 = PRODUCT_DEFINITION_CONTEXT ( 'detailed design', #222, 'design' ) ;
#60 =( NAMED_UNIT ( * ) SI_UNIT ( $, .STERADIAN. ) SOLID_ANGLE_UNIT ( ) );
#61 = FILL_AREA_STYLE ('',( #162 ) ) ;
#62 =( CONVERSION_BASED_UNIT ( 'INCH', #21 ) LENGTH_UNIT ( ) NAMED_UNIT ( #209 ) );
#63 = STYLED_ITEM ( 'NONE', ( #275 ), #224 ) ;
#64 = APPLICATION_PROTOCOL_DEFINITION ( 'draft international standard', 'automotive_design', 1998, #222 ) ;
#65 = PRODUCT_RELATED_PRODUCT_CATEGORY ( 'part', '', ( #240 ) ) ;
#66 = DIRECTION ( 'NONE',  ( 0.000000000000000000, 1.000000000000000000, 0.000000000000000000 ) ) ;
#67 = DIRECTION ( 'NONE',  ( -0.000000000000000000, -1.000000000000000000, -0.000000000000000000 ) ) ;
#68 = AXIS2_PLACEMENT_3D ( 'NONE', #290, #264, #284 ) ;
#69 = CARTESIAN_POINT ( 'NONE',  ( 3.061616997868383018E-17, 0.000000000000000000, 0.2500000000000000000 ) ) ;
#70 = LENGTH_MEASURE_WITH_UNIT ( LENGTH_MEASURE( 0.02539999999999999897 ), #265 );
#71 = DIRECTION ( 'NONE',  ( -0.000000000000000000, -1.000000000000000000, -0.000000000000000000 ) ) ;
#72 = AXIS2_PLACEMENT_3D ( 'NONE', #118, #237, #213 ) ;
#73 = AXIS2_PLACEMENT_3D ( 'NONE', #308, #42, #92 ) ;
#74 = DIRECTION ( 'NONE',  ( 1.000000000000000000, -6.997981709413445489E-17, 0.000000000000000000 ) ) ;
#75 = CARTESIAN_POINT ( 'NONE',  ( 0.000000000000000000, 0.000000000000000000, -0.2500000000000000000 ) ) ;
#76 = EDGE_CURVE ( 'NONE', #202, #6, #282, .T. ) ;
#77 = SURFACE_STYLE_FILL_AREA ( #61 ) ;
#78 = SURFACE_STYLE_USAGE ( .BOTH. , #232 ) ;
#79 = EDGE_LOOP ( 'NONE', ( #125, #179 ) ) ;
#80 = FILL_AREA_STYLE_COLOUR ( '', #120 ) ;
#81 = DIMENSIONAL_EXPONENTS ( 1.000000000000000000, 0.000000000000000000, 0.000000000000000000, 0.000000000000000000, 0.000000000000000000, 0.000000000000000000, 0.000000000000000000 ) ;
#82 = LENGTH_MEASURE_WITH_UNIT ( LENGTH_MEASURE( 0.02539999999999999897 ), #159 );
#83 = FILL_AREA_STYLE ('',( #17 ) ) ;
#84 = PRESENTATION_STYLE_ASSIGNMENT (( #302 ) ) ;
#85 = LENGTH_MEASURE_WITH_UNIT ( LENGTH_MEASURE( 0.02539999999999999897 ), #90 );
#86 = APPLICATION_PROTOCOL_DEFINITION ( 'draft international standard', 'automotive_design', 1998, #122 ) ;
#87 = AXIS2_PLACEMENT_3D ( 'NONE', #47, #307, #245 ) ;
#88 = ADVANCED_FACE ( 'NONE', ( #193 ), #135, .T. ) ;
#89 = AXIS2_PLACEMENT_3D ( 'NONE', #146, #114, #218 ) ;
#90 =( LENGTH_UNIT ( ) NAMED_UNIT ( * ) SI_UNIT ( $, .METRE. ) );
#91 = SURFACE_STYLE_FILL_AREA ( #83 ) ;
#92 = DIRECTION ( 'NONE',  ( 0.000000000000000000, 0.000000000000000000, -1.000000000000000000 ) ) ;
#93 = VECTOR ( 'NONE', #172, 39.37007874015748143 ) ;
#94 = CYLINDRICAL_SURFACE ( 'NONE', #87, 0.2499999999999999722 ) ;
#95 =( NAMED_UNIT ( * ) SI_UNIT ( $, .STERADIAN. ) SOLID_ANGLE_UNIT ( ) );
#96 = PRESENTATION_LAYER_ASSIGNMENT (  '', '', ( #288 ) ) ;
#97 = MECHANICAL_DESIGN_GEOMETRIC_PRESENTATION_REPRESENTATION (  '', ( #63 ), #216 ) ;
#98 = ORIENTED_EDGE ( 'NONE', *, *, #178, .T. ) ;
#99 = LINE ( 'NONE', #153, #279 ) ;
#100 = ORIENTED_EDGE ( 'NONE', *, *, #76, .F. ) ;
#101 = DIRECTION ( 'NONE',  ( -6.997981709413445489E-17, -1.000000000000000000, 0.000000000000000000 ) ) ;
#102 = ORIENTED_EDGE ( 'NONE', *, *, #76, .T. ) ;
#103 = PRESENTATION_LAYER_ASSIGNMENT (  '', '', ( #63 ) ) ;
#104 = ORIENTED_EDGE ( 'NONE', *, *, #152, .F. ) ;
#105 = EDGE_CURVE ( 'NONE', #10, #271, #195, .T. ) ;
#106 = CARTESIAN_POINT ( 'NONE',  ( 0.000000000000000000, 0.000000000000000000, -0.2500000000000000000 ) ) ;
#107 = SURFACE_SIDE_STYLE ('',( #113 ) ) ;
#108 = CLOSED_SHELL ( 'NONE', ( #8, #231, #57, #173 ) ) ;
#109 = SURFACE_SIDE_STYLE ('',( #130 ) ) ;
#110 = DIMENSIONAL_EXPONENTS ( 1.000000000000000000, 0.000000000000000000, 0.000000000000000000, 0.000000000000000000, 0.000000000000000000, 0.000000000000000000, 0.000000000000000000 ) ;
#111 = DIMENSIONAL_EXPONENTS ( 1.000000000000000000, 0.000000000000000000, 0.000000000000000000, 0.000000000000000000, 0.000000000000000000, 0.000000000000000000, 0.000000000000000000 ) ;
#112 = AXIS2_PLACEMENT_3D ( 'NONE', #242, #67, #254 ) ;
#113 = SURFACE_STYLE_FILL_AREA ( #211 ) ;
#114 = DIRECTION ( 'NONE',  ( 6.997981709413445489E-17, 1.000000000000000000, -0.000000000000000000 ) ) ;
#115 = CARTESIAN_POINT ( 'NONE',  ( -0.2500000000000000555, 0.7499999999999998890, 0.000000000000000000 ) ) ;
#116 = EDGE_CURVE ( 'NONE', #6, #10, #124, .T. ) ;
#117 =( NAMED_UNIT ( * ) SI_UNIT ( $, .STERADIAN. ) SOLID_ANGLE_UNIT ( ) );
#118 = CARTESIAN_POINT ( 'NONE',  ( 1.516480271171051896E-32, 0.7499999999999998890, 0.000000000000000000 ) ) ;
#119 = UNCERTAINTY_MEASURE_WITH_UNIT (LENGTH_MEASURE( 1.000000000000000082E-05 ), #23, 'distance_accuracy_value', 'NONE');
#120 = COLOUR_RGB ( '',1.000000000000000000, 0.000000000000000000, 0.000000000000000000 ) ;
#121 = SURFACE_STYLE_FILL_AREA ( #247 ) ;
#122 = APPLICATION_CONTEXT ( 'automotive_design' ) ;
#123 = EDGE_CURVE ( 'NONE', #202, #271, #99, .T. ) ;
#124 = LINE ( 'NONE', #148, #165 ) ;
#125 = ORIENTED_EDGE ( 'NONE', *, *, #178, .F. ) ;
#126 = FACE_OUTER_BOUND ( 'NONE', #277, .T. ) ;
#127 = CIRCLE ( 'NONE', #2, 0.2500000000000000555 ) ;
#128 = DIRECTION ( 'NONE',  ( 6.997981709413445489E-17, 1.000000000000000000, -0.000000000000000000 ) ) ;
#129 = VERTEX_POINT ( 'NONE', #149 ) ;
#130 = SURFACE_STYLE_FILL_AREA ( #19 ) ;
#131 =( CONVERSION_BASED_UNIT ( 'INCH', #301 ) LENGTH_UNIT ( ) NAMED_UNIT ( #138 ) );
#132 = MECHANICAL_DESIGN_GEOMETRIC_PRESENTATION_REPRESENTATION (  '', ( #20 ), #51 ) ;
#133 = CIRCLE ( 'NONE', #73, 0.2500000000000000000 ) ;
#134 = SURFACE_STYLE_USAGE ( .BOTH. , #16 ) ;
#135 = PLANE ( 'NONE',  #25 ) ;
#136 = FACE_OUTER_BOUND ( 'NONE', #1, .T. ) ;
#137 = CARTESIAN_POINT ( 'NONE',  ( 0.000000000000000000, 0.000000000000000000, 0.000000000000000000 ) ) ;
#138 = DIMENSIONAL_EXPONENTS ( 1.000000000000000000, 0.000000000000000000, 0.000000000000000000, 0.000000000000000000, 0.000000000000000000, 0.000000000000000000, 0.000000000000000000 ) ;
#139 =( GEOMETRIC_REPRESENTATION_CONTEXT ( 3 ) GLOBAL_UNCERTAINTY_ASSIGNED_CONTEXT ( ( #33 ) ) GLOBAL_UNIT_ASSIGNED_CONTEXT ( ( #297, #248, #95 ) ) REPRESENTATION_CONTEXT ( 'NONE', 'WORKASPACE' ) );
#140 =( NAMED_UNIT ( * ) PLANE_ANGLE_UNIT ( ) SI_UNIT ( $, .RADIAN. ) );
#141 = DIRECTION ( 'NONE',  ( 0.000000000000000000, 0.000000000000000000, -1.000000000000000000 ) ) ;
#142 = CYLINDRICAL_SURFACE ( 'NONE', #112, 0.2500000000000000000 ) ;
#143 =( GEOMETRIC_REPRESENTATION_CONTEXT ( 3 ) GLOBAL_UNCERTAINTY_ASSIGNED_CONTEXT ( ( #253 ) ) GLOBAL_UNIT_ASSIGNED_CONTEXT ( ( #131, #39, #207 ) ) REPRESENTATION_CONTEXT ( 'NONE', 'WORKASPACE' ) );
#144 = PRESENTATION_LAYER_ASSIGNMENT (  '', '', ( #243 ) ) ;
#145 = FACE_OUTER_BOUND ( 'NONE', #35, .T. ) ;
#146 = CARTESIAN_POINT ( 'NONE',  ( 1.224646799147353207E-16, 2.500000000000000000, 0.000000000000000000 ) ) ;
#147 = CARTESIAN_POINT ( 'NONE',  ( -0.2499999999999997502, 2.500000000000000000, 0.000000000000000000 ) ) ;
#148 = CARTESIAN_POINT ( 'NONE',  ( -0.2499999999999998335, 2.500000000000000000, 0.000000000000000000 ) ) ;
#149 = CARTESIAN_POINT ( 'NONE',  ( 0.000000000000000000, 0.7500000000000001110, -0.2500000000000000555 ) ) ;
#150 = DIRECTION ( 'NONE',  ( -1.000000000000000000, 0.000000000000000000, 0.000000000000000000 ) ) ;
#151 = ORIENTED_EDGE ( 'NONE', *, *, #116, .F. ) ;
#152 = EDGE_CURVE ( 'NONE', #129, #14, #226, .T. ) ;
#153 = CARTESIAN_POINT ( 'NONE',  ( 0.2500000000000001110, 2.500000000000000000, 3.061616997868382402E-17 ) ) ;
#154 = VECTOR ( 'NONE', #3, 39.37007874015748143 ) ;
#155 = ORIENTED_EDGE ( 'NONE', *, *, #46, .T. ) ;
#156 = EDGE_LOOP ( 'NONE', ( #50, #55, #230, #257 ) ) ;
#157 = SURFACE_STYLE_FILL_AREA ( #236 ) ;
#158 = ORIENTED_EDGE ( 'NONE', *, *, #164, .T. ) ;
#159 =( LENGTH_UNIT ( ) NAMED_UNIT ( * ) SI_UNIT ( $, .METRE. ) );
#160 = ORIENTED_EDGE ( 'NONE', *, *, #285, .F. ) ;
#161 = CYLINDRICAL_SURFACE ( 'NONE', #212, 0.2499999999999999722 ) ;
#162 = FILL_AREA_STYLE_COLOUR ( '', #299 ) ;
#163 = CARTESIAN_POINT ( 'NONE',  ( 0.000000000000000000, 0.7500000000000001110, 0.000000000000000000 ) ) ;
#164 = EDGE_CURVE ( 'NONE', #200, #53, #266, .T. ) ;
#165 = VECTOR ( 'NONE', #128, 39.37007874015748143 ) ;
#166 = SHAPE_DEFINITION_REPRESENTATION ( #303, #228 ) ;
#167 = DIRECTION ( 'NONE',  ( 1.000000000000000000, 0.000000000000000000, 0.000000000000000000 ) ) ;
#168 = CARTESIAN_POINT ( 'NONE',  ( 1.224646799147353207E-16, 2.500000000000000000, 0.000000000000000000 ) ) ;
#169 = CIRCLE ( 'NONE', #204, 0.2500000000000000000 ) ;
#170 = CARTESIAN_POINT ( 'NONE',  ( 0.000000000000000000, 0.7500000000000001110, 0.000000000000000000 ) ) ;
#171 = DIRECTION ( 'NONE',  ( -1.000000000000000000, 0.000000000000000000, 0.000000000000000000 ) ) ;
#172 = DIRECTION ( 'NONE',  ( -0.000000000000000000, -1.000000000000000000, -0.000000000000000000 ) ) ;
#173 = ADVANCED_FACE ( 'NONE', ( #126 ), #24, .F. ) ;
#174 =( NAMED_UNIT ( * ) PLANE_ANGLE_UNIT ( ) SI_UNIT ( $, .RADIAN. ) );
#175 = ADVANCED_FACE ( 'NONE', ( #223 ), #194, .T. ) ;
#176 = SURFACE_SIDE_STYLE ('',( #121 ) ) ;
#177 = ORIENTED_EDGE ( 'NONE', *, *, #116, .T. ) ;
#178 = EDGE_CURVE ( 'NONE', #129, #200, #127, .T. ) ;
#179 = ORIENTED_EDGE ( 'NONE', *, *, #229, .F. ) ;
#180 = SURFACE_STYLE_USAGE ( .BOTH. , #109 ) ;
#181 =( GEOMETRIC_REPRESENTATION_CONTEXT ( 3 ) GLOBAL_UNCERTAINTY_ASSIGNED_CONTEXT ( ( #246 ) ) GLOBAL_UNIT_ASSIGNED_CONTEXT ( ( #182, #300, #280 ) ) REPRESENTATION_CONTEXT ( 'NONE', 'WORKASPACE' ) );
#182 =( CONVERSION_BASED_UNIT ( 'INCH', #82 ) LENGTH_UNIT ( ) NAMED_UNIT ( #81 ) );
#183 = DIMENSIONAL_EXPONENTS ( 1.000000000000000000, 0.000000000000000000, 0.000000000000000000, 0.000000000000000000, 0.000000000000000000, 0.000000000000000000, 0.000000000000000000 ) ;
#184 = ORIENTED_EDGE ( 'NONE', *, *, #285, .T. ) ;
#185 = UNCERTAINTY_MEASURE_WITH_UNIT (LENGTH_MEASURE( 1.000000000000000082E-05 ), #260, 'distance_accuracy_value', 'NONE');
#186 = PRESENTATION_STYLE_ASSIGNMENT (( #134 ) ) ;
#187 =( NAMED_UNIT ( * ) SI_UNIT ( $, .STERADIAN. ) SOLID_ANGLE_UNIT ( ) );
#188 = CARTESIAN_POINT ( 'NONE',  ( 6.121468500660642407E-34, 0.7500000000000001110, 0.000000000000000000 ) ) ;
#189 = STYLED_ITEM ( 'NONE', ( #84 ), #88 ) ;
#190 = CARTESIAN_POINT ( 'NONE',  ( 0.000000000000000000, 0.000000000000000000, 0.000000000000000000 ) ) ;
#191 = DIRECTION ( 'NONE',  ( 0.000000000000000000, -0.000000000000000000, 1.000000000000000000 ) ) ;
#192 = AXIS2_PLACEMENT_3D ( 'NONE', #199, #101, #74 ) ;
#193 = FACE_OUTER_BOUND ( 'NONE', #56, .T. ) ;
#194 = CYLINDRICAL_SURFACE ( 'NONE', #261, 0.2500000000000000000 ) ;
#195 = CIRCLE ( 'NONE', #267, 0.2499999999999998890 ) ;
#196 = DIRECTION ( 'NONE',  ( 6.997981709413445489E-17, 1.000000000000000000, -0.000000000000000000 ) ) ;
#197 = AXIS2_PLACEMENT_3D ( 'NONE', #170, #305, #141 ) ;
#198 = ORIENTED_EDGE ( 'NONE', *, *, #217, .T. ) ;
#199 = CARTESIAN_POINT ( 'NONE',  ( 0.2500000000000000555, 2.500000000000000000, 0.000000000000000000 ) ) ;
#200 = VERTEX_POINT ( 'NONE', #276 ) ;
#201 = SURFACE_STYLE_USAGE ( .BOTH. , #176 ) ;
#202 = VERTEX_POINT ( 'NONE', #54 ) ;
#203 = LENGTH_MEASURE_WITH_UNIT ( LENGTH_MEASURE( 0.02539999999999999897 ), #251 );
#204 = AXIS2_PLACEMENT_3D ( 'NONE', #137, #13, #238 ) ;
#205 = MANIFOLD_SOLID_BREP ( 'Revolve - Cutting Edge', #294 ) ;
#206 = ORIENTED_EDGE ( 'NONE', *, *, #304, .T. ) ;
#207 =( NAMED_UNIT ( * ) SI_UNIT ( $, .STERADIAN. ) SOLID_ANGLE_UNIT ( ) );
#208 = EDGE_LOOP ( 'NONE', ( #98, #158, #37, #104 ) ) ;
#209 = DIMENSIONAL_EXPONENTS ( 1.000000000000000000, 0.000000000000000000, 0.000000000000000000, 0.000000000000000000, 0.000000000000000000, 0.000000000000000000, 0.000000000000000000 ) ;
#210 = PLANE ( 'NONE',  #30 ) ;
#211 = FILL_AREA_STYLE ('',( #15 ) ) ;
#212 = AXIS2_PLACEMENT_3D ( 'NONE', #168, #235, #171 ) ;
#213 = DIRECTION ( 'NONE',  ( -1.000000000000000000, 0.000000000000000000, 0.000000000000000000 ) ) ;
#214 = MANIFOLD_SOLID_BREP ( 'Revolve - Tool Body (Straight Shanked)', #108 ) ;
#215 = COLOUR_RGB ( '',0.7921568627450980005, 0.8196078431372548767, 0.9333333333333333481 ) ;
#216 =( GEOMETRIC_REPRESENTATION_CONTEXT ( 3 ) GLOBAL_UNCERTAINTY_ASSIGNED_CONTEXT ( ( #119 ) ) GLOBAL_UNIT_ASSIGNED_CONTEXT ( ( #23, #286, #117 ) ) REPRESENTATION_CONTEXT ( 'NONE', 'WORKASPACE' ) );
#217 = EDGE_CURVE ( 'NONE', #14, #53, #169, .T. ) ;
#218 = DIRECTION ( 'NONE',  ( -1.000000000000000000, 0.000000000000000000, 0.000000000000000000 ) ) ;
#219 = SURFACE_SIDE_STYLE ('',( #91 ) ) ;
#220 = COLOUR_RGB ( '',1.000000000000000000, 0.000000000000000000, 0.000000000000000000 ) ;
#221 = MECHANICAL_DESIGN_GEOMETRIC_PRESENTATION_REPRESENTATION (  '', ( #288 ), #143 ) ;
#222 = APPLICATION_CONTEXT ( 'automotive_design' ) ;
#223 = FACE_OUTER_BOUND ( 'NONE', #156, .T. ) ;
#224 = ADVANCED_FACE ( 'NONE', ( #278 ), #210, .T. ) ;
#225 = CIRCLE ( 'NONE', #89, 0.2499999999999998890 ) ;
#226 = LINE ( 'NONE', #75, #93 ) ;
#227 = DIRECTION ( 'NONE',  ( 0.000000000000000000, 0.000000000000000000, -1.000000000000000000 ) ) ;
#228 = ADVANCED_BREP_SHAPE_REPRESENTATION ( '24317', ( #205, #214, #268 ), #274 ) ;
#229 = EDGE_CURVE ( 'NONE', #200, #129, #262, .T. ) ;
#230 = ORIENTED_EDGE ( 'NONE', *, *, #152, .T. ) ;
#231 = ADVANCED_FACE ( 'NONE', ( #145 ), #263, .F. ) ;
#232 = SURFACE_SIDE_STYLE ('',( #157 ) ) ;
#233 =( GEOMETRIC_REPRESENTATION_CONTEXT ( 3 ) GLOBAL_UNCERTAINTY_ASSIGNED_CONTEXT ( ( #11 ) ) GLOBAL_UNIT_ASSIGNED_CONTEXT ( ( #270, #174, #298 ) ) REPRESENTATION_CONTEXT ( 'NONE', 'WORKASPACE' ) );
#234 = DIRECTION ( 'NONE',  ( 0.000000000000000000, 0.000000000000000000, -1.000000000000000000 ) ) ;
#235 = DIRECTION ( 'NONE',  ( 6.997981709413445489E-17, 1.000000000000000000, -0.000000000000000000 ) ) ;
#236 = FILL_AREA_STYLE ('',( #34 ) ) ;
#237 = DIRECTION ( 'NONE',  ( 6.997981709413445489E-17, 1.000000000000000000, -0.000000000000000000 ) ) ;
#238 = DIRECTION ( 'NONE',  ( 0.000000000000000000, 0.000000000000000000, -1.000000000000000000 ) ) ;
#239 = DIMENSIONAL_EXPONENTS ( 1.000000000000000000, 0.000000000000000000, 0.000000000000000000, 0.000000000000000000, 0.000000000000000000, 0.000000000000000000, 0.000000000000000000 ) ;
#240 = PRODUCT ( '24317', '24317', '', ( #258 ) ) ;
#241 = CARTESIAN_POINT ( 'NONE',  ( 0.2500000000000000555, 2.500000000000000000, 3.061616997868383634E-17 ) ) ;
#242 = CARTESIAN_POINT ( 'NONE',  ( 0.000000000000000000, 0.000000000000000000, 0.000000000000000000 ) ) ;
#243 = STYLED_ITEM ( 'NONE', ( #186 ), #205 ) ;
#244 = SURFACE_STYLE_USAGE ( .BOTH. , #219 ) ;
#245 = DIRECTION ( 'NONE',  ( -1.000000000000000000, 0.000000000000000000, 0.000000000000000000 ) ) ;
#246 = UNCERTAINTY_MEASURE_WITH_UNIT (LENGTH_MEASURE( 1.000000000000000082E-05 ), #182, 'distance_accuracy_value', 'NONE');
#247 = FILL_AREA_STYLE ('',( #296 ) ) ;
#248 =( NAMED_UNIT ( * ) PLANE_ANGLE_UNIT ( ) SI_UNIT ( $, .RADIAN. ) );
#249 = PRESENTATION_LAYER_ASSIGNMENT (  '', '', ( #273 ) ) ;
#250 = ORIENTED_EDGE ( 'NONE', *, *, #123, .F. ) ;
#251 =( LENGTH_UNIT ( ) NAMED_UNIT ( * ) SI_UNIT ( $, .METRE. ) );
#252 = EDGE_LOOP ( 'NONE', ( #155, #32, #28, #151 ) ) ;
#253 = UNCERTAINTY_MEASURE_WITH_UNIT (LENGTH_MEASURE( 1.000000000000000082E-05 ), #131, 'distance_accuracy_value', 'NONE');
#254 = DIRECTION ( 'NONE',  ( 0.000000000000000000, 0.000000000000000000, -1.000000000000000000 ) ) ;
#255 = FACE_OUTER_BOUND ( 'NONE', #252, .T. ) ;
#256 = PRESENTATION_STYLE_ASSIGNMENT (( #78 ) ) ;
#257 = ORIENTED_EDGE ( 'NONE', *, *, #304, .F. ) ;
#258 = PRODUCT_CONTEXT ( 'NONE', #122, 'mechanical' ) ;
#259 = CIRCLE ( 'NONE', #68, 0.2500000000000000555 ) ;
#260 =( CONVERSION_BASED_UNIT ( 'INCH', #85 ) LENGTH_UNIT ( ) NAMED_UNIT ( #239 ) );
#261 = AXIS2_PLACEMENT_3D ( 'NONE', #292, #71, #269 ) ;
#262 = CIRCLE ( 'NONE', #197, 0.2500000000000000555 ) ;
#263 = PLANE ( 'NONE',  #12 ) ;
#264 = DIRECTION ( 'NONE',  ( 6.997981709413445489E-17, 1.000000000000000000, -0.000000000000000000 ) ) ;
#265 =( LENGTH_UNIT ( ) NAMED_UNIT ( * ) SI_UNIT ( $, .METRE. ) );
#266 = LINE ( 'NONE', #9, #154 ) ;
#267 = AXIS2_PLACEMENT_3D ( 'NONE', #29, #196, #150 ) ;
#268 = AXIS2_PLACEMENT_3D ( 'NONE', #190, #306, #167 ) ;
#269 = DIRECTION ( 'NONE',  ( 0.000000000000000000, 0.000000000000000000, -1.000000000000000000 ) ) ;
#270 =( CONVERSION_BASED_UNIT ( 'INCH', #7 ) LENGTH_UNIT ( ) NAMED_UNIT ( #183 ) );
#271 = VERTEX_POINT ( 'NONE', #241 ) ;
#272 = DIRECTION ( 'NONE',  ( 6.997981709413445489E-17, 1.000000000000000000, -0.000000000000000000 ) ) ;
#273 = STYLED_ITEM ( 'NONE', ( #26 ), #175 ) ;
#274 =( GEOMETRIC_REPRESENTATION_CONTEXT ( 3 ) GLOBAL_UNCERTAINTY_ASSIGNED_CONTEXT ( ( #185 ) ) GLOBAL_UNIT_ASSIGNED_CONTEXT ( ( #260, #140, #187 ) ) REPRESENTATION_CONTEXT ( 'NONE', 'WORKASPACE' ) );
#275 = PRESENTATION_STYLE_ASSIGNMENT (( #180 ) ) ;
#276 = CARTESIAN_POINT ( 'NONE',  ( 3.061616997868383634E-17, 0.7500000000000001110, 0.2500000000000000555 ) ) ;
#277 = EDGE_LOOP ( 'NONE', ( #44, #184 ) ) ;
#278 = FACE_OUTER_BOUND ( 'NONE', #79, .T. ) ;
#279 = VECTOR ( 'NONE', #272, 39.37007874015748143 ) ;
#280 =( NAMED_UNIT ( * ) SI_UNIT ( $, .STERADIAN. ) SOLID_ANGLE_UNIT ( ) );
#281 =( LENGTH_UNIT ( ) NAMED_UNIT ( * ) SI_UNIT ( $, .METRE. ) );
#282 = CIRCLE ( 'NONE', #72, 0.2500000000000000555 ) ;
#283 = DIRECTION ( 'NONE',  ( 6.997981709413445489E-17, 1.000000000000000000, -0.000000000000000000 ) ) ;
#284 = DIRECTION ( 'NONE',  ( -1.000000000000000000, 0.000000000000000000, 0.000000000000000000 ) ) ;
#285 = EDGE_CURVE ( 'NONE', #271, #10, #225, .T. ) ;
#286 =( NAMED_UNIT ( * ) PLANE_ANGLE_UNIT ( ) SI_UNIT ( $, .RADIAN. ) );
#287 =( NAMED_UNIT ( * ) PLANE_ANGLE_UNIT ( ) SI_UNIT ( $, .RADIAN. ) );
#288 = STYLED_ITEM ( 'NONE', ( #256 ), #214 ) ;
#289 = PRODUCT_DEFINITION_FORMATION_WITH_SPECIFIED_SOURCE ( 'ANY', '', #240, .NOT_KNOWN. ) ;
#290 = CARTESIAN_POINT ( 'NONE',  ( 1.516480271171051896E-32, 0.7499999999999998890, 0.000000000000000000 ) ) ;
#291 = UNCERTAINTY_MEASURE_WITH_UNIT (LENGTH_MEASURE( 1.000000000000000082E-05 ), #62, 'distance_accuracy_value', 'NONE');
#292 = CARTESIAN_POINT ( 'NONE',  ( 0.000000000000000000, 0.000000000000000000, 0.000000000000000000 ) ) ;
#293 = PRODUCT_DEFINITION ( 'UNKNOWN', '', #289, #59 ) ;
#294 = CLOSED_SHELL ( 'NONE', ( #5, #224, #175, #88 ) ) ;
#295 = COLOUR_RGB ( '',1.000000000000000000, 0.000000000000000000, 0.000000000000000000 ) ;
#296 = FILL_AREA_STYLE_COLOUR ( '', #295 ) ;
#297 =( CONVERSION_BASED_UNIT ( 'INCH', #70 ) LENGTH_UNIT ( ) NAMED_UNIT ( #110 ) );
#298 =( NAMED_UNIT ( * ) SI_UNIT ( $, .STERADIAN. ) SOLID_ANGLE_UNIT ( ) );
#299 = COLOUR_RGB ( '',0.7921568627450980005, 0.8196078431372548767, 0.9333333333333333481 ) ;
#300 =( NAMED_UNIT ( * ) PLANE_ANGLE_UNIT ( ) SI_UNIT ( $, .RADIAN. ) );
#301 = LENGTH_MEASURE_WITH_UNIT ( LENGTH_MEASURE( 0.02539999999999999897 ), #36 );
#302 = SURFACE_STYLE_USAGE ( .BOTH. , #107 ) ;
#303 = PRODUCT_DEFINITION_SHAPE ( 'NONE', 'NONE',  #293 ) ;
#304 = EDGE_CURVE ( 'NONE', #53, #14, #133, .T. ) ;
#305 = DIRECTION ( 'NONE',  ( -0.000000000000000000, -1.000000000000000000, -0.000000000000000000 ) ) ;
#306 = DIRECTION ( 'NONE',  ( 0.000000000000000000, 0.000000000000000000, 1.000000000000000000 ) ) ;
#307 = DIRECTION ( 'NONE',  ( 6.997981709413445489E-17, 1.000000000000000000, -0.000000000000000000 ) ) ;
#308 = CARTESIAN_POINT ( 'NONE',  ( 0.000000000000000000, 0.000000000000000000, 0.000000000000000000 ) ) ;
#309 =( LENGTH_UNIT ( ) NAMED_UNIT ( * ) SI_UNIT ( $, .METRE. ) );
ENDSEC;
END-ISO-10303-21;
