ISO-10303-21;
HEADER;
FILE_DESCRIPTION (( 'STEP AP214' ),
    '1' );
FILE_NAME ('Micro_AEMM-050-2X.STEP',
    '2022-03-15T14:26:16',
    ( '' ),
    ( '' ),
    'SwSTEP 2.0',
    'SolidWorks 2022',
    '' );
FILE_SCHEMA (( 'AUTOMOTIVE_DESIGN' ));
ENDSEC;

DATA;
#1 = DIRECTION ( 'NONE',  ( -0.1736481776669311639, 2.126576849575783008E-17, 0.9848077530122080203 ) ) ;
#2 = DIRECTION ( 'NONE',  ( 0.7071067811865358044, 8.659560562354788645E-17, -0.7071067811865590080 ) ) ;
#3 =( CONVERSION_BASED_UNIT ( 'INCH', #183 ) LENGTH_UNIT ( ) NAMED_UNIT ( #290 ) );
#4 = DIRECTION ( 'NONE',  ( 1.000000000000000000, 0.000000000000000000, 0.000000000000000000 ) ) ;
#5 = CARTESIAN_POINT ( 'NONE',  ( 0.000000000000000000, 0.000000000000000000, 2.244094000000000033 ) ) ;
#6 = DIRECTION ( 'NONE',  ( 0.000000000000000000, 0.000000000000000000, 1.000000000000000000 ) ) ;
#7 = PRODUCT_CONTEXT ( 'NONE', #251, 'mechanical' ) ;
#8 = DIRECTION ( 'NONE',  ( 0.000000000000000000, 0.000000000000000000, 1.000000000000000000 ) ) ;
#9 = EDGE_CURVE ( 'NONE', #172, #217, #105, .T. ) ;
#10 = ORIENTED_EDGE ( 'NONE', *, *, #254, .T. ) ;
#11 = ORIENTED_EDGE ( 'NONE', *, *, #232, .T. ) ;
#12 = EDGE_CURVE ( 'NONE', #172, #268, #121, .T. ) ;
#13 = ORIENTED_EDGE ( 'NONE', *, *, #232, .F. ) ;
#14 = AXIS2_PLACEMENT_3D ( 'NONE', #53, #233, #108 ) ;
#15 = ORIENTED_EDGE ( 'NONE', *, *, #93, .F. ) ;
#16 = CARTESIAN_POINT ( 'NONE',  ( 7.714307363656999460E-17, 0.000000000000000000, 0.6299209999999999532 ) ) ;
#17 = EDGE_CURVE ( 'NONE', #71, #239, #134, .T. ) ;
#18 = ORIENTED_EDGE ( 'NONE', *, *, #254, .F. ) ;
#19 = STYLED_ITEM ( 'NONE', ( #177 ), #67 ) ;
#20 =( NAMED_UNIT ( * ) SI_UNIT ( $, .STERADIAN. ) SOLID_ANGLE_UNIT ( ) );
#21 = PRODUCT_RELATED_PRODUCT_CATEGORY ( 'part', '', ( #153 ) ) ;
#22 = FACE_OUTER_BOUND ( 'NONE', #82, .T. ) ;
#23 = LINE ( 'NONE', #27, #224 ) ;
#24 = ORIENTED_EDGE ( 'NONE', *, *, #118, .F. ) ;
#25 = CIRCLE ( 'NONE', #14, 0.09832657499999998552 ) ;
#26 = CARTESIAN_POINT ( 'NONE',  ( 0.000000000000000000, 0.000000000000000000, 2.244094000000000033 ) ) ;
#27 = CARTESIAN_POINT ( 'NONE',  ( 0.1031100000000002570, 1.262733314600838667E-17, 2.244094000000000033 ) ) ;
#28 = FACE_OUTER_BOUND ( 'NONE', #111, .T. ) ;
#29 = CARTESIAN_POINT ( 'NONE',  ( 0.1181100000000000066, 1.446430334472939084E-17, 2.229093999999999465 ) ) ;
#30 = DIRECTION ( 'NONE',  ( 1.000000000000000000, 0.000000000000000000, 0.000000000000000000 ) ) ;
#31 = DIRECTION ( 'NONE',  ( -0.000000000000000000, -0.000000000000000000, -1.000000000000000000 ) ) ;
#32 = VECTOR ( 'NONE', #110, 39.37007874015748143 ) ;
#33 = VERTEX_POINT ( 'NONE', #96 ) ;
#34 = CIRCLE ( 'NONE', #294, 0.1181100000000000066 ) ;
#35 = AXIS2_PLACEMENT_3D ( 'NONE', #65, #286, #69 ) ;
#36 = DIRECTION ( 'NONE',  ( 0.000000000000000000, 0.000000000000000000, -1.000000000000000000 ) ) ;
#37 = ORIENTED_EDGE ( 'NONE', *, *, #178, .T. ) ;
#38 = ORIENTED_EDGE ( 'NONE', *, *, #109, .F. ) ;
#39 = AXIS2_PLACEMENT_3D ( 'NONE', #104, #184, #278 ) ;
#40 = CIRCLE ( 'NONE', #35, 0.1181100000000000066 ) ;
#41 = CARTESIAN_POINT ( 'NONE',  ( 0.1181100000000000899, 1.446430334472940009E-17, 0.7421183785322699178 ) ) ;
#42 = ORIENTED_EDGE ( 'NONE', *, *, #199, .T. ) ;
#43 = DIRECTION ( 'NONE',  ( 1.000000000000000000, 0.000000000000000000, -0.000000000000000000 ) ) ;
#44 = SURFACE_STYLE_FILL_AREA ( #222 ) ;
#45 = ORIENTED_EDGE ( 'NONE', *, *, #215, .F. ) ;
#46 = ADVANCED_FACE ( 'NONE', ( #264 ), #267, .F. ) ;
#47 = FILL_AREA_STYLE_COLOUR ( '', #136 ) ;
#48 = CARTESIAN_POINT ( 'NONE',  ( 0.09832657499999998552, 1.204153253448721512E-17, 0.000000000000000000 ) ) ;
#49 = FILL_AREA_STYLE ('',( #123 ) ) ;
#50 = ORIENTED_EDGE ( 'NONE', *, *, #199, .F. ) ;
#51 = MANIFOLD_SOLID_BREP ( 'Cut-Revolve1', #122 ) ;
#52 = CARTESIAN_POINT ( 'NONE',  ( 0.09832657499999998552, 1.204153253448721512E-17, -1.204153253448721512E-17 ) ) ;
#53 = CARTESIAN_POINT ( 'NONE',  ( 1.474662427518848307E-33, 0.000000000000000000, 1.204153253448721512E-17 ) ) ;
#54 = SHAPE_DEFINITION_REPRESENTATION ( #273, #67 ) ;
#55 = DIRECTION ( 'NONE',  ( -1.224646799147353207E-16, -0.000000000000000000, -1.000000000000000000 ) ) ;
#56 = FACE_OUTER_BOUND ( 'NONE', #196, .T. ) ;
#57 = DIRECTION ( 'NONE',  ( 0.000000000000000000, 0.000000000000000000, -1.000000000000000000 ) ) ;
#58 = AXIS2_PLACEMENT_3D ( 'NONE', #255, #57, #30 ) ;
#59 = EDGE_CURVE ( 'NONE', #285, #173, #23, .T. ) ;
#60 = DIRECTION ( 'NONE',  ( -1.224646799147353207E-16, -0.000000000000000000, -1.000000000000000000 ) ) ;
#61 = DIMENSIONAL_EXPONENTS ( 1.000000000000000000, 0.000000000000000000, 0.000000000000000000, 0.000000000000000000, 0.000000000000000000, 0.000000000000000000, 0.000000000000000000 ) ;
#62 = CYLINDRICAL_SURFACE ( 'NONE', #170, 0.09832657499999998552 ) ;
#63 = ADVANCED_FACE ( 'NONE', ( #138 ), #130, .T. ) ;
#64 = VERTEX_POINT ( 'NONE', #48 ) ;
#65 = CARTESIAN_POINT ( 'NONE',  ( 0.000000000000000000, 0.000000000000000000, 2.229093999999999465 ) ) ;
#66 = ORIENTED_EDGE ( 'NONE', *, *, #262, .F. ) ;
#67 = ADVANCED_BREP_SHAPE_REPRESENTATION ( 'Micro_AEMM-050-2X', ( #51, #99 ), #124 ) ;
#68 = DIRECTION ( 'NONE',  ( -1.000000000000000000, 0.000000000000000000, 0.000000000000000000 ) ) ;
#69 = DIRECTION ( 'NONE',  ( 1.000000000000000000, 0.000000000000000000, 0.000000000000000000 ) ) ;
#70 = ORIENTED_EDGE ( 'NONE', *, *, #220, .T. ) ;
#71 = VERTEX_POINT ( 'NONE', #81 ) ;
#72 = ADVANCED_FACE ( 'NONE', ( #22 ), #91, .T. ) ;
#73 = CIRCLE ( 'NONE', #58, 0.1181100000000000066 ) ;
#74 = ORIENTED_EDGE ( 'NONE', *, *, #109, .T. ) ;
#75 = CARTESIAN_POINT ( 'NONE',  ( 7.714307363656999460E-17, 0.000000000000000000, 0.6299209999999999532 ) ) ;
#76 = DIRECTION ( 'NONE',  ( 0.000000000000000000, 0.000000000000000000, 1.000000000000000000 ) ) ;
#77 = SURFACE_SIDE_STYLE ('',( #100 ) ) ;
#78 = CARTESIAN_POINT ( 'NONE',  ( 7.714307363656999460E-17, 0.000000000000000000, 0.6299209999999999532 ) ) ;
#79 = ADVANCED_FACE ( 'NONE', ( #56 ), #107, .T. ) ;
#80 = AXIS2_PLACEMENT_3D ( 'NONE', #154, #36, #120 ) ;
#81 = CARTESIAN_POINT ( 'NONE',  ( -0.1181100000000000066, 0.000000000000000000, 2.229093999999999465 ) ) ;
#82 = EDGE_LOOP ( 'NONE', ( #24, #18, #155, #160 ) ) ;
#83 = CARTESIAN_POINT ( 'NONE',  ( 0.09832657500000008266, 0.000000000000000000, 0.6299209999999999532 ) ) ;
#84 = FACE_OUTER_BOUND ( 'NONE', #208, .T. ) ;
#85 = DIRECTION ( 'NONE',  ( -1.224646799147353207E-16, -0.000000000000000000, -1.000000000000000000 ) ) ;
#86 = DIRECTION ( 'NONE',  ( -0.000000000000000000, -0.000000000000000000, -1.000000000000000000 ) ) ;
#87 = ADVANCED_FACE ( 'NONE', ( #247 ), #127, .T. ) ;
#88 = AXIS2_PLACEMENT_3D ( 'NONE', #157, #242, #43 ) ;
#89 = FACE_OUTER_BOUND ( 'NONE', #292, .T. ) ;
#90 = ORIENTED_EDGE ( 'NONE', *, *, #59, .F. ) ;
#91 = CONICAL_SURFACE ( 'NONE', #245, 0.09832657499999998552, 0.1745329251994338637 ) ;
#92 = DIRECTION ( 'NONE',  ( -1.000000000000000000, 0.000000000000000000, 0.000000000000000000 ) ) ;
#93 = EDGE_CURVE ( 'NONE', #217, #260, #256, .T. ) ;
#94 = ORIENTED_EDGE ( 'NONE', *, *, #140, .F. ) ;
#95 = CARTESIAN_POINT ( 'NONE',  ( 9.088328968579682115E-17, 0.000000000000000000, 0.7421183785322699178 ) ) ;
#96 = CARTESIAN_POINT ( 'NONE',  ( -0.1031100000000002570, 0.000000000000000000, 2.244094000000000033 ) ) ;
#97 = LENGTH_MEASURE_WITH_UNIT ( LENGTH_MEASURE( 0.02539999999999999897 ), #296 );
#98 = AXIS2_PLACEMENT_3D ( 'NONE', #26, #31, #281 ) ;
#99 = AXIS2_PLACEMENT_3D ( 'NONE', #276, #8, #182 ) ;
#100 = SURFACE_STYLE_FILL_AREA ( #49 ) ;
#101 = ORIENTED_EDGE ( 'NONE', *, *, #295, .T. ) ;
#102 = DIRECTION ( 'NONE',  ( 1.000000000000000000, 0.000000000000000000, 0.000000000000000000 ) ) ;
#103 = DIRECTION ( 'NONE',  ( -1.000000000000000000, 0.000000000000000000, 0.000000000000000000 ) ) ;
#104 = CARTESIAN_POINT ( 'NONE',  ( 9.088328968579682115E-17, 0.000000000000000000, 0.7421183785322699178 ) ) ;
#105 = CIRCLE ( 'NONE', #259, 0.09832657499999998552 ) ;
#106 = AXIS2_PLACEMENT_3D ( 'NONE', #203, #6, #102 ) ;
#107 = CYLINDRICAL_SURFACE ( 'NONE', #98, 0.1181100000000000066 ) ;
#108 = DIRECTION ( 'NONE',  ( -1.000000000000000000, 0.000000000000000000, 1.224646799147353207E-16 ) ) ;
#109 = EDGE_CURVE ( 'NONE', #173, #260, #186, .T. ) ;
#110 = DIRECTION ( 'NONE',  ( 0.1736481776669313581, 0.000000000000000000, 0.9848077530122077983 ) ) ;
#111 = EDGE_LOOP ( 'NONE', ( #137, #158, #274, #15 ) ) ;
#112 =( NAMED_UNIT ( * ) SI_UNIT ( $, .STERADIAN. ) SOLID_ANGLE_UNIT ( ) );
#113 = CIRCLE ( 'NONE', #201, 0.09832657499999998552 ) ;
#114 = MECHANICAL_DESIGN_GEOMETRIC_PRESENTATION_REPRESENTATION (  '', ( #19 ), #227 ) ;
#115 = CARTESIAN_POINT ( 'NONE',  ( -0.09832657499999998552, 0.000000000000000000, 2.408306506897443024E-17 ) ) ;
#116 = ORIENTED_EDGE ( 'NONE', *, *, #166, .F. ) ;
#117 = DIRECTION ( 'NONE',  ( -1.224646799147353207E-16, -0.000000000000000000, -1.000000000000000000 ) ) ;
#118 = EDGE_CURVE ( 'NONE', #172, #239, #145, .T. ) ;
#119 = DIRECTION ( 'NONE',  ( -0.000000000000000000, -0.000000000000000000, -1.000000000000000000 ) ) ;
#120 = DIRECTION ( 'NONE',  ( -1.000000000000000000, 0.000000000000000000, 0.000000000000000000 ) ) ;
#121 = LINE ( 'NONE', #263, #204 ) ;
#122 = CLOSED_SHELL ( 'NONE', ( #284, #209, #258, #79, #87, #148, #63, #72, #270, #46 ) ) ;
#123 = FILL_AREA_STYLE_COLOUR ( '', #135 ) ;
#124 =( GEOMETRIC_REPRESENTATION_CONTEXT ( 3 ) GLOBAL_UNCERTAINTY_ASSIGNED_CONTEXT ( ( #289 ) ) GLOBAL_UNIT_ASSIGNED_CONTEXT ( ( #297, #141, #20 ) ) REPRESENTATION_CONTEXT ( 'NONE', 'WORKASPACE' ) );
#125 = CARTESIAN_POINT ( 'NONE',  ( 0.09832657500000008266, 0.000000000000000000, 0.6299209999999999532 ) ) ;
#126 = EDGE_LOOP ( 'NONE', ( #38, #101, #213, #66 ) ) ;
#127 = CYLINDRICAL_SURFACE ( 'NONE', #147, 0.1181100000000000066 ) ;
#128 = DIRECTION ( 'NONE',  ( 1.224646799147353207E-16, 0.000000000000000000, 1.000000000000000000 ) ) ;
#129 = ORIENTED_EDGE ( 'NONE', *, *, #17, .F. ) ;
#130 = CONICAL_SURFACE ( 'NONE', #175, 0.1031100000000002570, 0.7853981633974318477 ) ;
#131 = PRODUCT_DEFINITION ( 'UNKNOWN', '', #159, #214 ) ;
#132 = CARTESIAN_POINT ( 'NONE',  ( 0.000000000000000000, 0.000000000000000000, 0.000000000000000000 ) ) ;
#133 = ORIENTED_EDGE ( 'NONE', *, *, #9, .T. ) ;
#134 = LINE ( 'NONE', #219, #149 ) ;
#135 = COLOUR_RGB ( '',0.7921568627450980005, 0.8196078431372548767, 0.9333333333333333481 ) ;
#136 = COLOUR_RGB ( '',0.7921568627450980005, 0.8196078431372548767, 0.9333333333333333481 ) ;
#137 = ORIENTED_EDGE ( 'NONE', *, *, #9, .F. ) ;
#138 = FACE_OUTER_BOUND ( 'NONE', #221, .T. ) ;
#139 = SURFACE_STYLE_USAGE ( .BOTH. , #244 ) ;
#140 = EDGE_CURVE ( 'NONE', #33, #285, #195, .T. ) ;
#141 =( NAMED_UNIT ( * ) PLANE_ANGLE_UNIT ( ) SI_UNIT ( $, .RADIAN. ) );
#142 = EDGE_CURVE ( 'NONE', #33, #71, #275, .T. ) ;
#143 = AXIS2_PLACEMENT_3D ( 'NONE', #188, #85, #68 ) ;
#144 = DIRECTION ( 'NONE',  ( -1.000000000000000000, 0.000000000000000000, 1.224646799147353207E-16 ) ) ;
#145 = LINE ( 'NONE', #180, #293 ) ;
#146 = APPLICATION_PROTOCOL_DEFINITION ( 'draft international standard', 'automotive_design', 1998, #251 ) ;
#147 = AXIS2_PLACEMENT_3D ( 'NONE', #200, #86, #168 ) ;
#148 = ADVANCED_FACE ( 'NONE', ( #84 ), #167, .T. ) ;
#149 = VECTOR ( 'NONE', #119, 39.37007874015748143 ) ;
#150 = CARTESIAN_POINT ( 'NONE',  ( 0.000000000000000000, 0.000000000000000000, 0.000000000000000000 ) ) ;
#151 =( LENGTH_UNIT ( ) NAMED_UNIT ( * ) SI_UNIT ( $, .METRE. ) );
#152 = DIRECTION ( 'NONE',  ( -1.224646799147353207E-16, -0.000000000000000000, -1.000000000000000000 ) ) ;
#153 = PRODUCT ( 'Micro_AEMM-050-2X', 'Micro_AEMM-050-2X', '', ( #7 ) ) ;
#154 = CARTESIAN_POINT ( 'NONE',  ( 0.000000000000000000, 0.000000000000000000, 2.244094000000000033 ) ) ;
#155 = ORIENTED_EDGE ( 'NONE', *, *, #93, .T. ) ;
#156 = AXIS2_PLACEMENT_3D ( 'NONE', #150, #60, #266 ) ;
#157 = CARTESIAN_POINT ( 'NONE',  ( 0.000000000000000000, 0.000000000000000000, 0.000000000000000000 ) ) ;
#158 = ORIENTED_EDGE ( 'NONE', *, *, #118, .T. ) ;
#159 = PRODUCT_DEFINITION_FORMATION_WITH_SPECIFIED_SOURCE ( 'ANY', '', #153, .NOT_KNOWN. ) ;
#160 = ORIENTED_EDGE ( 'NONE', *, *, #262, .T. ) ;
#161 = LINE ( 'NONE', #52, #235 ) ;
#162 = DIRECTION ( 'NONE',  ( 0.000000000000000000, 0.000000000000000000, -1.000000000000000000 ) ) ;
#163 = CONICAL_SURFACE ( 'NONE', #191, 0.09832657499999998552, 0.1745329251994338637 ) ;
#164 = CARTESIAN_POINT ( 'NONE',  ( 0.000000000000000000, 0.000000000000000000, 2.244094000000000033 ) ) ;
#165 = DIRECTION ( 'NONE',  ( 0.000000000000000000, 0.000000000000000000, 1.000000000000000000 ) ) ;
#166 = EDGE_CURVE ( 'NONE', #217, #64, #161, .T. ) ;
#167 = PLANE ( 'NONE',  #257 ) ;
#168 = DIRECTION ( 'NONE',  ( -1.000000000000000000, 0.000000000000000000, 0.000000000000000000 ) ) ;
#169 = ORIENTED_EDGE ( 'NONE', *, *, #295, .F. ) ;
#170 = AXIS2_PLACEMENT_3D ( 'NONE', #132, #261, #291 ) ;
#171 = DIRECTION ( 'NONE',  ( -1.224646799147353207E-16, -0.000000000000000000, -1.000000000000000000 ) ) ;
#172 = VERTEX_POINT ( 'NONE', #248 ) ;
#173 = VERTEX_POINT ( 'NONE', #29 ) ;
#174 = CYLINDRICAL_SURFACE ( 'NONE', #156, 0.09832657499999998552 ) ;
#175 = AXIS2_PLACEMENT_3D ( 'NONE', #277, #162, #103 ) ;
#176 = ORIENTED_EDGE ( 'NONE', *, *, #12, .F. ) ;
#177 = PRESENTATION_STYLE_ASSIGNMENT (( #139 ) ) ;
#178 = EDGE_CURVE ( 'NONE', #268, #64, #25, .T. ) ;
#179 = SURFACE_STYLE_USAGE ( .BOTH. , #77 ) ;
#180 = CARTESIAN_POINT ( 'NONE',  ( -0.09832657499999990225, 1.204153253448721512E-17, 0.6299209999999999532 ) ) ;
#181 = DIRECTION ( 'NONE',  ( -1.224646799147353207E-16, -0.000000000000000000, -1.000000000000000000 ) ) ;
#182 = DIRECTION ( 'NONE',  ( 1.000000000000000000, 0.000000000000000000, 0.000000000000000000 ) ) ;
#183 = LENGTH_MEASURE_WITH_UNIT ( LENGTH_MEASURE( 0.02539999999999999897 ), #250 );
#184 = DIRECTION ( 'NONE',  ( -1.224646799147353207E-16, -0.000000000000000000, -1.000000000000000000 ) ) ;
#185 = PRESENTATION_LAYER_ASSIGNMENT (  '', '', ( #240 ) ) ;
#186 = LINE ( 'NONE', #202, #282 ) ;
#187 = ORIENTED_EDGE ( 'NONE', *, *, #12, .T. ) ;
#188 = CARTESIAN_POINT ( 'NONE',  ( 7.714307363656999460E-17, 0.000000000000000000, 0.6299209999999999532 ) ) ;
#189 = CARTESIAN_POINT ( 'NONE',  ( -0.1031100000000002570, 0.000000000000000000, 2.244094000000000033 ) ) ;
#190 =( NAMED_UNIT ( * ) PLANE_ANGLE_UNIT ( ) SI_UNIT ( $, .RADIAN. ) );
#191 = AXIS2_PLACEMENT_3D ( 'NONE', #78, #128, #4 ) ;
#192 = VECTOR ( 'NONE', #207, 39.37007874015748854 ) ;
#193 = DIMENSIONAL_EXPONENTS ( 1.000000000000000000, 0.000000000000000000, 0.000000000000000000, 0.000000000000000000, 0.000000000000000000, 0.000000000000000000, 0.000000000000000000 ) ;
#194 = DIRECTION ( 'NONE',  ( 1.000000000000000000, 0.000000000000000000, 0.000000000000000000 ) ) ;
#195 = CIRCLE ( 'NONE', #106, 0.1031100000000002570 ) ;
#196 = EDGE_LOOP ( 'NONE', ( #42, #74, #45, #129 ) ) ;
#197 = ORIENTED_EDGE ( 'NONE', *, *, #220, .F. ) ;
#198 = CONICAL_SURFACE ( 'NONE', #80, 0.1031100000000002570, 0.7853981633974318477 ) ;
#199 = EDGE_CURVE ( 'NONE', #71, #173, #73, .T. ) ;
#200 = CARTESIAN_POINT ( 'NONE',  ( 0.000000000000000000, 0.000000000000000000, 2.244094000000000033 ) ) ;
#201 = AXIS2_PLACEMENT_3D ( 'NONE', #229, #55, #144 ) ;
#202 = CARTESIAN_POINT ( 'NONE',  ( 0.1181100000000000066, 1.446430334472939084E-17, 2.244094000000000033 ) ) ;
#203 = CARTESIAN_POINT ( 'NONE',  ( 0.000000000000000000, 0.000000000000000000, 2.244094000000000033 ) ) ;
#204 = VECTOR ( 'NONE', #152, 39.37007874015748143 ) ;
#205 = CARTESIAN_POINT ( 'NONE',  ( -0.1181099999999999234, 0.000000000000000000, 0.7421183785322699178 ) ) ;
#206 = MECHANICAL_DESIGN_GEOMETRIC_PRESENTATION_REPRESENTATION (  '', ( #240 ), #272 ) ;
#207 = DIRECTION ( 'NONE',  ( -0.7071067811865358044, 0.000000000000000000, -0.7071067811865590080 ) ) ;
#208 = EDGE_LOOP ( 'NONE', ( #299, #70 ) ) ;
#209 = ADVANCED_FACE ( 'NONE', ( #28 ), #163, .T. ) ;
#210 = UNCERTAINTY_MEASURE_WITH_UNIT (LENGTH_MEASURE( 1.000000000000000082E-05 ), #271, 'distance_accuracy_value', 'NONE');
#211 = CIRCLE ( 'NONE', #226, 0.1031100000000002570 ) ;
#212 = LENGTH_MEASURE_WITH_UNIT ( LENGTH_MEASURE( 0.02539999999999999897 ), #151 );
#213 = ORIENTED_EDGE ( 'NONE', *, *, #17, .T. ) ;
#214 = PRODUCT_DEFINITION_CONTEXT ( 'detailed design', #269, 'design' ) ;
#215 = EDGE_CURVE ( 'NONE', #239, #260, #218, .T. ) ;
#216 = FACE_OUTER_BOUND ( 'NONE', #241, .T. ) ;
#217 = VERTEX_POINT ( 'NONE', #83 ) ;
#218 = CIRCLE ( 'NONE', #39, 0.1181100000000000066 ) ;
#219 = CARTESIAN_POINT ( 'NONE',  ( -0.1181100000000000066, 0.000000000000000000, 2.244094000000000033 ) ) ;
#220 = EDGE_CURVE ( 'NONE', #285, #33, #211, .T. ) ;
#221 = EDGE_LOOP ( 'NONE', ( #90, #94, #243, #169 ) ) ;
#222 = FILL_AREA_STYLE ('',( #47 ) ) ;
#223 = ORIENTED_EDGE ( 'NONE', *, *, #142, .F. ) ;
#224 = VECTOR ( 'NONE', #2, 39.37007874015748854 ) ;
#225 = PRESENTATION_STYLE_ASSIGNMENT (( #179 ) ) ;
#226 = AXIS2_PLACEMENT_3D ( 'NONE', #5, #165, #252 ) ;
#227 =( GEOMETRIC_REPRESENTATION_CONTEXT ( 3 ) GLOBAL_UNCERTAINTY_ASSIGNED_CONTEXT ( ( #210 ) ) GLOBAL_UNIT_ASSIGNED_CONTEXT ( ( #271, #190, #112 ) ) REPRESENTATION_CONTEXT ( 'NONE', 'WORKASPACE' ) );
#228 = DIRECTION ( 'NONE',  ( 1.000000000000000000, 0.000000000000000000, 0.000000000000000000 ) ) ;
#229 = CARTESIAN_POINT ( 'NONE',  ( 1.474662427518848307E-33, 0.000000000000000000, 1.204153253448721512E-17 ) ) ;
#230 = DIRECTION ( 'NONE',  ( 1.224646799147353207E-16, 0.000000000000000000, 1.000000000000000000 ) ) ;
#231 = ORIENTED_EDGE ( 'NONE', *, *, #59, .T. ) ;
#232 = EDGE_CURVE ( 'NONE', #64, #268, #113, .T. ) ;
#233 = DIRECTION ( 'NONE',  ( -1.224646799147353207E-16, -0.000000000000000000, -1.000000000000000000 ) ) ;
#234 = UNCERTAINTY_MEASURE_WITH_UNIT (LENGTH_MEASURE( 1.000000000000000082E-05 ), #3, 'distance_accuracy_value', 'NONE');
#235 = VECTOR ( 'NONE', #181, 39.37007874015748143 ) ;
#236 = FACE_OUTER_BOUND ( 'NONE', #238, .T. ) ;
#237 = CARTESIAN_POINT ( 'NONE',  ( 0.1031100000000002570, 1.354581824536888722E-17, 2.244094000000000033 ) ) ;
#238 = EDGE_LOOP ( 'NONE', ( #197, #231, #50, #223 ) ) ;
#239 = VERTEX_POINT ( 'NONE', #205 ) ;
#240 = STYLED_ITEM ( 'NONE', ( #225 ), #51 ) ;
#241 = EDGE_LOOP ( 'NONE', ( #116, #10, #187, #13 ) ) ;
#242 = DIRECTION ( 'NONE',  ( 0.000000000000000000, 0.000000000000000000, 1.000000000000000000 ) ) ;
#243 = ORIENTED_EDGE ( 'NONE', *, *, #142, .T. ) ;
#244 = SURFACE_SIDE_STYLE ('',( #44 ) ) ;
#245 = AXIS2_PLACEMENT_3D ( 'NONE', #75, #230, #228 ) ;
#246 =( NAMED_UNIT ( * ) SI_UNIT ( $, .STERADIAN. ) SOLID_ANGLE_UNIT ( ) );
#247 = FACE_OUTER_BOUND ( 'NONE', #126, .T. ) ;
#248 = CARTESIAN_POINT ( 'NONE',  ( -0.09832657499999990225, 1.325291793960830375E-17, 0.6299209999999999532 ) ) ;
#249 = APPLICATION_PROTOCOL_DEFINITION ( 'draft international standard', 'automotive_design', 1998, #269 ) ;
#250 =( LENGTH_UNIT ( ) NAMED_UNIT ( * ) SI_UNIT ( $, .METRE. ) );
#251 = APPLICATION_CONTEXT ( 'automotive_design' ) ;
#252 = DIRECTION ( 'NONE',  ( 1.000000000000000000, 0.000000000000000000, 0.000000000000000000 ) ) ;
#253 = DIRECTION ( 'NONE',  ( 1.000000000000000000, 0.000000000000000000, -0.000000000000000000 ) ) ;
#254 = EDGE_CURVE ( 'NONE', #217, #172, #265, .T. ) ;
#255 = CARTESIAN_POINT ( 'NONE',  ( 0.000000000000000000, 0.000000000000000000, 2.229093999999999465 ) ) ;
#256 = LINE ( 'NONE', #125, #32 ) ;
#257 = AXIS2_PLACEMENT_3D ( 'NONE', #164, #76, #253 ) ;
#258 = ADVANCED_FACE ( 'NONE', ( #236 ), #198, .T. ) ;
#259 = AXIS2_PLACEMENT_3D ( 'NONE', #16, #117, #92 ) ;
#260 = VERTEX_POINT ( 'NONE', #41 ) ;
#261 = DIRECTION ( 'NONE',  ( -1.224646799147353207E-16, -0.000000000000000000, -1.000000000000000000 ) ) ;
#262 = EDGE_CURVE ( 'NONE', #260, #239, #34, .T. ) ;
#263 = CARTESIAN_POINT ( 'NONE',  ( -0.09832657499999998552, 0.000000000000000000, 1.204153253448721512E-17 ) ) ;
#264 = FACE_OUTER_BOUND ( 'NONE', #280, .T. ) ;
#265 = CIRCLE ( 'NONE', #143, 0.09832657499999998552 ) ;
#266 = DIRECTION ( 'NONE',  ( -1.000000000000000000, 0.000000000000000000, 1.224646799147353207E-16 ) ) ;
#267 = PLANE ( 'NONE',  #88 ) ;
#268 = VERTEX_POINT ( 'NONE', #115 ) ;
#269 = APPLICATION_CONTEXT ( 'automotive_design' ) ;
#270 = ADVANCED_FACE ( 'NONE', ( #216 ), #62, .T. ) ;
#271 =( CONVERSION_BASED_UNIT ( 'INCH', #97 ) LENGTH_UNIT ( ) NAMED_UNIT ( #193 ) );
#272 =( GEOMETRIC_REPRESENTATION_CONTEXT ( 3 ) GLOBAL_UNCERTAINTY_ASSIGNED_CONTEXT ( ( #234 ) ) GLOBAL_UNIT_ASSIGNED_CONTEXT ( ( #3, #298, #246 ) ) REPRESENTATION_CONTEXT ( 'NONE', 'WORKASPACE' ) );
#273 = PRODUCT_DEFINITION_SHAPE ( 'NONE', 'NONE',  #131 ) ;
#274 = ORIENTED_EDGE ( 'NONE', *, *, #215, .T. ) ;
#275 = LINE ( 'NONE', #189, #192 ) ;
#276 = CARTESIAN_POINT ( 'NONE',  ( 0.000000000000000000, 0.000000000000000000, 0.000000000000000000 ) ) ;
#277 = CARTESIAN_POINT ( 'NONE',  ( 0.000000000000000000, 0.000000000000000000, 2.244094000000000033 ) ) ;
#278 = DIRECTION ( 'NONE',  ( 1.000000000000000000, 0.000000000000000000, 0.000000000000000000 ) ) ;
#279 = DIRECTION ( 'NONE',  ( -0.000000000000000000, -0.000000000000000000, -1.000000000000000000 ) ) ;
#280 = EDGE_LOOP ( 'NONE', ( #37, #11 ) ) ;
#281 = DIRECTION ( 'NONE',  ( -1.000000000000000000, 0.000000000000000000, 0.000000000000000000 ) ) ;
#282 = VECTOR ( 'NONE', #279, 39.37007874015748143 ) ;
#283 = PRESENTATION_LAYER_ASSIGNMENT (  '', '', ( #19 ) ) ;
#284 = ADVANCED_FACE ( 'NONE', ( #89 ), #174, .T. ) ;
#285 = VERTEX_POINT ( 'NONE', #237 ) ;
#286 = DIRECTION ( 'NONE',  ( 0.000000000000000000, 0.000000000000000000, -1.000000000000000000 ) ) ;
#287 = ORIENTED_EDGE ( 'NONE', *, *, #166, .T. ) ;
#288 = ORIENTED_EDGE ( 'NONE', *, *, #178, .F. ) ;
#289 = UNCERTAINTY_MEASURE_WITH_UNIT (LENGTH_MEASURE( 1.000000000000000082E-05 ), #297, 'distance_accuracy_value', 'NONE');
#290 = DIMENSIONAL_EXPONENTS ( 1.000000000000000000, 0.000000000000000000, 0.000000000000000000, 0.000000000000000000, 0.000000000000000000, 0.000000000000000000, 0.000000000000000000 ) ;
#291 = DIRECTION ( 'NONE',  ( -1.000000000000000000, 0.000000000000000000, 1.224646799147353207E-16 ) ) ;
#292 = EDGE_LOOP ( 'NONE', ( #133, #287, #288, #176 ) ) ;
#293 = VECTOR ( 'NONE', #1, 39.37007874015747433 ) ;
#294 = AXIS2_PLACEMENT_3D ( 'NONE', #95, #171, #194 ) ;
#295 = EDGE_CURVE ( 'NONE', #173, #71, #40, .T. ) ;
#296 =( LENGTH_UNIT ( ) NAMED_UNIT ( * ) SI_UNIT ( $, .METRE. ) );
#297 =( CONVERSION_BASED_UNIT ( 'INCH', #212 ) LENGTH_UNIT ( ) NAMED_UNIT ( #61 ) );
#298 =( NAMED_UNIT ( * ) PLANE_ANGLE_UNIT ( ) SI_UNIT ( $, .RADIAN. ) );
#299 = ORIENTED_EDGE ( 'NONE', *, *, #140, .T. ) ;
ENDSEC;
END-ISO-10303-21;
