ISO-10303-21;
HEADER;
FILE_DESCRIPTION (( 'STEP AP214' ),
    '1' );
FILE_NAME ('59586.STEP',
    '2023-07-24T15:49:40',
    ( '' ),
    ( '' ),
    'SwSTEP 2.0',
    'SolidWorks 2023',
    '' );
FILE_SCHEMA (( 'AUTOMOTIVE_DESIGN' ));
ENDSEC;

DATA;
#1 = EDGE_CURVE ( 'NONE', #179, #222, #69, .T. ) ;
#2 =( NAMED_UNIT ( * ) PLANE_ANGLE_UNIT ( ) SI_UNIT ( $, .RADIAN. ) );
#3 = AXIS2_PLACEMENT_3D ( 'NONE', #221, #200, #149 ) ;
#4 = DIRECTION ( 'NONE',  ( 0.000000000000000000, 1.000000000000000000, 0.000000000000000000 ) ) ;
#5 = DIRECTION ( 'NONE',  ( 0.000000000000000000, 0.000000000000000000, -1.000000000000000000 ) ) ;
#6 = ADVANCED_FACE ( 'NONE', ( #63 ), #220, .T. ) ;
#7 = COLOUR_RGB ( '',1.000000000000000000, 0.000000000000000000, 0.000000000000000000 ) ;
#8 = FACE_OUTER_BOUND ( 'NONE', #173, .T. ) ;
#9 = EDGE_CURVE ( 'NONE', #246, #222, #72, .T. ) ;
#10 = CARTESIAN_POINT ( 'NONE',  ( 0.000000000000000000, 0.000000000000000000, 0.000000000000000000 ) ) ;
#11 = AXIS2_PLACEMENT_3D ( 'NONE', #98, #125, #191 ) ;
#12 = DIRECTION ( 'NONE',  ( 0.000000000000000000, 0.000000000000000000, -1.000000000000000000 ) ) ;
#13 =( NAMED_UNIT ( * ) SI_UNIT ( $, .STERADIAN. ) SOLID_ANGLE_UNIT ( ) );
#14 = DIRECTION ( 'NONE',  ( -0.000000000000000000, -1.000000000000000000, -0.000000000000000000 ) ) ;
#15 = PLANE ( 'NONE',  #156 ) ;
#16 = CLOSED_SHELL ( 'NONE', ( #32, #175, #234, #55 ) ) ;
#17 = VECTOR ( 'NONE', #94, 1000.000000000000000 ) ;
#18 = CARTESIAN_POINT ( 'NONE',  ( -8.000000000000000000, 23.99999999999999289, 0.000000000000000000 ) ) ;
#19 =( GEOMETRIC_REPRESENTATION_CONTEXT ( 3 ) GLOBAL_UNCERTAINTY_ASSIGNED_CONTEXT ( ( #237 ) ) GLOBAL_UNIT_ASSIGNED_CONTEXT ( ( #268, #2, #129 ) ) REPRESENTATION_CONTEXT ( 'NONE', 'WORKASPACE' ) );
#20 = ORIENTED_EDGE ( 'NONE', *, *, #75, .F. ) ;
#21 = DIRECTION ( 'NONE',  ( 0.000000000000000000, 0.000000000000000000, -1.000000000000000000 ) ) ;
#22 = MECHANICAL_DESIGN_GEOMETRIC_PRESENTATION_REPRESENTATION (  '', ( #41 ), #30 ) ;
#23 = EDGE_LOOP ( 'NONE', ( #20, #154 ) ) ;
#24 = MANIFOLD_SOLID_BREP ( 'Revolve - Cutting Edge', #258 ) ;
#25 = EDGE_CURVE ( 'NONE', #201, #226, #238, .T. ) ;
#26 = VERTEX_POINT ( 'NONE', #210 ) ;
#27 = CARTESIAN_POINT ( 'NONE',  ( -1.714505518806293849E-15, 89.00000000000000000, 0.000000000000000000 ) ) ;
#28 = PRESENTATION_LAYER_ASSIGNMENT (  '', '', ( #217 ) ) ;
#29 = PRESENTATION_LAYER_ASSIGNMENT (  '', '', ( #195 ) ) ;
#30 =( GEOMETRIC_REPRESENTATION_CONTEXT ( 3 ) GLOBAL_UNCERTAINTY_ASSIGNED_CONTEXT ( ( #59 ) ) GLOBAL_UNIT_ASSIGNED_CONTEXT ( ( #194, #168, #13 ) ) REPRESENTATION_CONTEXT ( 'NONE', 'WORKASPACE' ) );
#31 = SURFACE_STYLE_FILL_AREA ( #45 ) ;
#32 = ADVANCED_FACE ( 'NONE', ( #8 ), #92, .T. ) ;
#33 = AXIS2_PLACEMENT_3D ( 'NONE', #164, #145, #114 ) ;
#34 = DIRECTION ( 'NONE',  ( 2.637700798163528719E-17, -1.000000000000000000, 0.000000000000000000 ) ) ;
#35 = SURFACE_SIDE_STYLE ('',( #214 ) ) ;
#36 = FILL_AREA_STYLE_COLOUR ( '', #46 ) ;
#37 = UNCERTAINTY_MEASURE_WITH_UNIT (LENGTH_MEASURE( 1.000000000000000082E-05 ), #269, 'distance_accuracy_value', 'NONE');
#38 =( NAMED_UNIT ( * ) PLANE_ANGLE_UNIT ( ) SI_UNIT ( $, .RADIAN. ) );
#39 = FACE_OUTER_BOUND ( 'NONE', #23, .T. ) ;
#40 = AXIS2_PLACEMENT_3D ( 'NONE', #250, #4, #54 ) ;
#41 = STYLED_ITEM ( 'NONE', ( #166 ), #126 ) ;
#42 = ORIENTED_EDGE ( 'NONE', *, *, #52, .T. ) ;
#43 = LINE ( 'NONE', #128, #252 ) ;
#44 = EDGE_LOOP ( 'NONE', ( #67, #104, #262, #282 ) ) ;
#45 = FILL_AREA_STYLE ('',( #182 ) ) ;
#46 = COLOUR_RGB ( '',1.000000000000000000, 0.000000000000000000, 0.000000000000000000 ) ;
#47 = EDGE_CURVE ( 'NONE', #179, #26, #218, .T. ) ;
#48 = ORIENTED_EDGE ( 'NONE', *, *, #1, .T. ) ;
#49 =( LENGTH_UNIT ( ) NAMED_UNIT ( * ) SI_UNIT ( .MILLI., .METRE. ) );
#50 =( NAMED_UNIT ( * ) SI_UNIT ( $, .STERADIAN. ) SOLID_ANGLE_UNIT ( ) );
#51 = COLOUR_RGB ( '',1.000000000000000000, 0.000000000000000000, 0.000000000000000000 ) ;
#52 = EDGE_CURVE ( 'NONE', #79, #204, #259, .T. ) ;
#53 =( NAMED_UNIT ( * ) PLANE_ANGLE_UNIT ( ) SI_UNIT ( $, .RADIAN. ) );
#54 = DIRECTION ( 'NONE',  ( 0.000000000000000000, -0.000000000000000000, 1.000000000000000000 ) ) ;
#55 = ADVANCED_FACE ( 'NONE', ( #74 ), #96, .F. ) ;
#56 = CYLINDRICAL_SURFACE ( 'NONE', #137, 8.000000000000000000 ) ;
#57 = PLANE ( 'NONE',  #93 ) ;
#58 = MECHANICAL_DESIGN_GEOMETRIC_PRESENTATION_REPRESENTATION (  '', ( #105 ), #73 ) ;
#59 = UNCERTAINTY_MEASURE_WITH_UNIT (LENGTH_MEASURE( 1.000000000000000082E-05 ), #194, 'distance_accuracy_value', 'NONE');
#60 = DIRECTION ( 'NONE',  ( -2.637700798163528719E-17, 1.000000000000000000, -0.000000000000000000 ) ) ;
#61 = SURFACE_STYLE_USAGE ( .BOTH. , #62 ) ;
#62 = SURFACE_SIDE_STYLE ('',( #261 ) ) ;
#63 = FACE_OUTER_BOUND ( 'NONE', #248, .T. ) ;
#64 = ADVANCED_BREP_SHAPE_REPRESENTATION ( '59586', ( #24, #126, #116 ), #19 ) ;
#65 = CARTESIAN_POINT ( 'NONE',  ( 0.000000000000000000, 0.000000000000000000, 0.000000000000000000 ) ) ;
#66 = ORIENTED_EDGE ( 'NONE', *, *, #130, .F. ) ;
#67 = ORIENTED_EDGE ( 'NONE', *, *, #251, .F. ) ;
#68 = DIRECTION ( 'NONE',  ( -2.637700798163528719E-17, 1.000000000000000000, -0.000000000000000000 ) ) ;
#69 = LINE ( 'NONE', #124, #100 ) ;
#70 =( GEOMETRIC_REPRESENTATION_CONTEXT ( 3 ) GLOBAL_UNCERTAINTY_ASSIGNED_CONTEXT ( ( #95 ) ) GLOBAL_UNIT_ASSIGNED_CONTEXT ( ( #83, #227, #50 ) ) REPRESENTATION_CONTEXT ( 'NONE', 'WORKASPACE' ) );
#71 = CARTESIAN_POINT ( 'NONE',  ( 0.000000000000000000, 0.000000000000000000, 0.000000000000000000 ) ) ;
#72 = CIRCLE ( 'NONE', #187, 8.000000000000000000 ) ;
#73 =( GEOMETRIC_REPRESENTATION_CONTEXT ( 3 ) GLOBAL_UNCERTAINTY_ASSIGNED_CONTEXT ( ( #189 ) ) GLOBAL_UNIT_ASSIGNED_CONTEXT ( ( #49, #53, #133 ) ) REPRESENTATION_CONTEXT ( 'NONE', 'WORKASPACE' ) );
#74 = FACE_OUTER_BOUND ( 'NONE', #84, .T. ) ;
#75 = EDGE_CURVE ( 'NONE', #226, #201, #232, .T. ) ;
#76 = CARTESIAN_POINT ( 'NONE',  ( 0.000000000000000000, 24.00000000000000000, -8.000000000000000000 ) ) ;
#77 = AXIS2_PLACEMENT_3D ( 'NONE', #180, #150, #174 ) ;
#78 = CARTESIAN_POINT ( 'NONE',  ( 0.000000000000000000, 0.000000000000000000, 0.000000000000000000 ) ) ;
#79 = VERTEX_POINT ( 'NONE', #256 ) ;
#80 = FACE_OUTER_BOUND ( 'NONE', #131, .T. ) ;
#81 = MECHANICAL_DESIGN_GEOMETRIC_PRESENTATION_REPRESENTATION (  '', ( #159 ), #70 ) ;
#82 = FILL_AREA_STYLE ('',( #167 ) ) ;
#83 =( LENGTH_UNIT ( ) NAMED_UNIT ( * ) SI_UNIT ( .MILLI., .METRE. ) );
#84 = EDGE_LOOP ( 'NONE', ( #199, #42 ) ) ;
#85 = CARTESIAN_POINT ( 'NONE',  ( 0.000000000000000000, 0.000000000000000000, 0.000000000000000000 ) ) ;
#86 = CARTESIAN_POINT ( 'NONE',  ( 7.999999999999998224, 89.00000000000000000, 9.797174393178825657E-16 ) ) ;
#87 = ORIENTED_EDGE ( 'NONE', *, *, #279, .F. ) ;
#88 = CIRCLE ( 'NONE', #3, 8.000000000000001776 ) ;
#89 = PRESENTATION_STYLE_ASSIGNMENT (( #136 ) ) ;
#90 = APPLICATION_CONTEXT ( 'automotive_design' ) ;
#91 = AXIS2_PLACEMENT_3D ( 'NONE', #230, #233, #113 ) ;
#92 = CYLINDRICAL_SURFACE ( 'NONE', #207, 8.000000000000000000 ) ;
#93 = AXIS2_PLACEMENT_3D ( 'NONE', #78, #144, #239 ) ;
#94 = DIRECTION ( 'NONE',  ( -0.000000000000000000, -1.000000000000000000, -0.000000000000000000 ) ) ;
#95 = UNCERTAINTY_MEASURE_WITH_UNIT (LENGTH_MEASURE( 1.000000000000000082E-05 ), #83, 'distance_accuracy_value', 'NONE');
#96 = PLANE ( 'NONE',  #147 ) ;
#97 = FACE_OUTER_BOUND ( 'NONE', #44, .T. ) ;
#98 = CARTESIAN_POINT ( 'NONE',  ( -1.714505518806293849E-15, 89.00000000000000000, 0.000000000000000000 ) ) ;
#99 = DIRECTION ( 'NONE',  ( -0.000000000000000000, -1.000000000000000000, -0.000000000000000000 ) ) ;
#100 = VECTOR ( 'NONE', #99, 1000.000000000000000 ) ;
#101 = CIRCLE ( 'NONE', #77, 8.000000000000000000 ) ;
#102 = ORIENTED_EDGE ( 'NONE', *, *, #251, .T. ) ;
#103 = DIRECTION ( 'NONE',  ( 1.000000000000000000, 0.000000000000000000, 0.000000000000000000 ) ) ;
#104 = ORIENTED_EDGE ( 'NONE', *, *, #25, .T. ) ;
#105 = STYLED_ITEM ( 'NONE', ( #89 ), #24 ) ;
#106 = COLOUR_RGB ( '',0.7921568627450980005, 0.8196078431372548767, 0.9333333333333333481 ) ;
#107 = PRESENTATION_STYLE_ASSIGNMENT (( #231 ) ) ;
#108 = PRESENTATION_LAYER_ASSIGNMENT (  '', '', ( #41 ) ) ;
#109 = PRODUCT_DEFINITION_FORMATION_WITH_SPECIFIED_SOURCE ( 'ANY', '', #186, .NOT_KNOWN. ) ;
#110 = LINE ( 'NONE', #86, #209 ) ;
#111 = FILL_AREA_STYLE ('',( #267 ) ) ;
#112 = PRESENTATION_LAYER_ASSIGNMENT (  '', '', ( #159 ) ) ;
#113 = DIRECTION ( 'NONE',  ( -1.000000000000000000, 0.000000000000000000, 0.000000000000000000 ) ) ;
#114 = DIRECTION ( 'NONE',  ( -1.000000000000000000, 0.000000000000000000, 0.000000000000000000 ) ) ;
#115 = ADVANCED_FACE ( 'NONE', ( #190 ), #56, .T. ) ;
#116 = AXIS2_PLACEMENT_3D ( 'NONE', #85, #206, #103 ) ;
#117 = PRODUCT_DEFINITION_CONTEXT ( 'detailed design', #90, 'design' ) ;
#118 = DIRECTION ( 'NONE',  ( 1.000000000000000000, 2.637700798163528719E-17, 0.000000000000000000 ) ) ;
#119 = FILL_AREA_STYLE_COLOUR ( '', #152 ) ;
#120 = CARTESIAN_POINT ( 'NONE',  ( 9.797174393178825657E-16, 0.000000000000000000, 8.000000000000000000 ) ) ;
#121 = FILL_AREA_STYLE ('',( #158 ) ) ;
#122 =( LENGTH_UNIT ( ) NAMED_UNIT ( * ) SI_UNIT ( .MILLI., .METRE. ) );
#123 = APPLICATION_CONTEXT ( 'automotive_design' ) ;
#124 = CARTESIAN_POINT ( 'NONE',  ( 0.000000000000000000, 0.000000000000000000, -8.000000000000000000 ) ) ;
#125 = DIRECTION ( 'NONE',  ( -2.637700798163528719E-17, 1.000000000000000000, -0.000000000000000000 ) ) ;
#126 = MANIFOLD_SOLID_BREP ( 'Revolve - Tool Body (Straight Shanked)', #16 ) ;
#127 = ORIENTED_EDGE ( 'NONE', *, *, #47, .T. ) ;
#128 = CARTESIAN_POINT ( 'NONE',  ( -8.000000000000001776, 89.00000000000000000, 0.000000000000000000 ) ) ;
#129 =( NAMED_UNIT ( * ) SI_UNIT ( $, .STERADIAN. ) SOLID_ANGLE_UNIT ( ) );
#130 = EDGE_CURVE ( 'NONE', #26, #246, #274, .T. ) ;
#131 = EDGE_LOOP ( 'NONE', ( #153, #151 ) ) ;
#132 = APPLICATION_PROTOCOL_DEFINITION ( 'draft international standard', 'automotive_design', 1998, #90 ) ;
#133 =( NAMED_UNIT ( * ) SI_UNIT ( $, .STERADIAN. ) SOLID_ANGLE_UNIT ( ) );
#134 = APPLICATION_PROTOCOL_DEFINITION ( 'draft international standard', 'automotive_design', 1998, #123 ) ;
#135 = SURFACE_SIDE_STYLE ('',( #170 ) ) ;
#136 = SURFACE_STYLE_USAGE ( .BOTH. , #253 ) ;
#137 = AXIS2_PLACEMENT_3D ( 'NONE', #10, #140, #12 ) ;
#138 = CARTESIAN_POINT ( 'NONE',  ( 8.000000000000000000, 89.00000000000000000, 0.000000000000000000 ) ) ;
#139 = DIRECTION ( 'NONE',  ( -1.000000000000000000, 0.000000000000000000, 0.000000000000000000 ) ) ;
#140 = DIRECTION ( 'NONE',  ( -0.000000000000000000, -1.000000000000000000, -0.000000000000000000 ) ) ;
#141 = CYLINDRICAL_SURFACE ( 'NONE', #11, 8.000000000000000000 ) ;
#142 = MECHANICAL_DESIGN_GEOMETRIC_PRESENTATION_REPRESENTATION (  '', ( #217 ), #183 ) ;
#143 = AXIS2_PLACEMENT_3D ( 'NONE', #235, #14, #160 ) ;
#144 = DIRECTION ( 'NONE',  ( 0.000000000000000000, -1.000000000000000000, -0.000000000000000000 ) ) ;
#145 = DIRECTION ( 'NONE',  ( -2.637700798163528719E-17, 1.000000000000000000, -0.000000000000000000 ) ) ;
#146 = COLOUR_RGB ( '',1.000000000000000000, 0.000000000000000000, 0.000000000000000000 ) ;
#147 = AXIS2_PLACEMENT_3D ( 'NONE', #138, #34, #118 ) ;
#148 = ORIENTED_EDGE ( 'NONE', *, *, #249, .F. ) ;
#149 = DIRECTION ( 'NONE',  ( -1.000000000000000000, 0.000000000000000000, 0.000000000000000000 ) ) ;
#150 = DIRECTION ( 'NONE',  ( -0.000000000000000000, -1.000000000000000000, -0.000000000000000000 ) ) ;
#151 = ORIENTED_EDGE ( 'NONE', *, *, #9, .T. ) ;
#152 = COLOUR_RGB ( '',0.7921568627450980005, 0.8196078431372548767, 0.9333333333333333481 ) ;
#153 = ORIENTED_EDGE ( 'NONE', *, *, #198, .T. ) ;
#154 = ORIENTED_EDGE ( 'NONE', *, *, #25, .F. ) ;
#155 = DIRECTION ( 'NONE',  ( -0.000000000000000000, -1.000000000000000000, -0.000000000000000000 ) ) ;
#156 = AXIS2_PLACEMENT_3D ( 'NONE', #263, #161, #283 ) ;
#157 = PRESENTATION_STYLE_ASSIGNMENT (( #254 ) ) ;
#158 = FILL_AREA_STYLE_COLOUR ( '', #7 ) ;
#159 = STYLED_ITEM ( 'NONE', ( #107 ), #284 ) ;
#160 = DIRECTION ( 'NONE',  ( 0.000000000000000000, 0.000000000000000000, -1.000000000000000000 ) ) ;
#161 = DIRECTION ( 'NONE',  ( -2.637700798163528719E-17, 1.000000000000000000, 0.000000000000000000 ) ) ;
#162 =( NAMED_UNIT ( * ) PLANE_ANGLE_UNIT ( ) SI_UNIT ( $, .RADIAN. ) );
#163 = AXIS2_PLACEMENT_3D ( 'NONE', #278, #240, #165 ) ;
#164 = CARTESIAN_POINT ( 'NONE',  ( 0.000000000000000000, 23.99999999999999289, 0.000000000000000000 ) ) ;
#165 = DIRECTION ( 'NONE',  ( 0.000000000000000000, 0.000000000000000000, -1.000000000000000000 ) ) ;
#166 = PRESENTATION_STYLE_ASSIGNMENT (( #212 ) ) ;
#167 = FILL_AREA_STYLE_COLOUR ( '', #146 ) ;
#168 =( NAMED_UNIT ( * ) PLANE_ANGLE_UNIT ( ) SI_UNIT ( $, .RADIAN. ) );
#169 = MECHANICAL_DESIGN_GEOMETRIC_PRESENTATION_REPRESENTATION (  '', ( #271 ), #277 ) ;
#170 = SURFACE_STYLE_FILL_AREA ( #82 ) ;
#171 = ORIENTED_EDGE ( 'NONE', *, *, #1, .F. ) ;
#172 = DIRECTION ( 'NONE',  ( -0.000000000000000000, -1.000000000000000000, -0.000000000000000000 ) ) ;
#173 = EDGE_LOOP ( 'NONE', ( #203, #102, #288, #148 ) ) ;
#174 = DIRECTION ( 'NONE',  ( 0.000000000000000000, 0.000000000000000000, -1.000000000000000000 ) ) ;
#175 = ADVANCED_FACE ( 'NONE', ( #39 ), #15, .F. ) ;
#176 = PRODUCT_DEFINITION ( 'UNKNOWN', '', #109, #117 ) ;
#177 = AXIS2_PLACEMENT_3D ( 'NONE', #272, #60, #139 ) ;
#178 = AXIS2_PLACEMENT_3D ( 'NONE', #65, #172, #21 ) ;
#179 = VERTEX_POINT ( 'NONE', #76 ) ;
#180 = CARTESIAN_POINT ( 'NONE',  ( 0.000000000000000000, 24.00000000000000000, 0.000000000000000000 ) ) ;
#181 = DIRECTION ( 'NONE',  ( -1.000000000000000000, 0.000000000000000000, 0.000000000000000000 ) ) ;
#182 = FILL_AREA_STYLE_COLOUR ( '', #51 ) ;
#183 =( GEOMETRIC_REPRESENTATION_CONTEXT ( 3 ) GLOBAL_UNCERTAINTY_ASSIGNED_CONTEXT ( ( #37 ) ) GLOBAL_UNIT_ASSIGNED_CONTEXT ( ( #269, #255, #208 ) ) REPRESENTATION_CONTEXT ( 'NONE', 'WORKASPACE' ) );
#184 = MECHANICAL_DESIGN_GEOMETRIC_PRESENTATION_REPRESENTATION (  '', ( #195 ), #242 ) ;
#185 = DIRECTION ( 'NONE',  ( -2.637700798163528719E-17, 1.000000000000000000, -0.000000000000000000 ) ) ;
#186 = PRODUCT ( '59586', '59586', '', ( #287 ) ) ;
#187 = AXIS2_PLACEMENT_3D ( 'NONE', #71, #155, #5 ) ;
#188 = CIRCLE ( 'NONE', #163, 8.000000000000000000 ) ;
#189 = UNCERTAINTY_MEASURE_WITH_UNIT (LENGTH_MEASURE( 1.000000000000000082E-05 ), #49, 'distance_accuracy_value', 'NONE');
#190 = FACE_OUTER_BOUND ( 'NONE', #205, .T. ) ;
#191 = DIRECTION ( 'NONE',  ( -1.000000000000000000, 0.000000000000000000, 0.000000000000000000 ) ) ;
#192 = PRODUCT_RELATED_PRODUCT_CATEGORY ( 'part', '', ( #186 ) ) ;
#193 = FILL_AREA_STYLE ('',( #119 ) ) ;
#194 =( LENGTH_UNIT ( ) NAMED_UNIT ( * ) SI_UNIT ( .MILLI., .METRE. ) );
#195 = STYLED_ITEM ( 'NONE', ( #281 ), #215 ) ;
#196 =( NAMED_UNIT ( * ) SI_UNIT ( $, .STERADIAN. ) SOLID_ANGLE_UNIT ( ) );
#197 = CARTESIAN_POINT ( 'NONE',  ( 8.000000000000000000, 23.99999999999999289, 9.797174393178825657E-16 ) ) ;
#198 = EDGE_CURVE ( 'NONE', #222, #246, #188, .T. ) ;
#199 = ORIENTED_EDGE ( 'NONE', *, *, #245, .T. ) ;
#200 = DIRECTION ( 'NONE',  ( -2.637700798163528719E-17, 1.000000000000000000, -0.000000000000000000 ) ) ;
#201 = VERTEX_POINT ( 'NONE', #197 ) ;
#202 =( NAMED_UNIT ( * ) SI_UNIT ( $, .STERADIAN. ) SOLID_ANGLE_UNIT ( ) );
#203 = ORIENTED_EDGE ( 'NONE', *, *, #75, .T. ) ;
#204 = VERTEX_POINT ( 'NONE', #260 ) ;
#205 = EDGE_LOOP ( 'NONE', ( #127, #265, #285, #171 ) ) ;
#206 = DIRECTION ( 'NONE',  ( 0.000000000000000000, 0.000000000000000000, 1.000000000000000000 ) ) ;
#207 = AXIS2_PLACEMENT_3D ( 'NONE', #27, #185, #181 ) ;
#208 =( NAMED_UNIT ( * ) SI_UNIT ( $, .STERADIAN. ) SOLID_ANGLE_UNIT ( ) );
#209 = VECTOR ( 'NONE', #68, 1000.000000000000000 ) ;
#210 = CARTESIAN_POINT ( 'NONE',  ( 9.797174393178825657E-16, 24.00000000000000000, 8.000000000000000000 ) ) ;
#211 = SURFACE_STYLE_USAGE ( .BOTH. , #35 ) ;
#212 = SURFACE_STYLE_USAGE ( .BOTH. , #219 ) ;
#213 = UNCERTAINTY_MEASURE_WITH_UNIT (LENGTH_MEASURE( 1.000000000000000082E-05 ), #280, 'distance_accuracy_value', 'NONE');
#214 = SURFACE_STYLE_FILL_AREA ( #121 ) ;
#215 = ADVANCED_FACE ( 'NONE', ( #80 ), #57, .T. ) ;
#216 = CARTESIAN_POINT ( 'NONE',  ( 0.000000000000000000, 0.000000000000000000, -8.000000000000000000 ) ) ;
#217 = STYLED_ITEM ( 'NONE', ( #157 ), #6 ) ;
#218 = CIRCLE ( 'NONE', #143, 8.000000000000000000 ) ;
#219 = SURFACE_SIDE_STYLE ('',( #276 ) ) ;
#220 = PLANE ( 'NONE',  #40 ) ;
#221 = CARTESIAN_POINT ( 'NONE',  ( -1.714505518806293849E-15, 89.00000000000000000, 0.000000000000000000 ) ) ;
#222 = VERTEX_POINT ( 'NONE', #216 ) ;
#223 = DIRECTION ( 'NONE',  ( -2.637700798163528719E-17, 1.000000000000000000, -0.000000000000000000 ) ) ;
#224 = SURFACE_SIDE_STYLE ('',( #31 ) ) ;
#225 = PRESENTATION_LAYER_ASSIGNMENT (  '', '', ( #105 ) ) ;
#226 = VERTEX_POINT ( 'NONE', #18 ) ;
#227 =( NAMED_UNIT ( * ) PLANE_ANGLE_UNIT ( ) SI_UNIT ( $, .RADIAN. ) );
#228 = ORIENTED_EDGE ( 'NONE', *, *, #9, .F. ) ;
#229 = SHAPE_DEFINITION_REPRESENTATION ( #236, #64 ) ;
#230 = CARTESIAN_POINT ( 'NONE',  ( 0.000000000000000000, 23.99999999999999289, 0.000000000000000000 ) ) ;
#231 = SURFACE_STYLE_USAGE ( .BOTH. , #224 ) ;
#232 = CIRCLE ( 'NONE', #33, 8.000000000000000000 ) ;
#233 = DIRECTION ( 'NONE',  ( -2.637700798163528719E-17, 1.000000000000000000, -0.000000000000000000 ) ) ;
#234 = ADVANCED_FACE ( 'NONE', ( #97 ), #141, .T. ) ;
#235 = CARTESIAN_POINT ( 'NONE',  ( 0.000000000000000000, 24.00000000000000000, 0.000000000000000000 ) ) ;
#236 = PRODUCT_DEFINITION_SHAPE ( 'NONE', 'NONE',  #176 ) ;
#237 = UNCERTAINTY_MEASURE_WITH_UNIT (LENGTH_MEASURE( 1.000000000000000082E-05 ), #268, 'distance_accuracy_value', 'NONE');
#238 = CIRCLE ( 'NONE', #91, 8.000000000000000000 ) ;
#239 = DIRECTION ( 'NONE',  ( 0.000000000000000000, 0.000000000000000000, -1.000000000000000000 ) ) ;
#240 = DIRECTION ( 'NONE',  ( -0.000000000000000000, -1.000000000000000000, -0.000000000000000000 ) ) ;
#241 = CARTESIAN_POINT ( 'NONE',  ( 9.797174393178825657E-16, 0.000000000000000000, 8.000000000000000000 ) ) ;
#242 =( GEOMETRIC_REPRESENTATION_CONTEXT ( 3 ) GLOBAL_UNCERTAINTY_ASSIGNED_CONTEXT ( ( #275 ) ) GLOBAL_UNIT_ASSIGNED_CONTEXT ( ( #122, #162, #202 ) ) REPRESENTATION_CONTEXT ( 'NONE', 'WORKASPACE' ) );
#243 = EDGE_LOOP ( 'NONE', ( #66, #286, #48, #228 ) ) ;
#244 = FACE_OUTER_BOUND ( 'NONE', #243, .T. ) ;
#245 = EDGE_CURVE ( 'NONE', #204, #79, #88, .T. ) ;
#246 = VERTEX_POINT ( 'NONE', #120 ) ;
#247 = PRESENTATION_LAYER_ASSIGNMENT (  '', '', ( #271 ) ) ;
#248 = EDGE_LOOP ( 'NONE', ( #266, #87 ) ) ;
#249 = EDGE_CURVE ( 'NONE', #226, #204, #43, .T. ) ;
#250 = CARTESIAN_POINT ( 'NONE',  ( 0.000000000000000000, 24.00000000000000000, 0.000000000000000000 ) ) ;
#251 = EDGE_CURVE ( 'NONE', #201, #79, #110, .T. ) ;
#252 = VECTOR ( 'NONE', #223, 1000.000000000000000 ) ;
#253 = SURFACE_SIDE_STYLE ('',( #270 ) ) ;
#254 = SURFACE_STYLE_USAGE ( .BOTH. , #135 ) ;
#255 =( NAMED_UNIT ( * ) PLANE_ANGLE_UNIT ( ) SI_UNIT ( $, .RADIAN. ) );
#256 = CARTESIAN_POINT ( 'NONE',  ( 8.000000000000000000, 89.00000000000000000, 9.797174393178825657E-16 ) ) ;
#257 = FILL_AREA_STYLE ('',( #36 ) ) ;
#258 = CLOSED_SHELL ( 'NONE', ( #115, #6, #284, #215 ) ) ;
#259 = CIRCLE ( 'NONE', #177, 8.000000000000001776 ) ;
#260 = CARTESIAN_POINT ( 'NONE',  ( -8.000000000000003553, 89.00000000000000000, 0.000000000000000000 ) ) ;
#261 = SURFACE_STYLE_FILL_AREA ( #257 ) ;
#262 = ORIENTED_EDGE ( 'NONE', *, *, #249, .T. ) ;
#263 = CARTESIAN_POINT ( 'NONE',  ( 2.782986200253006795E-33, 24.00000000000000000, 0.000000000000000000 ) ) ;
#264 = CYLINDRICAL_SURFACE ( 'NONE', #178, 8.000000000000000000 ) ;
#265 = ORIENTED_EDGE ( 'NONE', *, *, #130, .T. ) ;
#266 = ORIENTED_EDGE ( 'NONE', *, *, #47, .F. ) ;
#267 = FILL_AREA_STYLE_COLOUR ( '', #106 ) ;
#268 =( LENGTH_UNIT ( ) NAMED_UNIT ( * ) SI_UNIT ( .MILLI., .METRE. ) );
#269 =( LENGTH_UNIT ( ) NAMED_UNIT ( * ) SI_UNIT ( .MILLI., .METRE. ) );
#270 = SURFACE_STYLE_FILL_AREA ( #111 ) ;
#271 = STYLED_ITEM ( 'NONE', ( #273 ), #115 ) ;
#272 = CARTESIAN_POINT ( 'NONE',  ( -1.714505518806293849E-15, 89.00000000000000000, 0.000000000000000000 ) ) ;
#273 = PRESENTATION_STYLE_ASSIGNMENT (( #211 ) ) ;
#274 = LINE ( 'NONE', #241, #17 ) ;
#275 = UNCERTAINTY_MEASURE_WITH_UNIT (LENGTH_MEASURE( 1.000000000000000082E-05 ), #122, 'distance_accuracy_value', 'NONE');
#276 = SURFACE_STYLE_FILL_AREA ( #193 ) ;
#277 =( GEOMETRIC_REPRESENTATION_CONTEXT ( 3 ) GLOBAL_UNCERTAINTY_ASSIGNED_CONTEXT ( ( #213 ) ) GLOBAL_UNIT_ASSIGNED_CONTEXT ( ( #280, #38, #196 ) ) REPRESENTATION_CONTEXT ( 'NONE', 'WORKASPACE' ) );
#278 = CARTESIAN_POINT ( 'NONE',  ( 0.000000000000000000, 0.000000000000000000, 0.000000000000000000 ) ) ;
#279 = EDGE_CURVE ( 'NONE', #26, #179, #101, .T. ) ;
#280 =( LENGTH_UNIT ( ) NAMED_UNIT ( * ) SI_UNIT ( .MILLI., .METRE. ) );
#281 = PRESENTATION_STYLE_ASSIGNMENT (( #61 ) ) ;
#282 = ORIENTED_EDGE ( 'NONE', *, *, #52, .F. ) ;
#283 = DIRECTION ( 'NONE',  ( -1.000000000000000000, -2.637700798163528719E-17, 0.000000000000000000 ) ) ;
#284 = ADVANCED_FACE ( 'NONE', ( #244 ), #264, .T. ) ;
#285 = ORIENTED_EDGE ( 'NONE', *, *, #198, .F. ) ;
#286 = ORIENTED_EDGE ( 'NONE', *, *, #279, .T. ) ;
#287 = PRODUCT_CONTEXT ( 'NONE', #123, 'mechanical' ) ;
#288 = ORIENTED_EDGE ( 'NONE', *, *, #245, .F. ) ;
ENDSEC;
END-ISO-10303-21;
