ISO-10303-21;
HEADER;
FILE_DESCRIPTION (( 'STEP AP214' ),
    '1' );
FILE_NAME ('59576.STEP',
    '2023-07-24T15:12:16',
    ( '' ),
    ( '' ),
    'SwSTEP 2.0',
    'SolidWorks 2023',
    '' );
FILE_SCHEMA (( 'AUTOMOTIVE_DESIGN' ));
ENDSEC;

DATA;
#1 = CARTESIAN_POINT ( 'NONE',  ( 8.023096076392732812E-15, 9.000000000000001776, 0.000000000000000000 ) ) ;
#2 = SURFACE_STYLE_FILL_AREA ( #308 ) ;
#3 = FILL_AREA_STYLE ('',( #279 ) ) ;
#4 = CLOSED_SHELL ( 'NONE', ( #21, #172, #132, #82, #246, #197 ) ) ;
#5 = AXIS2_PLACEMENT_3D ( 'NONE', #46, #209, #263 ) ;
#6 = SURFACE_STYLE_FILL_AREA ( #170 ) ;
#7 = PRESENTATION_STYLE_ASSIGNMENT (( #9 ) ) ;
#8 = CARTESIAN_POINT ( 'NONE',  ( 0.000000000000000000, 1.000000000000000000, 0.000000000000000000 ) ) ;
#9 = SURFACE_STYLE_USAGE ( .BOTH. , #31 ) ;
#10 =( GEOMETRIC_REPRESENTATION_CONTEXT ( 3 ) GLOBAL_UNCERTAINTY_ASSIGNED_CONTEXT ( ( #148 ) ) GLOBAL_UNIT_ASSIGNED_CONTEXT ( ( #24, #134, #284 ) ) REPRESENTATION_CONTEXT ( 'NONE', 'WORKASPACE' ) );
#11 = VECTOR ( 'NONE', #111, 1000.000000000000000 ) ;
#12 = VERTEX_POINT ( 'NONE', #218 ) ;
#13 = DIRECTION ( 'NONE',  ( 0.000000000000000000, 0.000000000000000000, -1.000000000000000000 ) ) ;
#14 = CARTESIAN_POINT ( 'NONE',  ( 0.000000000000000000, 1.000000000000000000, 0.000000000000000000 ) ) ;
#15 = DIRECTION ( 'NONE',  ( 1.213614799521464586E-16, -1.000000000000000000, 0.000000000000000000 ) ) ;
#16 = SURFACE_STYLE_FILL_AREA ( #66 ) ;
#17 = MECHANICAL_DESIGN_GEOMETRIC_PRESENTATION_REPRESENTATION (  '', ( #157 ), #290 ) ;
#18 = CIRCLE ( 'NONE', #344, 2.999999999999998668 ) ;
#19 = VERTEX_POINT ( 'NONE', #27 ) ;
#20 = SURFACE_STYLE_FILL_AREA ( #257 ) ;
#21 = ADVANCED_FACE ( 'NONE', ( #313 ), #169, .T. ) ;
#22 = SURFACE_SIDE_STYLE ('',( #52 ) ) ;
#23 = STYLED_ITEM ( 'NONE', ( #103 ), #246 ) ;
#24 =( LENGTH_UNIT ( ) NAMED_UNIT ( * ) SI_UNIT ( .MILLI., .METRE. ) );
#25 = MECHANICAL_DESIGN_GEOMETRIC_PRESENTATION_REPRESENTATION (  '', ( #136 ), #36 ) ;
#26 = FACE_OUTER_BOUND ( 'NONE', #254, .T. ) ;
#27 = CARTESIAN_POINT ( 'NONE',  ( 3.673940397442059375E-16, 1.000000000000000000, 3.000000000000000000 ) ) ;
#28 = AXIS2_PLACEMENT_3D ( 'NONE', #64, #15, #122 ) ;
#29 = STYLED_ITEM ( 'NONE', ( #335 ), #197 ) ;
#30 = DIRECTION ( 'NONE',  ( -1.000000000000000000, 0.000000000000000000, 0.000000000000000000 ) ) ;
#31 = SURFACE_SIDE_STYLE ('',( #140 ) ) ;
#32 = EDGE_CURVE ( 'NONE', #307, #95, #69, .T. ) ;
#33 = DIRECTION ( 'NONE',  ( -0.000000000000000000, -1.000000000000000000, -0.000000000000000000 ) ) ;
#34 = STYLED_ITEM ( 'NONE', ( #75 ), #132 ) ;
#35 = CIRCLE ( 'NONE', #181, 2.999999999999992450 ) ;
#36 =( GEOMETRIC_REPRESENTATION_CONTEXT ( 3 ) GLOBAL_UNCERTAINTY_ASSIGNED_CONTEXT ( ( #42 ) ) GLOBAL_UNIT_ASSIGNED_CONTEXT ( ( #354, #233, #237 ) ) REPRESENTATION_CONTEXT ( 'NONE', 'WORKASPACE' ) );
#37 =( NAMED_UNIT ( * ) PLANE_ANGLE_UNIT ( ) SI_UNIT ( $, .RADIAN. ) );
#38 = MANIFOLD_SOLID_BREP ( 'Revolve - Cutting Edge', #4 ) ;
#39 = EDGE_CURVE ( 'NONE', #317, #19, #167, .T. ) ;
#40 = CARTESIAN_POINT ( 'NONE',  ( 0.000000000000000000, 0.000000000000000000, 0.000000000000000000 ) ) ;
#41 = CARTESIAN_POINT ( 'NONE',  ( 2.449293598294706414E-16, 1.000000000000000000, 2.000000000000000000 ) ) ;
#42 = UNCERTAINTY_MEASURE_WITH_UNIT (LENGTH_MEASURE( 1.000000000000000082E-05 ), #354, 'distance_accuracy_value', 'NONE');
#43 =( GEOMETRIC_REPRESENTATION_CONTEXT ( 3 ) GLOBAL_UNCERTAINTY_ASSIGNED_CONTEXT ( ( #369 ) ) GLOBAL_UNIT_ASSIGNED_CONTEXT ( ( #186, #77, #183 ) ) REPRESENTATION_CONTEXT ( 'NONE', 'WORKASPACE' ) );
#44 = CIRCLE ( 'NONE', #220, 3.000000000000000000 ) ;
#45 = ORIENTED_EDGE ( 'NONE', *, *, #184, .T. ) ;
#46 = CARTESIAN_POINT ( 'NONE',  ( 0.000000000000000000, 0.000000000000000000, 0.000000000000000000 ) ) ;
#47 =( NAMED_UNIT ( * ) PLANE_ANGLE_UNIT ( ) SI_UNIT ( $, .RADIAN. ) );
#48 = APPLICATION_CONTEXT ( 'automotive_design' ) ;
#49 = CIRCLE ( 'NONE', #320, 3.000000000000000000 ) ;
#50 = DIRECTION ( 'NONE',  ( -0.000000000000000000, -1.000000000000000000, -0.000000000000000000 ) ) ;
#51 = ADVANCED_FACE ( 'NONE', ( #92 ), #225, .F. ) ;
#52 = SURFACE_STYLE_FILL_AREA ( #76 ) ;
#53 = AXIS2_PLACEMENT_3D ( 'NONE', #1, #243, #267 ) ;
#54 = SURFACE_SIDE_STYLE ('',( #2 ) ) ;
#55 = ORIENTED_EDGE ( 'NONE', *, *, #39, .F. ) ;
#56 = LINE ( 'NONE', #314, #298 ) ;
#57 = ORIENTED_EDGE ( 'NONE', *, *, #232, .F. ) ;
#58 = DIRECTION ( 'NONE',  ( 0.000000000000000000, 0.000000000000000000, -1.000000000000000000 ) ) ;
#59 = VERTEX_POINT ( 'NONE', #334 ) ;
#60 = PRESENTATION_LAYER_ASSIGNMENT (  '', '', ( #146 ) ) ;
#61 = ORIENTED_EDGE ( 'NONE', *, *, #88, .F. ) ;
#62 = FACE_OUTER_BOUND ( 'NONE', #305, .T. ) ;
#63 = FILL_AREA_STYLE_COLOUR ( '', #123 ) ;
#64 = CARTESIAN_POINT ( 'NONE',  ( 3.000000000000000000, 63.00000000000000000, 0.000000000000000000 ) ) ;
#65 = AXIS2_PLACEMENT_3D ( 'NONE', #199, #202, #321 ) ;
#66 = FILL_AREA_STYLE ('',( #63 ) ) ;
#67 = DIRECTION ( 'NONE',  ( -1.213614799521464586E-16, 1.000000000000000000, 0.000000000000000000 ) ) ;
#68 = CARTESIAN_POINT ( 'NONE',  ( 1.469576158976823750E-15, 63.00000000000000000, 0.000000000000000000 ) ) ;
#69 = CIRCLE ( 'NONE', #65, 2.999999999999998668 ) ;
#70 = CIRCLE ( 'NONE', #242, 2.000000000000000000 ) ;
#71 = SURFACE_SIDE_STYLE ('',( #20 ) ) ;
#72 = SURFACE_SIDE_STYLE ('',( #238 ) ) ;
#73 =( NAMED_UNIT ( * ) SI_UNIT ( $, .STERADIAN. ) SOLID_ANGLE_UNIT ( ) );
#74 = STYLED_ITEM ( 'NONE', ( #295 ), #82 ) ;
#75 = PRESENTATION_STYLE_ASSIGNMENT (( #365 ) ) ;
#76 = FILL_AREA_STYLE ('',( #266 ) ) ;
#77 =( NAMED_UNIT ( * ) PLANE_ANGLE_UNIT ( ) SI_UNIT ( $, .RADIAN. ) );
#78 =( LENGTH_UNIT ( ) NAMED_UNIT ( * ) SI_UNIT ( .MILLI., .METRE. ) );
#79 = ORIENTED_EDGE ( 'NONE', *, *, #179, .T. ) ;
#80 = AXIS2_PLACEMENT_3D ( 'NONE', #87, #67, #177 ) ;
#81 =( GEOMETRIC_REPRESENTATION_CONTEXT ( 3 ) GLOBAL_UNCERTAINTY_ASSIGNED_CONTEXT ( ( #212 ) ) GLOBAL_UNIT_ASSIGNED_CONTEXT ( ( #78, #113, #83 ) ) REPRESENTATION_CONTEXT ( 'NONE', 'WORKASPACE' ) );
#82 = ADVANCED_FACE ( 'NONE', ( #135 ), #343, .T. ) ;
#83 =( NAMED_UNIT ( * ) SI_UNIT ( $, .STERADIAN. ) SOLID_ANGLE_UNIT ( ) );
#84 = CARTESIAN_POINT ( 'NONE',  ( 0.000000000000000000, 0.000000000000000000, -2.000000000000000000 ) ) ;
#85 = COLOUR_RGB ( '',1.000000000000000000, 0.000000000000000000, 0.000000000000000000 ) ;
#86 = DIRECTION ( 'NONE',  ( -0.000000000000000000, -1.000000000000000000, -0.000000000000000000 ) ) ;
#87 = CARTESIAN_POINT ( 'NONE',  ( 8.023096076392732812E-15, 9.000000000000000000, 0.000000000000000000 ) ) ;
#88 = EDGE_CURVE ( 'NONE', #317, #190, #249, .T. ) ;
#89 = CARTESIAN_POINT ( 'NONE',  ( 0.000000000000000000, 9.000000000000000000, 0.000000000000000000 ) ) ;
#90 = AXIS2_PLACEMENT_3D ( 'NONE', #130, #262, #108 ) ;
#91 = MECHANICAL_DESIGN_GEOMETRIC_PRESENTATION_REPRESENTATION (  '', ( #29 ), #81 ) ;
#92 = FACE_OUTER_BOUND ( 'NONE', #193, .T. ) ;
#93 = EDGE_LOOP ( 'NONE', ( #145, #226 ) ) ;
#94 = PLANE ( 'NONE',  #311 ) ;
#95 = VERTEX_POINT ( 'NONE', #164 ) ;
#96 = DIRECTION ( 'NONE',  ( -1.224646799147353207E-16, 0.000000000000000000, -1.000000000000000000 ) ) ;
#97 = EDGE_CURVE ( 'NONE', #138, #95, #302, .T. ) ;
#98 = FACE_OUTER_BOUND ( 'NONE', #196, .T. ) ;
#99 = PRODUCT_DEFINITION_CONTEXT ( 'detailed design', #357, 'design' ) ;
#100 = COLOUR_RGB ( '',1.000000000000000000, 0.000000000000000000, 0.000000000000000000 ) ;
#101 = PRESENTATION_LAYER_ASSIGNMENT (  '', '', ( #29 ) ) ;
#102 = ADVANCED_BREP_SHAPE_REPRESENTATION ( '59576', ( #38, #271, #210 ), #278 ) ;
#103 = PRESENTATION_STYLE_ASSIGNMENT (( #105 ) ) ;
#104 = PRESENTATION_STYLE_ASSIGNMENT (( #361 ) ) ;
#105 = SURFACE_STYLE_USAGE ( .BOTH. , #297 ) ;
#106 = EDGE_CURVE ( 'NONE', #12, #138, #253, .T. ) ;
#107 = MECHANICAL_DESIGN_GEOMETRIC_PRESENTATION_REPRESENTATION (  '', ( #34 ), #10 ) ;
#108 = DIRECTION ( 'NONE',  ( 0.000000000000000000, 0.000000000000000000, 1.000000000000000000 ) ) ;
#109 = PRODUCT_DEFINITION_SHAPE ( 'NONE', 'NONE',  #333 ) ;
#110 = MECHANICAL_DESIGN_GEOMETRIC_PRESENTATION_REPRESENTATION (  '', ( #74 ), #43 ) ;
#111 = DIRECTION ( 'NONE',  ( -0.000000000000000000, -1.000000000000000000, -0.000000000000000000 ) ) ;
#112 = CARTESIAN_POINT ( 'NONE',  ( 0.000000000000000000, 0.000000000000000000, -3.000000000000000000 ) ) ;
#113 =( NAMED_UNIT ( * ) PLANE_ANGLE_UNIT ( ) SI_UNIT ( $, .RADIAN. ) );
#114 = EDGE_CURVE ( 'NONE', #138, #12, #35, .T. ) ;
#115 = ORIENTED_EDGE ( 'NONE', *, *, #300, .T. ) ;
#116 = AXIS2_PLACEMENT_3D ( 'NONE', #319, #227, #147 ) ;
#117 = AXIS2_PLACEMENT_3D ( 'NONE', #153, #149, #127 ) ;
#118 = ORIENTED_EDGE ( 'NONE', *, *, #340, .F. ) ;
#119 = DIRECTION ( 'NONE',  ( 0.000000000000000000, 0.000000000000000000, -1.000000000000000000 ) ) ;
#120 = EDGE_LOOP ( 'NONE', ( #287, #171, #322, #247 ) ) ;
#121 = EDGE_CURVE ( 'NONE', #59, #19, #185, .T. ) ;
#122 = DIRECTION ( 'NONE',  ( 1.000000000000000000, 1.213614799521464586E-16, 0.000000000000000000 ) ) ;
#123 = COLOUR_RGB ( '',0.7921568627450980005, 0.8196078431372548767, 0.9333333333333333481 ) ;
#124 = ORIENTED_EDGE ( 'NONE', *, *, #32, .F. ) ;
#125 = CARTESIAN_POINT ( 'NONE',  ( 0.000000000000000000, 1.000000000000000000, -3.000000000000000000 ) ) ;
#126 = ADVANCED_FACE ( 'NONE', ( #264 ), #370, .T. ) ;
#127 = DIRECTION ( 'NONE',  ( 0.000000000000000000, 0.000000000000000000, -1.000000000000000000 ) ) ;
#128 = AXIS2_PLACEMENT_3D ( 'NONE', #41, #173, #96 ) ;
#129 = AXIS2_PLACEMENT_3D ( 'NONE', #192, #217, #188 ) ;
#130 = CARTESIAN_POINT ( 'NONE',  ( 0.000000000000000000, 1.000000000000000000, -2.000000000000000000 ) ) ;
#131 = CARTESIAN_POINT ( 'NONE',  ( 1.469576158976823750E-15, 63.00000000000000000, 0.000000000000000000 ) ) ;
#132 = ADVANCED_FACE ( 'NONE', ( #26 ), #94, .T. ) ;
#133 = PRESENTATION_STYLE_ASSIGNMENT (( #213 ) ) ;
#134 =( NAMED_UNIT ( * ) PLANE_ANGLE_UNIT ( ) SI_UNIT ( $, .RADIAN. ) );
#135 = FACE_OUTER_BOUND ( 'NONE', #180, .T. ) ;
#136 = STYLED_ITEM ( 'NONE', ( #133 ), #271 ) ;
#137 = FILL_AREA_STYLE_COLOUR ( '', #234 ) ;
#138 = VERTEX_POINT ( 'NONE', #316 ) ;
#139 = FILL_AREA_STYLE_COLOUR ( '', #85 ) ;
#140 = SURFACE_STYLE_FILL_AREA ( #3 ) ;
#141 =( GEOMETRIC_REPRESENTATION_CONTEXT ( 3 ) GLOBAL_UNCERTAINTY_ASSIGNED_CONTEXT ( ( #230 ) ) GLOBAL_UNIT_ASSIGNED_CONTEXT ( ( #152, #364, #332 ) ) REPRESENTATION_CONTEXT ( 'NONE', 'WORKASPACE' ) );
#142 =( NAMED_UNIT ( * ) SI_UNIT ( $, .STERADIAN. ) SOLID_ANGLE_UNIT ( ) );
#143 = EDGE_CURVE ( 'NONE', #19, #144, #281, .T. ) ;
#144 = VERTEX_POINT ( 'NONE', #324 ) ;
#145 = ORIENTED_EDGE ( 'NONE', *, *, #223, .T. ) ;
#146 = STYLED_ITEM ( 'NONE', ( #346 ), #38 ) ;
#147 = DIRECTION ( 'NONE',  ( 0.000000000000000000, 0.000000000000000000, -1.000000000000000000 ) ) ;
#148 = UNCERTAINTY_MEASURE_WITH_UNIT (LENGTH_MEASURE( 1.000000000000000082E-05 ), #24, 'distance_accuracy_value', 'NONE');
#149 = DIRECTION ( 'NONE',  ( -0.000000000000000000, -1.000000000000000000, -0.000000000000000000 ) ) ;
#150 = STYLED_ITEM ( 'NONE', ( #7 ), #21 ) ;
#151 = ORIENTED_EDGE ( 'NONE', *, *, #121, .F. ) ;
#152 =( LENGTH_UNIT ( ) NAMED_UNIT ( * ) SI_UNIT ( .MILLI., .METRE. ) );
#153 = CARTESIAN_POINT ( 'NONE',  ( 0.000000000000000000, 0.000000000000000000, 0.000000000000000000 ) ) ;
#154 = APPLICATION_PROTOCOL_DEFINITION ( 'draft international standard', 'automotive_design', 1998, #48 ) ;
#155 = DIRECTION ( 'NONE',  ( 0.000000000000000000, 0.000000000000000000, -1.000000000000000000 ) ) ;
#156 = DIRECTION ( 'NONE',  ( -0.000000000000000000, -1.000000000000000000, -0.000000000000000000 ) ) ;
#157 = STYLED_ITEM ( 'NONE', ( #104 ), #172 ) ;
#158 = DIRECTION ( 'NONE',  ( -0.000000000000000000, -1.000000000000000000, -0.000000000000000000 ) ) ;
#159 = DIRECTION ( 'NONE',  ( -1.213614799521464586E-16, 1.000000000000000000, -0.000000000000000000 ) ) ;
#160 = FILL_AREA_STYLE ('',( #206 ) ) ;
#161 = DIRECTION ( 'NONE',  ( -1.000000000000000000, 0.000000000000000000, 0.000000000000000000 ) ) ;
#162 = ADVANCED_FACE ( 'NONE', ( #224 ), #201, .F. ) ;
#163 = MECHANICAL_DESIGN_GEOMETRIC_PRESENTATION_REPRESENTATION (  '', ( #146 ), #189 ) ;
#164 = CARTESIAN_POINT ( 'NONE',  ( -2.999999999999997335, 63.00000000000000000, 0.000000000000000000 ) ) ;
#165 = DIRECTION ( 'NONE',  ( 0.000000000000000000, 0.000000000000000000, -1.000000000000000000 ) ) ;
#166 = ORIENTED_EDGE ( 'NONE', *, *, #143, .F. ) ;
#167 = CIRCLE ( 'NONE', #204, 3.000000000000000000 ) ;
#168 = PRODUCT_DEFINITION_FORMATION_WITH_SPECIFIED_SOURCE ( 'ANY', '', #301, .NOT_KNOWN. ) ;
#169 = CYLINDRICAL_SURFACE ( 'NONE', #116, 3.000000000000000000 ) ;
#170 = FILL_AREA_STYLE ('',( #139 ) ) ;
#171 = ORIENTED_EDGE ( 'NONE', *, *, #232, .T. ) ;
#172 = ADVANCED_FACE ( 'NONE', ( #349 ), #352, .T. ) ;
#173 = DIRECTION ( 'NONE',  ( 1.000000000000000000, 0.000000000000000000, -1.224646799147353207E-16 ) ) ;
#174 =( LENGTH_UNIT ( ) NAMED_UNIT ( * ) SI_UNIT ( .MILLI., .METRE. ) );
#175 =( GEOMETRIC_REPRESENTATION_CONTEXT ( 3 ) GLOBAL_UNCERTAINTY_ASSIGNED_CONTEXT ( ( #187 ) ) GLOBAL_UNIT_ASSIGNED_CONTEXT ( ( #341, #345, #142 ) ) REPRESENTATION_CONTEXT ( 'NONE', 'WORKASPACE' ) );
#176 = ORIENTED_EDGE ( 'NONE', *, *, #363, .F. ) ;
#177 = DIRECTION ( 'NONE',  ( -1.000000000000000000, -1.213614799521464586E-16, 0.000000000000000000 ) ) ;
#178 = CARTESIAN_POINT ( 'NONE',  ( 3.000000000000000444, 63.00000000000000000, 3.673940397442056910E-16 ) ) ;
#179 = EDGE_CURVE ( 'NONE', #59, #353, #49, .T. ) ;
#180 = EDGE_LOOP ( 'NONE', ( #166, #273, #200, #176 ) ) ;
#181 = AXIS2_PLACEMENT_3D ( 'NONE', #245, #329, #161 ) ;
#182 = MECHANICAL_DESIGN_GEOMETRIC_PRESENTATION_REPRESENTATION (  '', ( #23 ), #141 ) ;
#183 =( NAMED_UNIT ( * ) SI_UNIT ( $, .STERADIAN. ) SOLID_ANGLE_UNIT ( ) );
#184 = EDGE_CURVE ( 'NONE', #353, #317, #272, .T. ) ;
#185 = LINE ( 'NONE', #367, #255 ) ;
#186 =( LENGTH_UNIT ( ) NAMED_UNIT ( * ) SI_UNIT ( .MILLI., .METRE. ) );
#187 = UNCERTAINTY_MEASURE_WITH_UNIT (LENGTH_MEASURE( 1.000000000000000082E-05 ), #341, 'distance_accuracy_value', 'NONE');
#188 = DIRECTION ( 'NONE',  ( 0.000000000000000000, 0.000000000000000000, -1.000000000000000000 ) ) ;
#189 =( GEOMETRIC_REPRESENTATION_CONTEXT ( 3 ) GLOBAL_UNCERTAINTY_ASSIGNED_CONTEXT ( ( #299 ) ) GLOBAL_UNIT_ASSIGNED_CONTEXT ( ( #174, #37, #351 ) ) REPRESENTATION_CONTEXT ( 'NONE', 'WORKASPACE' ) );
#190 = VERTEX_POINT ( 'NONE', #84 ) ;
#191 = EDGE_CURVE ( 'NONE', #19, #317, #283, .T. ) ;
#192 = CARTESIAN_POINT ( 'NONE',  ( 0.000000000000000000, 1.000000000000000000, 0.000000000000000000 ) ) ;
#193 = EDGE_LOOP ( 'NONE', ( #356, #315 ) ) ;
#194 = AXIS2_PLACEMENT_3D ( 'NONE', #294, #50, #155 ) ;
#195 = SURFACE_STYLE_USAGE ( .BOTH. , #54 ) ;
#196 = EDGE_LOOP ( 'NONE', ( #57, #221, #251, #124 ) ) ;
#197 = ADVANCED_FACE ( 'NONE', ( #244 ), #219, .T. ) ;
#198 = CARTESIAN_POINT ( 'NONE',  ( 0.000000000000000000, 0.000000000000000000, 0.000000000000000000 ) ) ;
#199 = CARTESIAN_POINT ( 'NONE',  ( 1.469576158976823750E-15, 63.00000000000000000, 0.000000000000000000 ) ) ;
#200 = ORIENTED_EDGE ( 'NONE', *, *, #88, .T. ) ;
#201 = PLANE ( 'NONE',  #28 ) ;
#202 = DIRECTION ( 'NONE',  ( -1.213614799521464586E-16, 1.000000000000000000, -0.000000000000000000 ) ) ;
#203 = ORIENTED_EDGE ( 'NONE', *, *, #179, .F. ) ;
#204 = AXIS2_PLACEMENT_3D ( 'NONE', #14, #86, #119 ) ;
#205 = AXIS2_PLACEMENT_3D ( 'NONE', #222, #248, #306 ) ;
#206 = FILL_AREA_STYLE_COLOUR ( '', #350 ) ;
#207 = ORIENTED_EDGE ( 'NONE', *, *, #143, .T. ) ;
#208 = ORIENTED_EDGE ( 'NONE', *, *, #184, .F. ) ;
#209 = DIRECTION ( 'NONE',  ( -0.000000000000000000, -1.000000000000000000, -0.000000000000000000 ) ) ;
#210 = AXIS2_PLACEMENT_3D ( 'NONE', #229, #231, #292 ) ;
#211 = CARTESIAN_POINT ( 'NONE',  ( 0.000000000000000000, 9.000000000000000000, -3.000000000000000000 ) ) ;
#212 = UNCERTAINTY_MEASURE_WITH_UNIT (LENGTH_MEASURE( 1.000000000000000082E-05 ), #78, 'distance_accuracy_value', 'NONE');
#213 = SURFACE_STYLE_USAGE ( .BOTH. , #71 ) ;
#214 = DIRECTION ( 'NONE',  ( 0.000000000000000000, 0.000000000000000000, -1.000000000000000000 ) ) ;
#215 = DIRECTION ( 'NONE',  ( -1.213614799521464586E-16, 1.000000000000000000, -0.000000000000000000 ) ) ;
#216 = SURFACE_STYLE_USAGE ( .BOTH. , #22 ) ;
#217 = DIRECTION ( 'NONE',  ( -0.000000000000000000, -1.000000000000000000, -0.000000000000000000 ) ) ;
#218 = CARTESIAN_POINT ( 'NONE',  ( 3.000000000000000888, 9.000000000000001776, 3.673940397442056910E-16 ) ) ;
#219 = PLANE ( 'NONE',  #205 ) ;
#220 = AXIS2_PLACEMENT_3D ( 'NONE', #291, #366, #214 ) ;
#221 = ORIENTED_EDGE ( 'NONE', *, *, #106, .T. ) ;
#222 = CARTESIAN_POINT ( 'NONE',  ( 0.000000000000000000, 9.000000000000000000, 0.000000000000000000 ) ) ;
#223 = EDGE_CURVE ( 'NONE', #95, #307, #18, .T. ) ;
#224 = FACE_OUTER_BOUND ( 'NONE', #93, .T. ) ;
#225 = PLANE ( 'NONE',  #80 ) ;
#226 = ORIENTED_EDGE ( 'NONE', *, *, #32, .T. ) ;
#227 = DIRECTION ( 'NONE',  ( -0.000000000000000000, -1.000000000000000000, -0.000000000000000000 ) ) ;
#228 = EDGE_LOOP ( 'NONE', ( #118, #203 ) ) ;
#229 = CARTESIAN_POINT ( 'NONE',  ( 0.000000000000000000, 0.000000000000000000, 0.000000000000000000 ) ) ;
#230 = UNCERTAINTY_MEASURE_WITH_UNIT (LENGTH_MEASURE( 1.000000000000000082E-05 ), #152, 'distance_accuracy_value', 'NONE');
#231 = DIRECTION ( 'NONE',  ( 0.000000000000000000, 0.000000000000000000, 1.000000000000000000 ) ) ;
#232 = EDGE_CURVE ( 'NONE', #12, #307, #56, .T. ) ;
#233 =( NAMED_UNIT ( * ) PLANE_ANGLE_UNIT ( ) SI_UNIT ( $, .RADIAN. ) );
#234 = COLOUR_RGB ( '',1.000000000000000000, 0.000000000000000000, 0.000000000000000000 ) ;
#235 = PRESENTATION_LAYER_ASSIGNMENT (  '', '', ( #136 ) ) ;
#236 = CARTESIAN_POINT ( 'NONE',  ( -2.999999999999994227, 63.00000000000000000, 0.000000000000000000 ) ) ;
#237 =( NAMED_UNIT ( * ) SI_UNIT ( $, .STERADIAN. ) SOLID_ANGLE_UNIT ( ) );
#238 = SURFACE_STYLE_FILL_AREA ( #328 ) ;
#239 = DIRECTION ( 'NONE',  ( -1.000000000000000000, 0.000000000000000000, 0.000000000000000000 ) ) ;
#240 =( NAMED_UNIT ( * ) PLANE_ANGLE_UNIT ( ) SI_UNIT ( $, .RADIAN. ) );
#241 = SURFACE_STYLE_FILL_AREA ( #160 ) ;
#242 = AXIS2_PLACEMENT_3D ( 'NONE', #40, #156, #323 ) ;
#243 = DIRECTION ( 'NONE',  ( -1.213614799521464586E-16, 1.000000000000000000, -0.000000000000000000 ) ) ;
#244 = FACE_OUTER_BOUND ( 'NONE', #228, .T. ) ;
#245 = CARTESIAN_POINT ( 'NONE',  ( 8.023096076392732812E-15, 9.000000000000001776, 0.000000000000000000 ) ) ;
#246 = ADVANCED_FACE ( 'NONE', ( #62 ), #360, .T. ) ;
#247 = ORIENTED_EDGE ( 'NONE', *, *, #97, .F. ) ;
#248 = DIRECTION ( 'NONE',  ( 0.000000000000000000, 1.000000000000000000, 0.000000000000000000 ) ) ;
#249 = CIRCLE ( 'NONE', #90, 0.9999999999999997780 ) ;
#250 = COLOUR_RGB ( '',1.000000000000000000, 0.000000000000000000, 0.000000000000000000 ) ;
#251 = ORIENTED_EDGE ( 'NONE', *, *, #97, .T. ) ;
#252 = ORIENTED_EDGE ( 'NONE', *, *, #300, .F. ) ;
#253 = CIRCLE ( 'NONE', #53, 2.999999999999992450 ) ;
#254 = EDGE_LOOP ( 'NONE', ( #115, #337 ) ) ;
#255 = VECTOR ( 'NONE', #158, 1000.000000000000000 ) ;
#256 = PRESENTATION_LAYER_ASSIGNMENT (  '', '', ( #23 ) ) ;
#257 = FILL_AREA_STYLE ('',( #259 ) ) ;
#258 = UNCERTAINTY_MEASURE_WITH_UNIT (LENGTH_MEASURE( 1.000000000000000082E-05 ), #327, 'distance_accuracy_value', 'NONE');
#259 = FILL_AREA_STYLE_COLOUR ( '', #304 ) ;
#260 = UNCERTAINTY_MEASURE_WITH_UNIT (LENGTH_MEASURE( 1.000000000000000082E-05 ), #265, 'distance_accuracy_value', 'NONE');
#261 = APPLICATION_PROTOCOL_DEFINITION ( 'draft international standard', 'automotive_design', 1998, #357 ) ;
#262 = DIRECTION ( 'NONE',  ( -1.000000000000000000, 0.000000000000000000, 0.000000000000000000 ) ) ;
#263 = DIRECTION ( 'NONE',  ( 0.000000000000000000, 0.000000000000000000, -1.000000000000000000 ) ) ;
#264 = FACE_OUTER_BOUND ( 'NONE', #120, .T. ) ;
#265 =( LENGTH_UNIT ( ) NAMED_UNIT ( * ) SI_UNIT ( .MILLI., .METRE. ) );
#266 = FILL_AREA_STYLE_COLOUR ( '', #268 ) ;
#267 = DIRECTION ( 'NONE',  ( -1.000000000000000000, 0.000000000000000000, 0.000000000000000000 ) ) ;
#268 = COLOUR_RGB ( '',1.000000000000000000, 0.000000000000000000, 0.000000000000000000 ) ;
#269 = AXIS2_PLACEMENT_3D ( 'NONE', #68, #159, #239 ) ;
#270 = DIRECTION ( 'NONE',  ( -1.000000000000000000, 0.000000000000000000, 0.000000000000000000 ) ) ;
#271 = MANIFOLD_SOLID_BREP ( 'Revolve - Tool Body (Straight Shanked)', #325 ) ;
#272 = LINE ( 'NONE', #112, #11 ) ;
#273 = ORIENTED_EDGE ( 'NONE', *, *, #191, .T. ) ;
#274 = DIRECTION ( 'NONE',  ( -1.213614799521464586E-16, 1.000000000000000000, -0.000000000000000000 ) ) ;
#275 = ORIENTED_EDGE ( 'NONE', *, *, #340, .T. ) ;
#276 = CARTESIAN_POINT ( 'NONE',  ( 1.469576158976823750E-15, 63.00000000000000000, 0.000000000000000000 ) ) ;
#277 = PRESENTATION_LAYER_ASSIGNMENT (  '', '', ( #157 ) ) ;
#278 =( GEOMETRIC_REPRESENTATION_CONTEXT ( 3 ) GLOBAL_UNCERTAINTY_ASSIGNED_CONTEXT ( ( #258 ) ) GLOBAL_UNIT_ASSIGNED_CONTEXT ( ( #327, #47, #73 ) ) REPRESENTATION_CONTEXT ( 'NONE', 'WORKASPACE' ) );
#279 = FILL_AREA_STYLE_COLOUR ( '', #100 ) ;
#280 = EDGE_LOOP ( 'NONE', ( #275, #289, #55, #208 ) ) ;
#281 = CIRCLE ( 'NONE', #128, 0.9999999999999997780 ) ;
#282 = AXIS2_PLACEMENT_3D ( 'NONE', #8, #338, #165 ) ;
#283 = CIRCLE ( 'NONE', #129, 3.000000000000000000 ) ;
#284 =( NAMED_UNIT ( * ) SI_UNIT ( $, .STERADIAN. ) SOLID_ANGLE_UNIT ( ) );
#285 = PRODUCT_RELATED_PRODUCT_CATEGORY ( 'part', '', ( #301 ) ) ;
#286 = SURFACE_STYLE_USAGE ( .BOTH. , #347 ) ;
#287 = ORIENTED_EDGE ( 'NONE', *, *, #114, .T. ) ;
#288 = CYLINDRICAL_SURFACE ( 'NONE', #269, 2.999999999999995559 ) ;
#289 = ORIENTED_EDGE ( 'NONE', *, *, #121, .T. ) ;
#290 =( GEOMETRIC_REPRESENTATION_CONTEXT ( 3 ) GLOBAL_UNCERTAINTY_ASSIGNED_CONTEXT ( ( #260 ) ) GLOBAL_UNIT_ASSIGNED_CONTEXT ( ( #265, #240, #342 ) ) REPRESENTATION_CONTEXT ( 'NONE', 'WORKASPACE' ) );
#291 = CARTESIAN_POINT ( 'NONE',  ( 0.000000000000000000, 9.000000000000000000, 0.000000000000000000 ) ) ;
#292 = DIRECTION ( 'NONE',  ( 1.000000000000000000, 0.000000000000000000, 0.000000000000000000 ) ) ;
#293 = SURFACE_SIDE_STYLE ('',( #241 ) ) ;
#294 = CARTESIAN_POINT ( 'NONE',  ( 0.000000000000000000, 1.000000000000000000, 0.000000000000000000 ) ) ;
#295 = PRESENTATION_STYLE_ASSIGNMENT (( #216 ) ) ;
#296 = VECTOR ( 'NONE', #362, 1000.000000000000000 ) ;
#297 = SURFACE_SIDE_STYLE ('',( #6 ) ) ;
#298 = VECTOR ( 'NONE', #336, 1000.000000000000000 ) ;
#299 = UNCERTAINTY_MEASURE_WITH_UNIT (LENGTH_MEASURE( 1.000000000000000082E-05 ), #174, 'distance_accuracy_value', 'NONE');
#300 = EDGE_CURVE ( 'NONE', #190, #144, #70, .T. ) ;
#301 = PRODUCT ( '59576', '59576', '', ( #330 ) ) ;
#302 = LINE ( 'NONE', #236, #296 ) ;
#303 = PRESENTATION_LAYER_ASSIGNMENT (  '', '', ( #150 ) ) ;
#304 = COLOUR_RGB ( '',0.7921568627450980005, 0.8196078431372548767, 0.9333333333333333481 ) ;
#305 = EDGE_LOOP ( 'NONE', ( #151, #79, #45, #309 ) ) ;
#306 = DIRECTION ( 'NONE',  ( 0.000000000000000000, -0.000000000000000000, 1.000000000000000000 ) ) ;
#307 = VERTEX_POINT ( 'NONE', #178 ) ;
#308 = FILL_AREA_STYLE ('',( #310 ) ) ;
#309 = ORIENTED_EDGE ( 'NONE', *, *, #191, .F. ) ;
#310 = FILL_AREA_STYLE_COLOUR ( '', #250 ) ;
#311 = AXIS2_PLACEMENT_3D ( 'NONE', #198, #355, #13 ) ;
#312 = ADVANCED_FACE ( 'NONE', ( #98 ), #288, .T. ) ;
#313 = FACE_OUTER_BOUND ( 'NONE', #280, .T. ) ;
#314 = CARTESIAN_POINT ( 'NONE',  ( 2.999999999999996891, 63.00000000000000000, 3.673940397442054445E-16 ) ) ;
#315 = ORIENTED_EDGE ( 'NONE', *, *, #106, .F. ) ;
#316 = CARTESIAN_POINT ( 'NONE',  ( -2.999999999999984457, 9.000000000000001776, 0.000000000000000000 ) ) ;
#317 = VERTEX_POINT ( 'NONE', #125 ) ;
#318 = AXIS2_PLACEMENT_3D ( 'NONE', #131, #215, #270 ) ;
#319 = CARTESIAN_POINT ( 'NONE',  ( 0.000000000000000000, 0.000000000000000000, 0.000000000000000000 ) ) ;
#320 = AXIS2_PLACEMENT_3D ( 'NONE', #89, #33, #58 ) ;
#321 = DIRECTION ( 'NONE',  ( -1.000000000000000000, 0.000000000000000000, 0.000000000000000000 ) ) ;
#322 = ORIENTED_EDGE ( 'NONE', *, *, #223, .F. ) ;
#323 = DIRECTION ( 'NONE',  ( 0.000000000000000000, 0.000000000000000000, -1.000000000000000000 ) ) ;
#324 = CARTESIAN_POINT ( 'NONE',  ( 3.061616997868383141E-16, 0.000000000000000000, 2.000000000000000000 ) ) ;
#325 = CLOSED_SHELL ( 'NONE', ( #126, #51, #312, #162 ) ) ;
#326 = CIRCLE ( 'NONE', #5, 2.000000000000000000 ) ;
#327 =( LENGTH_UNIT ( ) NAMED_UNIT ( * ) SI_UNIT ( .MILLI., .METRE. ) );
#328 = FILL_AREA_STYLE ('',( #137 ) ) ;
#329 = DIRECTION ( 'NONE',  ( -1.213614799521464586E-16, 1.000000000000000000, -0.000000000000000000 ) ) ;
#330 = PRODUCT_CONTEXT ( 'NONE', #48, 'mechanical' ) ;
#331 = PRESENTATION_LAYER_ASSIGNMENT (  '', '', ( #74 ) ) ;
#332 =( NAMED_UNIT ( * ) SI_UNIT ( $, .STERADIAN. ) SOLID_ANGLE_UNIT ( ) );
#333 = PRODUCT_DEFINITION ( 'UNKNOWN', '', #168, #99 ) ;
#334 = CARTESIAN_POINT ( 'NONE',  ( 3.673940397442059868E-16, 9.000000000000000000, 3.000000000000000000 ) ) ;
#335 = PRESENTATION_STYLE_ASSIGNMENT (( #195 ) ) ;
#336 = DIRECTION ( 'NONE',  ( -1.213614799521464586E-16, 1.000000000000000000, -0.000000000000000000 ) ) ;
#337 = ORIENTED_EDGE ( 'NONE', *, *, #363, .T. ) ;
#338 = DIRECTION ( 'NONE',  ( -0.000000000000000000, -1.000000000000000000, -0.000000000000000000 ) ) ;
#339 = EDGE_LOOP ( 'NONE', ( #348, #207, #252, #61 ) ) ;
#340 = EDGE_CURVE ( 'NONE', #353, #59, #44, .T. ) ;
#341 =( LENGTH_UNIT ( ) NAMED_UNIT ( * ) SI_UNIT ( .MILLI., .METRE. ) );
#342 =( NAMED_UNIT ( * ) SI_UNIT ( $, .STERADIAN. ) SOLID_ANGLE_UNIT ( ) );
#343 = TOROIDAL_SURFACE ( 'NONE', #194, 2.000000000000000000, 0.9999999999999997780 ) ;
#344 = AXIS2_PLACEMENT_3D ( 'NONE', #276, #274, #30 ) ;
#345 =( NAMED_UNIT ( * ) PLANE_ANGLE_UNIT ( ) SI_UNIT ( $, .RADIAN. ) );
#346 = PRESENTATION_STYLE_ASSIGNMENT (( #286 ) ) ;
#347 = SURFACE_SIDE_STYLE ('',( #16 ) ) ;
#348 = ORIENTED_EDGE ( 'NONE', *, *, #39, .T. ) ;
#349 = FACE_OUTER_BOUND ( 'NONE', #339, .T. ) ;
#350 = COLOUR_RGB ( '',1.000000000000000000, 0.000000000000000000, 0.000000000000000000 ) ;
#351 =( NAMED_UNIT ( * ) SI_UNIT ( $, .STERADIAN. ) SOLID_ANGLE_UNIT ( ) );
#352 = TOROIDAL_SURFACE ( 'NONE', #282, 2.000000000000000000, 0.9999999999999997780 ) ;
#353 = VERTEX_POINT ( 'NONE', #211 ) ;
#354 =( LENGTH_UNIT ( ) NAMED_UNIT ( * ) SI_UNIT ( .MILLI., .METRE. ) );
#355 = DIRECTION ( 'NONE',  ( 0.000000000000000000, -1.000000000000000000, -0.000000000000000000 ) ) ;
#356 = ORIENTED_EDGE ( 'NONE', *, *, #114, .F. ) ;
#357 = APPLICATION_CONTEXT ( 'automotive_design' ) ;
#358 = SHAPE_DEFINITION_REPRESENTATION ( #109, #102 ) ;
#359 = MECHANICAL_DESIGN_GEOMETRIC_PRESENTATION_REPRESENTATION (  '', ( #150 ), #175 ) ;
#360 = CYLINDRICAL_SURFACE ( 'NONE', #117, 3.000000000000000000 ) ;
#361 = SURFACE_STYLE_USAGE ( .BOTH. , #293 ) ;
#362 = DIRECTION ( 'NONE',  ( -1.213614799521464586E-16, 1.000000000000000000, -0.000000000000000000 ) ) ;
#363 = EDGE_CURVE ( 'NONE', #144, #190, #326, .T. ) ;
#364 =( NAMED_UNIT ( * ) PLANE_ANGLE_UNIT ( ) SI_UNIT ( $, .RADIAN. ) );
#365 = SURFACE_STYLE_USAGE ( .BOTH. , #72 ) ;
#366 = DIRECTION ( 'NONE',  ( -0.000000000000000000, -1.000000000000000000, -0.000000000000000000 ) ) ;
#367 = CARTESIAN_POINT ( 'NONE',  ( 3.673940397442059868E-16, 0.000000000000000000, 3.000000000000000000 ) ) ;
#368 = PRESENTATION_LAYER_ASSIGNMENT (  '', '', ( #34 ) ) ;
#369 = UNCERTAINTY_MEASURE_WITH_UNIT (LENGTH_MEASURE( 1.000000000000000082E-05 ), #186, 'distance_accuracy_value', 'NONE');
#370 = CYLINDRICAL_SURFACE ( 'NONE', #318, 2.999999999999995559 ) ;
ENDSEC;
END-ISO-10303-21;
