ISO-10303-21;
HEADER;
FILE_DESCRIPTION (( 'STEP AP214' ),
    '1' );
FILE_NAME ('59747.STEP',
    '2023-07-24T15:32:50',
    ( '' ),
    ( '' ),
    'SwSTEP 2.0',
    'SolidWorks 2023',
    '' );
FILE_SCHEMA (( 'AUTOMOTIVE_DESIGN' ));
ENDSEC;

DATA;
#1 = VECTOR ( 'NONE', #135, 1000.000000000000000 ) ;
#2 = SURFACE_SIDE_STYLE ('',( #78 ) ) ;
#3 = AXIS2_PLACEMENT_3D ( 'NONE', #259, #36, #6 ) ;
#4 = AXIS2_PLACEMENT_3D ( 'NONE', #153, #156, #315 ) ;
#5 = ADVANCED_FACE ( 'NONE', ( #24 ), #146, .T. ) ;
#6 = DIRECTION ( 'NONE',  ( 0.000000000000000000, 0.000000000000000000, 1.000000000000000000 ) ) ;
#7 = PRESENTATION_STYLE_ASSIGNMENT (( #243 ) ) ;
#8 = CIRCLE ( 'NONE', #137, 5.999999999999996447 ) ;
#9 = DIRECTION ( 'NONE',  ( -0.000000000000000000, -1.000000000000000000, -0.000000000000000000 ) ) ;
#10 = CIRCLE ( 'NONE', #369, 6.000000000000001776 ) ;
#11 = FACE_OUTER_BOUND ( 'NONE', #230, .T. ) ;
#12 = CARTESIAN_POINT ( 'NONE',  ( -1.469576158976823750E-15, 75.00000000000000000, 0.000000000000000000 ) ) ;
#13 = EDGE_CURVE ( 'NONE', #244, #228, #252, .T. ) ;
#14 = FACE_OUTER_BOUND ( 'NONE', #214, .T. ) ;
#15 = EDGE_LOOP ( 'NONE', ( #208, #151, #298, #46 ) ) ;
#16 = FILL_AREA_STYLE ('',( #267 ) ) ;
#17 = SURFACE_SIDE_STYLE ('',( #268 ) ) ;
#18 = AXIS2_PLACEMENT_3D ( 'NONE', #328, #68, #286 ) ;
#19 = SURFACE_STYLE_USAGE ( .BOTH. , #250 ) ;
#20 = EDGE_LOOP ( 'NONE', ( #39, #282 ) ) ;
#21 = EDGE_CURVE ( 'NONE', #228, #274, #98, .T. ) ;
#22 = APPLICATION_CONTEXT ( 'automotive_design' ) ;
#23 =( LENGTH_UNIT ( ) NAMED_UNIT ( * ) SI_UNIT ( .MILLI., .METRE. ) );
#24 = FACE_OUTER_BOUND ( 'NONE', #194, .T. ) ;
#25 = DIRECTION ( 'NONE',  ( 0.000000000000000000, 0.000000000000000000, -1.000000000000000000 ) ) ;
#26 = MECHANICAL_DESIGN_GEOMETRIC_PRESENTATION_REPRESENTATION (  '', ( #345 ), #175 ) ;
#27 = UNCERTAINTY_MEASURE_WITH_UNIT (LENGTH_MEASURE( 1.000000000000000082E-05 ), #289, 'distance_accuracy_value', 'NONE');
#28 =( LENGTH_UNIT ( ) NAMED_UNIT ( * ) SI_UNIT ( .MILLI., .METRE. ) );
#29 =( NAMED_UNIT ( * ) PLANE_ANGLE_UNIT ( ) SI_UNIT ( $, .RADIAN. ) );
#30 = AXIS2_PLACEMENT_3D ( 'NONE', #112, #299, #25 ) ;
#31 = PRESENTATION_LAYER_ASSIGNMENT (  '', '', ( #345 ) ) ;
#32 = EDGE_CURVE ( 'NONE', #228, #244, #8, .T. ) ;
#33 = AXIS2_PLACEMENT_3D ( 'NONE', #63, #356, #95 ) ;
#34 = AXIS2_PLACEMENT_3D ( 'NONE', #54, #278, #333 ) ;
#35 = ORIENTED_EDGE ( 'NONE', *, *, #21, .T. ) ;
#36 = DIRECTION ( 'NONE',  ( -1.000000000000000000, 0.000000000000000000, 0.000000000000000000 ) ) ;
#37 = ORIENTED_EDGE ( 'NONE', *, *, #370, .F. ) ;
#38 =( LENGTH_UNIT ( ) NAMED_UNIT ( * ) SI_UNIT ( .MILLI., .METRE. ) );
#39 = ORIENTED_EDGE ( 'NONE', *, *, #32, .F. ) ;
#40 = CARTESIAN_POINT ( 'NONE',  ( 0.000000000000000000, 24.00000000000000000, -6.000000000000000000 ) ) ;
#41 = SURFACE_SIDE_STYLE ('',( #92 ) ) ;
#42 = TOROIDAL_SURFACE ( 'NONE', #30, 5.500000000000000000, 0.5000000000000002220 ) ;
#43 = PRESENTATION_LAYER_ASSIGNMENT (  '', '', ( #311 ) ) ;
#44 = EDGE_CURVE ( 'NONE', #75, #339, #106, .T. ) ;
#45 = DIRECTION ( 'NONE',  ( -1.223542297630008506E-16, 1.000000000000000000, -0.000000000000000000 ) ) ;
#46 = ORIENTED_EDGE ( 'NONE', *, *, #313, .F. ) ;
#47 =( NAMED_UNIT ( * ) SI_UNIT ( $, .STERADIAN. ) SOLID_ANGLE_UNIT ( ) );
#48 = ORIENTED_EDGE ( 'NONE', *, *, #197, .F. ) ;
#49 = CLOSED_SHELL ( 'NONE', ( #227, #89, #216, #203, #148, #342 ) ) ;
#50 = DIRECTION ( 'NONE',  ( 1.000000000000000000, 0.000000000000000000, 0.000000000000000000 ) ) ;
#51 = ORIENTED_EDGE ( 'NONE', *, *, #281, .T. ) ;
#52 = SURFACE_STYLE_USAGE ( .BOTH. , #53 ) ;
#53 = SURFACE_SIDE_STYLE ('',( #245 ) ) ;
#54 = CARTESIAN_POINT ( 'NONE',  ( 0.000000000000000000, 24.00000000000000000, 0.000000000000000000 ) ) ;
#55 =( LENGTH_UNIT ( ) NAMED_UNIT ( * ) SI_UNIT ( .MILLI., .METRE. ) );
#56 = FILL_AREA_STYLE ('',( #310 ) ) ;
#57 = CLOSED_SHELL ( 'NONE', ( #70, #256, #5, #277 ) ) ;
#58 =( GEOMETRIC_REPRESENTATION_CONTEXT ( 3 ) GLOBAL_UNCERTAINTY_ASSIGNED_CONTEXT ( ( #358 ) ) GLOBAL_UNIT_ASSIGNED_CONTEXT ( ( #157, #211, #323 ) ) REPRESENTATION_CONTEXT ( 'NONE', 'WORKASPACE' ) );
#59 = AXIS2_PLACEMENT_3D ( 'NONE', #321, #181, #266 ) ;
#60 = COLOUR_RGB ( '',1.000000000000000000, 0.000000000000000000, 0.000000000000000000 ) ;
#61 = CARTESIAN_POINT ( 'NONE',  ( 0.000000000000000000, 0.000000000000000000, -5.500000000000000000 ) ) ;
#62 = CARTESIAN_POINT ( 'NONE',  ( -1.469576158976823750E-15, 75.00000000000000000, 0.000000000000000000 ) ) ;
#63 = CARTESIAN_POINT ( 'NONE',  ( 0.000000000000000000, 0.5000000000000000000, 0.000000000000000000 ) ) ;
#64 = CARTESIAN_POINT ( 'NONE',  ( -1.469576158976823750E-15, 75.00000000000000000, 0.000000000000000000 ) ) ;
#65 = DIRECTION ( 'NONE',  ( 0.000000000000000000, 0.000000000000000000, -1.000000000000000000 ) ) ;
#66 = PLANE ( 'NONE',  #263 ) ;
#67 = DIRECTION ( 'NONE',  ( -0.000000000000000000, -1.000000000000000000, -0.000000000000000000 ) ) ;
#68 = DIRECTION ( 'NONE',  ( -0.000000000000000000, -1.000000000000000000, -0.000000000000000000 ) ) ;
#69 = ORIENTED_EDGE ( 'NONE', *, *, #210, .F. ) ;
#70 = ADVANCED_FACE ( 'NONE', ( #317 ), #155, .T. ) ;
#71 = VERTEX_POINT ( 'NONE', #93 ) ;
#72 = FILL_AREA_STYLE ('',( #168 ) ) ;
#73 = ORIENTED_EDGE ( 'NONE', *, *, #164, .F. ) ;
#74 = STYLED_ITEM ( 'NONE', ( #218 ), #91 ) ;
#75 = VERTEX_POINT ( 'NONE', #285 ) ;
#76 = EDGE_CURVE ( 'NONE', #274, #167, #10, .T. ) ;
#77 = CARTESIAN_POINT ( 'NONE',  ( 5.999999999999996447, 75.00000000000000000, 7.347880794884117764E-16 ) ) ;
#78 = SURFACE_STYLE_FILL_AREA ( #202 ) ;
#79 = STYLED_ITEM ( 'NONE', ( #100 ), #216 ) ;
#80 = APPLICATION_CONTEXT ( 'automotive_design' ) ;
#81 =( NAMED_UNIT ( * ) SI_UNIT ( $, .STERADIAN. ) SOLID_ANGLE_UNIT ( ) );
#82 = AXIS2_PLACEMENT_3D ( 'NONE', #232, #9, #65 ) ;
#83 =( GEOMETRIC_REPRESENTATION_CONTEXT ( 3 ) GLOBAL_UNCERTAINTY_ASSIGNED_CONTEXT ( ( #173 ) ) GLOBAL_UNIT_ASSIGNED_CONTEXT ( ( #196, #109, #306 ) ) REPRESENTATION_CONTEXT ( 'NONE', 'WORKASPACE' ) );
#84 = ORIENTED_EDGE ( 'NONE', *, *, #44, .T. ) ;
#85 = DIRECTION ( 'NONE',  ( -1.223542297630008506E-16, 1.000000000000000000, -0.000000000000000000 ) ) ;
#86 = PRESENTATION_LAYER_ASSIGNMENT (  '', '', ( #206 ) ) ;
#87 = PRESENTATION_STYLE_ASSIGNMENT (( #235 ) ) ;
#88 = CIRCLE ( 'NONE', #225, 6.000000000000000000 ) ;
#89 = ADVANCED_FACE ( 'NONE', ( #324 ), #42, .T. ) ;
#90 =( NAMED_UNIT ( * ) SI_UNIT ( $, .STERADIAN. ) SOLID_ANGLE_UNIT ( ) );
#91 = MANIFOLD_SOLID_BREP ( 'Revolve - Tool Body (Straight Shanked)', #57 ) ;
#92 = SURFACE_STYLE_FILL_AREA ( #363 ) ;
#93 = CARTESIAN_POINT ( 'NONE',  ( 7.347880794884119736E-16, 24.00000000000000000, 6.000000000000000000 ) ) ;
#94 = PRODUCT_CONTEXT ( 'NONE', #22, 'mechanical' ) ;
#95 = DIRECTION ( 'NONE',  ( 0.000000000000000000, 0.000000000000000000, -1.000000000000000000 ) ) ;
#96 = EDGE_CURVE ( 'NONE', #128, #193, #247, .T. ) ;
#97 = CIRCLE ( 'NONE', #207, 5.500000000000000000 ) ;
#98 = LINE ( 'NONE', #322, #143 ) ;
#99 = CARTESIAN_POINT ( 'NONE',  ( 6.000000000000000000, 24.00000000000000000, 7.347880794884120722E-16 ) ) ;
#100 = PRESENTATION_STYLE_ASSIGNMENT (( #241 ) ) ;
#101 = ORIENTED_EDGE ( 'NONE', *, *, #96, .F. ) ;
#102 = UNCERTAINTY_MEASURE_WITH_UNIT (LENGTH_MEASURE( 1.000000000000000082E-05 ), #38, 'distance_accuracy_value', 'NONE');
#103 = FILL_AREA_STYLE_COLOUR ( '', #360 ) ;
#104 = DIRECTION ( 'NONE',  ( 0.000000000000000000, -1.000000000000000000, -0.000000000000000000 ) ) ;
#105 = FILL_AREA_STYLE_COLOUR ( '', #60 ) ;
#106 = CIRCLE ( 'NONE', #3, 0.5000000000000004441 ) ;
#107 = PRODUCT_DEFINITION_CONTEXT ( 'detailed design', #80, 'design' ) ;
#108 = AXIS2_PLACEMENT_3D ( 'NONE', #140, #122, #200 ) ;
#109 =( NAMED_UNIT ( * ) PLANE_ANGLE_UNIT ( ) SI_UNIT ( $, .RADIAN. ) );
#110 = DIRECTION ( 'NONE',  ( -0.000000000000000000, -1.000000000000000000, -0.000000000000000000 ) ) ;
#111 = CYLINDRICAL_SURFACE ( 'NONE', #201, 6.000000000000000000 ) ;
#112 = CARTESIAN_POINT ( 'NONE',  ( 0.000000000000000000, 0.5000000000000000000, 0.000000000000000000 ) ) ;
#113 = PRESENTATION_STYLE_ASSIGNMENT (( #170 ) ) ;
#114 = DIRECTION ( 'NONE',  ( 0.000000000000000000, 0.000000000000000000, -1.000000000000000000 ) ) ;
#115 = MECHANICAL_DESIGN_GEOMETRIC_PRESENTATION_REPRESENTATION (  '', ( #79 ), #123 ) ;
#116 = PRESENTATION_LAYER_ASSIGNMENT (  '', '', ( #337 ) ) ;
#117 = FILL_AREA_STYLE_COLOUR ( '', #343 ) ;
#118 = SURFACE_STYLE_USAGE ( .BOTH. , #2 ) ;
#119 = ORIENTED_EDGE ( 'NONE', *, *, #32, .T. ) ;
#120 = CARTESIAN_POINT ( 'NONE',  ( 0.000000000000000000, 0.000000000000000000, -6.000000000000000000 ) ) ;
#121 = CARTESIAN_POINT ( 'NONE',  ( 6.000000000000000000, 75.00000000000000000, 7.347880794884119736E-16 ) ) ;
#122 = DIRECTION ( 'NONE',  ( -0.000000000000000000, -1.000000000000000000, -0.000000000000000000 ) ) ;
#123 =( GEOMETRIC_REPRESENTATION_CONTEXT ( 3 ) GLOBAL_UNCERTAINTY_ASSIGNED_CONTEXT ( ( #102 ) ) GLOBAL_UNIT_ASSIGNED_CONTEXT ( ( #38, #29, #132 ) ) REPRESENTATION_CONTEXT ( 'NONE', 'WORKASPACE' ) );
#124 = LINE ( 'NONE', #353, #279 ) ;
#125 = ORIENTED_EDGE ( 'NONE', *, *, #13, .T. ) ;
#126 = CARTESIAN_POINT ( 'NONE',  ( -5.999999999999991118, 24.00000000000000000, 0.000000000000000000 ) ) ;
#127 = APPLICATION_PROTOCOL_DEFINITION ( 'draft international standard', 'automotive_design', 1998, #22 ) ;
#128 = VERTEX_POINT ( 'NONE', #272 ) ;
#129 = FACE_OUTER_BOUND ( 'NONE', #20, .T. ) ;
#130 = SURFACE_SIDE_STYLE ('',( #184 ) ) ;
#131 = COLOUR_RGB ( '',1.000000000000000000, 0.000000000000000000, 0.000000000000000000 ) ;
#132 =( NAMED_UNIT ( * ) SI_UNIT ( $, .STERADIAN. ) SOLID_ANGLE_UNIT ( ) );
#133 = ORIENTED_EDGE ( 'NONE', *, *, #338, .T. ) ;
#134 = SURFACE_STYLE_FILL_AREA ( #341 ) ;
#135 = DIRECTION ( 'NONE',  ( -1.223542297630008506E-16, 1.000000000000000000, -0.000000000000000000 ) ) ;
#136 = PRESENTATION_STYLE_ASSIGNMENT (( #19 ) ) ;
#137 = AXIS2_PLACEMENT_3D ( 'NONE', #287, #348, #189 ) ;
#138 =( LENGTH_UNIT ( ) NAMED_UNIT ( * ) SI_UNIT ( .MILLI., .METRE. ) );
#139 = CIRCLE ( 'NONE', #108, 6.000000000000000000 ) ;
#140 = CARTESIAN_POINT ( 'NONE',  ( 0.000000000000000000, 24.00000000000000000, 0.000000000000000000 ) ) ;
#141 = EDGE_CURVE ( 'NONE', #244, #167, #215, .T. ) ;
#142 =( NAMED_UNIT ( * ) PLANE_ANGLE_UNIT ( ) SI_UNIT ( $, .RADIAN. ) );
#143 = VECTOR ( 'NONE', #45, 1000.000000000000000 ) ;
#144 = MECHANICAL_DESIGN_GEOMETRIC_PRESENTATION_REPRESENTATION (  '', ( #311 ), #291 ) ;
#145 =( GEOMETRIC_REPRESENTATION_CONTEXT ( 3 ) GLOBAL_UNCERTAINTY_ASSIGNED_CONTEXT ( ( #275 ) ) GLOBAL_UNIT_ASSIGNED_CONTEXT ( ( #138, #223, #335 ) ) REPRESENTATION_CONTEXT ( 'NONE', 'WORKASPACE' ) );
#146 = CYLINDRICAL_SURFACE ( 'NONE', #300, 5.999999999999998224 ) ;
#147 = DIRECTION ( 'NONE',  ( -1.000000000000000000, -1.223542297630008506E-16, 0.000000000000000000 ) ) ;
#148 = ADVANCED_FACE ( 'NONE', ( #195 ), #198, .T. ) ;
#149 = DIRECTION ( 'NONE',  ( -1.223542297630008506E-16, 1.000000000000000000, -0.000000000000000000 ) ) ;
#150 = DIRECTION ( 'NONE',  ( 0.000000000000000000, 0.000000000000000000, -1.000000000000000000 ) ) ;
#151 = ORIENTED_EDGE ( 'NONE', *, *, #197, .T. ) ;
#152 = AXIS2_PLACEMENT_3D ( 'NONE', #12, #238, #258 ) ;
#153 = CARTESIAN_POINT ( 'NONE',  ( 0.000000000000000000, 0.5000000000000000000, 0.000000000000000000 ) ) ;
#154 = CARTESIAN_POINT ( 'NONE',  ( 7.041719095097280880E-16, 0.000000000000000000, 5.500000000000000000 ) ) ;
#155 = CYLINDRICAL_SURFACE ( 'NONE', #349, 5.999999999999998224 ) ;
#156 = DIRECTION ( 'NONE',  ( -0.000000000000000000, -1.000000000000000000, -0.000000000000000000 ) ) ;
#157 =( LENGTH_UNIT ( ) NAMED_UNIT ( * ) SI_UNIT ( .MILLI., .METRE. ) );
#158 = ORIENTED_EDGE ( 'NONE', *, *, #141, .T. ) ;
#159 = PLANE ( 'NONE',  #336 ) ;
#160 = SURFACE_STYLE_FILL_AREA ( #72 ) ;
#161 = ORIENTED_EDGE ( 'NONE', *, *, #313, .T. ) ;
#162 =( NAMED_UNIT ( * ) PLANE_ANGLE_UNIT ( ) SI_UNIT ( $, .RADIAN. ) );
#163 = EDGE_LOOP ( 'NONE', ( #48, #182, #161, #368 ) ) ;
#164 = EDGE_CURVE ( 'NONE', #167, #274, #325, .T. ) ;
#165 = CARTESIAN_POINT ( 'NONE',  ( 6.735557395310442023E-16, 0.5000000000000000000, 5.500000000000000000 ) ) ;
#166 = FILL_AREA_STYLE_COLOUR ( '', #326 ) ;
#167 = VERTEX_POINT ( 'NONE', #121 ) ;
#168 = FILL_AREA_STYLE_COLOUR ( '', #262 ) ;
#169 = PRESENTATION_STYLE_ASSIGNMENT (( #118 ) ) ;
#170 = SURFACE_STYLE_USAGE ( .BOTH. , #222 ) ;
#171 = TOROIDAL_SURFACE ( 'NONE', #33, 5.500000000000000000, 0.5000000000000002220 ) ;
#172 = PRODUCT_DEFINITION_FORMATION_WITH_SPECIFIED_SOURCE ( 'ANY', '', #308, .NOT_KNOWN. ) ;
#173 = UNCERTAINTY_MEASURE_WITH_UNIT (LENGTH_MEASURE( 1.000000000000000082E-05 ), #196, 'distance_accuracy_value', 'NONE');
#174 = AXIS2_PLACEMENT_3D ( 'NONE', #209, #329, #359 ) ;
#175 =( GEOMETRIC_REPRESENTATION_CONTEXT ( 3 ) GLOBAL_UNCERTAINTY_ASSIGNED_CONTEXT ( ( #309 ) ) GLOBAL_UNIT_ASSIGNED_CONTEXT ( ( #28, #142, #81 ) ) REPRESENTATION_CONTEXT ( 'NONE', 'WORKASPACE' ) );
#176 = ADVANCED_BREP_SHAPE_REPRESENTATION ( '59747', ( #352, #91, #302 ), #255 ) ;
#177 = ORIENTED_EDGE ( 'NONE', *, *, #370, .T. ) ;
#178 = COLOUR_RGB ( '',1.000000000000000000, 0.000000000000000000, 0.000000000000000000 ) ;
#179 = EDGE_CURVE ( 'NONE', #314, #71, #283, .T. ) ;
#180 = DIRECTION ( 'NONE',  ( -1.000000000000000000, 0.000000000000000000, 0.000000000000000000 ) ) ;
#181 = DIRECTION ( 'NONE',  ( -0.000000000000000000, -1.000000000000000000, -0.000000000000000000 ) ) ;
#182 = ORIENTED_EDGE ( 'NONE', *, *, #347, .T. ) ;
#183 = LINE ( 'NONE', #120, #361 ) ;
#184 = SURFACE_STYLE_FILL_AREA ( #16 ) ;
#185 =( NAMED_UNIT ( * ) SI_UNIT ( $, .STERADIAN. ) SOLID_ANGLE_UNIT ( ) );
#186 = DIRECTION ( 'NONE',  ( 1.223542297630008506E-16, -1.000000000000000000, 0.000000000000000000 ) ) ;
#187 = FACE_OUTER_BOUND ( 'NONE', #293, .T. ) ;
#188 = EDGE_LOOP ( 'NONE', ( #119, #158, #365, #242 ) ) ;
#189 = DIRECTION ( 'NONE',  ( -1.000000000000000000, 0.000000000000000000, 0.000000000000000000 ) ) ;
#190 = FILL_AREA_STYLE ('',( #103 ) ) ;
#191 = CARTESIAN_POINT ( 'NONE',  ( 0.000000000000000000, 0.000000000000000000, 0.000000000000000000 ) ) ;
#192 = MECHANICAL_DESIGN_GEOMETRIC_PRESENTATION_REPRESENTATION (  '', ( #206 ), #219 ) ;
#193 = VERTEX_POINT ( 'NONE', #154 ) ;
#194 = EDGE_LOOP ( 'NONE', ( #271, #125, #35, #73 ) ) ;
#195 = FACE_OUTER_BOUND ( 'NONE', #163, .T. ) ;
#196 =( LENGTH_UNIT ( ) NAMED_UNIT ( * ) SI_UNIT ( .MILLI., .METRE. ) );
#197 = EDGE_CURVE ( 'NONE', #71, #128, #124, .T. ) ;
#198 = CYLINDRICAL_SURFACE ( 'NONE', #59, 6.000000000000000000 ) ;
#199 = MECHANICAL_DESIGN_GEOMETRIC_PRESENTATION_REPRESENTATION (  '', ( #269 ), #58 ) ;
#200 = DIRECTION ( 'NONE',  ( 0.000000000000000000, 0.000000000000000000, -1.000000000000000000 ) ) ;
#201 = AXIS2_PLACEMENT_3D ( 'NONE', #355, #67, #150 ) ;
#202 = FILL_AREA_STYLE ('',( #117 ) ) ;
#203 = ADVANCED_FACE ( 'NONE', ( #14 ), #171, .T. ) ;
#204 = PRESENTATION_LAYER_ASSIGNMENT (  '', '', ( #74 ) ) ;
#205 = CIRCLE ( 'NONE', #4, 6.000000000000000000 ) ;
#206 = STYLED_ITEM ( 'NONE', ( #296 ), #89 ) ;
#207 = AXIS2_PLACEMENT_3D ( 'NONE', #246, #110, #221 ) ;
#208 = ORIENTED_EDGE ( 'NONE', *, *, #179, .T. ) ;
#209 = CARTESIAN_POINT ( 'NONE',  ( 4.770489558936219510E-15, 24.00000000000000000, 0.000000000000000000 ) ) ;
#210 = EDGE_CURVE ( 'NONE', #339, #193, #233, .T. ) ;
#211 =( NAMED_UNIT ( * ) PLANE_ANGLE_UNIT ( ) SI_UNIT ( $, .RADIAN. ) );
#212 = DIRECTION ( 'NONE',  ( -1.000000000000000000, 0.000000000000000000, 0.000000000000000000 ) ) ;
#213 = APPLICATION_PROTOCOL_DEFINITION ( 'draft international standard', 'automotive_design', 1998, #80 ) ;
#214 = EDGE_LOOP ( 'NONE', ( #101, #133, #84, #37 ) ) ;
#215 = LINE ( 'NONE', #77, #1 ) ;
#216 = ADVANCED_FACE ( 'NONE', ( #187 ), #159, .T. ) ;
#217 = ORIENTED_EDGE ( 'NONE', *, *, #164, .T. ) ;
#218 = PRESENTATION_STYLE_ASSIGNMENT (( #304 ) ) ;
#219 =( GEOMETRIC_REPRESENTATION_CONTEXT ( 3 ) GLOBAL_UNCERTAINTY_ASSIGNED_CONTEXT ( ( #295 ) ) GLOBAL_UNIT_ASSIGNED_CONTEXT ( ( #23, #162, #367 ) ) REPRESENTATION_CONTEXT ( 'NONE', 'WORKASPACE' ) );
#220 = SURFACE_STYLE_FILL_AREA ( #307 ) ;
#221 = DIRECTION ( 'NONE',  ( 0.000000000000000000, 0.000000000000000000, -1.000000000000000000 ) ) ;
#222 = SURFACE_SIDE_STYLE ('',( #220 ) ) ;
#223 =( NAMED_UNIT ( * ) PLANE_ANGLE_UNIT ( ) SI_UNIT ( $, .RADIAN. ) );
#224 = PRESENTATION_LAYER_ASSIGNMENT (  '', '', ( #79 ) ) ;
#225 = AXIS2_PLACEMENT_3D ( 'NONE', #257, #320, #294 ) ;
#226 = MECHANICAL_DESIGN_GEOMETRIC_PRESENTATION_REPRESENTATION (  '', ( #253 ), #290 ) ;
#227 = ADVANCED_FACE ( 'NONE', ( #273 ), #111, .T. ) ;
#228 = VERTEX_POINT ( 'NONE', #126 ) ;
#229 =( NAMED_UNIT ( * ) PLANE_ANGLE_UNIT ( ) SI_UNIT ( $, .RADIAN. ) );
#230 = EDGE_LOOP ( 'NONE', ( #357, #261 ) ) ;
#231 = DIRECTION ( 'NONE',  ( -1.223542297630008506E-16, 1.000000000000000000, 0.000000000000000000 ) ) ;
#232 = CARTESIAN_POINT ( 'NONE',  ( 0.000000000000000000, 24.00000000000000000, 0.000000000000000000 ) ) ;
#233 = CIRCLE ( 'NONE', #18, 5.500000000000000000 ) ;
#234 = FACE_OUTER_BOUND ( 'NONE', #280, .T. ) ;
#235 = SURFACE_STYLE_USAGE ( .BOTH. , #41 ) ;
#236 = ORIENTED_EDGE ( 'NONE', *, *, #210, .T. ) ;
#237 = CARTESIAN_POINT ( 'NONE',  ( -6.000000000000003553, 75.00000000000000000, 0.000000000000000000 ) ) ;
#238 = DIRECTION ( 'NONE',  ( -1.223542297630008506E-16, 1.000000000000000000, -0.000000000000000000 ) ) ;
#239 = ORIENTED_EDGE ( 'NONE', *, *, #96, .T. ) ;
#240 = COLOUR_RGB ( '',1.000000000000000000, 0.000000000000000000, 0.000000000000000000 ) ;
#241 = SURFACE_STYLE_USAGE ( .BOTH. , #130 ) ;
#242 = ORIENTED_EDGE ( 'NONE', *, *, #21, .F. ) ;
#243 = SURFACE_STYLE_USAGE ( .BOTH. , #17 ) ;
#244 = VERTEX_POINT ( 'NONE', #99 ) ;
#245 = SURFACE_STYLE_FILL_AREA ( #190 ) ;
#246 = CARTESIAN_POINT ( 'NONE',  ( 0.000000000000000000, 0.000000000000000000, 0.000000000000000000 ) ) ;
#247 = CIRCLE ( 'NONE', #301, 0.5000000000000004441 ) ;
#248 = MECHANICAL_DESIGN_GEOMETRIC_PRESENTATION_REPRESENTATION (  '', ( #337 ), #83 ) ;
#249 = DIRECTION ( 'NONE',  ( 1.000000000000000000, 0.000000000000000000, -1.224646799147353207E-16 ) ) ;
#250 = SURFACE_SIDE_STYLE ('',( #134 ) ) ;
#251 = CARTESIAN_POINT ( 'NONE',  ( 0.000000000000000000, 0.000000000000000000, 0.000000000000000000 ) ) ;
#252 = CIRCLE ( 'NONE', #174, 5.999999999999996447 ) ;
#253 = STYLED_ITEM ( 'NONE', ( #7 ), #148 ) ;
#254 = PRODUCT_RELATED_PRODUCT_CATEGORY ( 'part', '', ( #308 ) ) ;
#255 =( GEOMETRIC_REPRESENTATION_CONTEXT ( 3 ) GLOBAL_UNCERTAINTY_ASSIGNED_CONTEXT ( ( #366 ) ) GLOBAL_UNIT_ASSIGNED_CONTEXT ( ( #55, #284, #185 ) ) REPRESENTATION_CONTEXT ( 'NONE', 'WORKASPACE' ) );
#256 = ADVANCED_FACE ( 'NONE', ( #129 ), #66, .F. ) ;
#257 = CARTESIAN_POINT ( 'NONE',  ( 0.000000000000000000, 0.5000000000000000000, 0.000000000000000000 ) ) ;
#258 = DIRECTION ( 'NONE',  ( -1.000000000000000000, 0.000000000000000000, 0.000000000000000000 ) ) ;
#259 = CARTESIAN_POINT ( 'NONE',  ( 0.000000000000000000, 0.5000000000000000000, -5.500000000000000000 ) ) ;
#260 = CARTESIAN_POINT ( 'NONE',  ( 4.770489558936219510E-15, 24.00000000000000000, 0.000000000000000000 ) ) ;
#261 = ORIENTED_EDGE ( 'NONE', *, *, #347, .F. ) ;
#262 = COLOUR_RGB ( '',0.7921568627450980005, 0.8196078431372548767, 0.9333333333333333481 ) ;
#263 = AXIS2_PLACEMENT_3D ( 'NONE', #260, #231, #147 ) ;
#264 = PLANE ( 'NONE',  #34 ) ;
#265 = CARTESIAN_POINT ( 'NONE',  ( -1.469576158976823750E-15, 75.00000000000000000, 0.000000000000000000 ) ) ;
#266 = DIRECTION ( 'NONE',  ( 0.000000000000000000, 0.000000000000000000, -1.000000000000000000 ) ) ;
#267 = FILL_AREA_STYLE_COLOUR ( '', #240 ) ;
#268 = SURFACE_STYLE_FILL_AREA ( #56 ) ;
#269 = STYLED_ITEM ( 'NONE', ( #87 ), #203 ) ;
#270 = AXIS2_PLACEMENT_3D ( 'NONE', #292, #186, #362 ) ;
#271 = ORIENTED_EDGE ( 'NONE', *, *, #141, .F. ) ;
#272 = CARTESIAN_POINT ( 'NONE',  ( 7.347880794884119736E-16, 0.5000000000000000000, 6.000000000000000000 ) ) ;
#273 = FACE_OUTER_BOUND ( 'NONE', #15, .T. ) ;
#274 = VERTEX_POINT ( 'NONE', #237 ) ;
#275 = UNCERTAINTY_MEASURE_WITH_UNIT (LENGTH_MEASURE( 1.000000000000000082E-05 ), #138, 'distance_accuracy_value', 'NONE');
#276 = DIRECTION ( 'NONE',  ( -1.224646799147353454E-16, 0.000000000000000000, -1.000000000000000000 ) ) ;
#277 = ADVANCED_FACE ( 'NONE', ( #234 ), #350, .F. ) ;
#278 = DIRECTION ( 'NONE',  ( 0.000000000000000000, 1.000000000000000000, 0.000000000000000000 ) ) ;
#279 = VECTOR ( 'NONE', #319, 1000.000000000000000 ) ;
#280 = EDGE_LOOP ( 'NONE', ( #305, #217 ) ) ;
#281 = EDGE_CURVE ( 'NONE', #75, #128, #88, .T. ) ;
#282 = ORIENTED_EDGE ( 'NONE', *, *, #13, .F. ) ;
#283 = CIRCLE ( 'NONE', #82, 6.000000000000000000 ) ;
#284 =( NAMED_UNIT ( * ) PLANE_ANGLE_UNIT ( ) SI_UNIT ( $, .RADIAN. ) );
#285 = CARTESIAN_POINT ( 'NONE',  ( 0.000000000000000000, 0.5000000000000000000, -6.000000000000000000 ) ) ;
#286 = DIRECTION ( 'NONE',  ( 0.000000000000000000, 0.000000000000000000, -1.000000000000000000 ) ) ;
#287 = CARTESIAN_POINT ( 'NONE',  ( 4.770489558936219510E-15, 24.00000000000000000, 0.000000000000000000 ) ) ;
#288 = DIRECTION ( 'NONE',  ( -0.000000000000000000, -1.000000000000000000, -0.000000000000000000 ) ) ;
#289 =( LENGTH_UNIT ( ) NAMED_UNIT ( * ) SI_UNIT ( .MILLI., .METRE. ) );
#290 =( GEOMETRIC_REPRESENTATION_CONTEXT ( 3 ) GLOBAL_UNCERTAINTY_ASSIGNED_CONTEXT ( ( #27 ) ) GLOBAL_UNIT_ASSIGNED_CONTEXT ( ( #289, #330, #47 ) ) REPRESENTATION_CONTEXT ( 'NONE', 'WORKASPACE' ) );
#291 =( GEOMETRIC_REPRESENTATION_CONTEXT ( 3 ) GLOBAL_UNCERTAINTY_ASSIGNED_CONTEXT ( ( #331 ) ) GLOBAL_UNIT_ASSIGNED_CONTEXT ( ( #303, #229, #90 ) ) REPRESENTATION_CONTEXT ( 'NONE', 'WORKASPACE' ) );
#292 = CARTESIAN_POINT ( 'NONE',  ( 6.000000000000000000, 75.00000000000000000, 0.000000000000000000 ) ) ;
#293 = EDGE_LOOP ( 'NONE', ( #236, #177 ) ) ;
#294 = DIRECTION ( 'NONE',  ( 0.000000000000000000, 0.000000000000000000, -1.000000000000000000 ) ) ;
#295 = UNCERTAINTY_MEASURE_WITH_UNIT (LENGTH_MEASURE( 1.000000000000000082E-05 ), #23, 'distance_accuracy_value', 'NONE');
#296 = PRESENTATION_STYLE_ASSIGNMENT (( #52 ) ) ;
#297 = FILL_AREA_STYLE_COLOUR ( '', #178 ) ;
#298 = ORIENTED_EDGE ( 'NONE', *, *, #281, .F. ) ;
#299 = DIRECTION ( 'NONE',  ( -0.000000000000000000, -1.000000000000000000, -0.000000000000000000 ) ) ;
#300 = AXIS2_PLACEMENT_3D ( 'NONE', #64, #85, #351 ) ;
#301 = AXIS2_PLACEMENT_3D ( 'NONE', #165, #249, #276 ) ;
#302 = AXIS2_PLACEMENT_3D ( 'NONE', #191, #332, #50 ) ;
#303 =( LENGTH_UNIT ( ) NAMED_UNIT ( * ) SI_UNIT ( .MILLI., .METRE. ) );
#304 = SURFACE_STYLE_USAGE ( .BOTH. , #340 ) ;
#305 = ORIENTED_EDGE ( 'NONE', *, *, #76, .T. ) ;
#306 =( NAMED_UNIT ( * ) SI_UNIT ( $, .STERADIAN. ) SOLID_ANGLE_UNIT ( ) );
#307 = FILL_AREA_STYLE ('',( #105 ) ) ;
#308 = PRODUCT ( '59747', '59747', '', ( #94 ) ) ;
#309 = UNCERTAINTY_MEASURE_WITH_UNIT (LENGTH_MEASURE( 1.000000000000000082E-05 ), #28, 'distance_accuracy_value', 'NONE');
#310 = FILL_AREA_STYLE_COLOUR ( '', #131 ) ;
#311 = STYLED_ITEM ( 'NONE', ( #113 ), #227 ) ;
#312 = PRESENTATION_LAYER_ASSIGNMENT (  '', '', ( #253 ) ) ;
#313 = EDGE_CURVE ( 'NONE', #314, #75, #183, .T. ) ;
#314 = VERTEX_POINT ( 'NONE', #40 ) ;
#315 = DIRECTION ( 'NONE',  ( 0.000000000000000000, 0.000000000000000000, -1.000000000000000000 ) ) ;
#316 = PRESENTATION_LAYER_ASSIGNMENT (  '', '', ( #269 ) ) ;
#317 = FACE_OUTER_BOUND ( 'NONE', #188, .T. ) ;
#318 = PRODUCT_DEFINITION ( 'UNKNOWN', '', #172, #107 ) ;
#319 = DIRECTION ( 'NONE',  ( -0.000000000000000000, -1.000000000000000000, -0.000000000000000000 ) ) ;
#320 = DIRECTION ( 'NONE',  ( -0.000000000000000000, -1.000000000000000000, -0.000000000000000000 ) ) ;
#321 = CARTESIAN_POINT ( 'NONE',  ( 0.000000000000000000, 0.000000000000000000, 0.000000000000000000 ) ) ;
#322 = CARTESIAN_POINT ( 'NONE',  ( -6.000000000000000000, 75.00000000000000000, 0.000000000000000000 ) ) ;
#323 =( NAMED_UNIT ( * ) SI_UNIT ( $, .STERADIAN. ) SOLID_ANGLE_UNIT ( ) );
#324 = FACE_OUTER_BOUND ( 'NONE', #346, .T. ) ;
#325 = CIRCLE ( 'NONE', #152, 6.000000000000001776 ) ;
#326 = COLOUR_RGB ( '',1.000000000000000000, 0.000000000000000000, 0.000000000000000000 ) ;
#327 = SHAPE_DEFINITION_REPRESENTATION ( #364, #176 ) ;
#328 = CARTESIAN_POINT ( 'NONE',  ( 0.000000000000000000, 0.000000000000000000, 0.000000000000000000 ) ) ;
#329 = DIRECTION ( 'NONE',  ( -1.223542297630008506E-16, 1.000000000000000000, -0.000000000000000000 ) ) ;
#330 =( NAMED_UNIT ( * ) PLANE_ANGLE_UNIT ( ) SI_UNIT ( $, .RADIAN. ) );
#331 = UNCERTAINTY_MEASURE_WITH_UNIT (LENGTH_MEASURE( 1.000000000000000082E-05 ), #303, 'distance_accuracy_value', 'NONE');
#332 = DIRECTION ( 'NONE',  ( 0.000000000000000000, 0.000000000000000000, 1.000000000000000000 ) ) ;
#333 = DIRECTION ( 'NONE',  ( 0.000000000000000000, -0.000000000000000000, 1.000000000000000000 ) ) ;
#334 = ORIENTED_EDGE ( 'NONE', *, *, #44, .F. ) ;
#335 =( NAMED_UNIT ( * ) SI_UNIT ( $, .STERADIAN. ) SOLID_ANGLE_UNIT ( ) );
#336 = AXIS2_PLACEMENT_3D ( 'NONE', #251, #104, #114 ) ;
#337 = STYLED_ITEM ( 'NONE', ( #136 ), #342 ) ;
#338 = EDGE_CURVE ( 'NONE', #128, #75, #205, .T. ) ;
#339 = VERTEX_POINT ( 'NONE', #61 ) ;
#340 = SURFACE_SIDE_STYLE ('',( #160 ) ) ;
#341 = FILL_AREA_STYLE ('',( #166 ) ) ;
#342 = ADVANCED_FACE ( 'NONE', ( #11 ), #264, .T. ) ;
#343 = COLOUR_RGB ( '',0.7921568627450980005, 0.8196078431372548767, 0.9333333333333333481 ) ;
#344 = MECHANICAL_DESIGN_GEOMETRIC_PRESENTATION_REPRESENTATION (  '', ( #74 ), #145 ) ;
#345 = STYLED_ITEM ( 'NONE', ( #169 ), #352 ) ;
#346 = EDGE_LOOP ( 'NONE', ( #51, #239, #69, #334 ) ) ;
#347 = EDGE_CURVE ( 'NONE', #71, #314, #139, .T. ) ;
#348 = DIRECTION ( 'NONE',  ( -1.223542297630008506E-16, 1.000000000000000000, -0.000000000000000000 ) ) ;
#349 = AXIS2_PLACEMENT_3D ( 'NONE', #62, #149, #180 ) ;
#350 = PLANE ( 'NONE',  #270 ) ;
#351 = DIRECTION ( 'NONE',  ( -1.000000000000000000, 0.000000000000000000, 0.000000000000000000 ) ) ;
#352 = MANIFOLD_SOLID_BREP ( 'Revolve - Cutting Edge', #49 ) ;
#353 = CARTESIAN_POINT ( 'NONE',  ( 7.347880794884119736E-16, 0.000000000000000000, 6.000000000000000000 ) ) ;
#354 = DIRECTION ( 'NONE',  ( -1.223542297630008506E-16, 1.000000000000000000, -0.000000000000000000 ) ) ;
#355 = CARTESIAN_POINT ( 'NONE',  ( 0.000000000000000000, 0.000000000000000000, 0.000000000000000000 ) ) ;
#356 = DIRECTION ( 'NONE',  ( -0.000000000000000000, -1.000000000000000000, -0.000000000000000000 ) ) ;
#357 = ORIENTED_EDGE ( 'NONE', *, *, #179, .F. ) ;
#358 = UNCERTAINTY_MEASURE_WITH_UNIT (LENGTH_MEASURE( 1.000000000000000082E-05 ), #157, 'distance_accuracy_value', 'NONE');
#359 = DIRECTION ( 'NONE',  ( -1.000000000000000000, 0.000000000000000000, 0.000000000000000000 ) ) ;
#360 = COLOUR_RGB ( '',1.000000000000000000, 0.000000000000000000, 0.000000000000000000 ) ;
#361 = VECTOR ( 'NONE', #288, 1000.000000000000000 ) ;
#362 = DIRECTION ( 'NONE',  ( 1.000000000000000000, 1.223542297630008506E-16, 0.000000000000000000 ) ) ;
#363 = FILL_AREA_STYLE ('',( #297 ) ) ;
#364 = PRODUCT_DEFINITION_SHAPE ( 'NONE', 'NONE',  #318 ) ;
#365 = ORIENTED_EDGE ( 'NONE', *, *, #76, .F. ) ;
#366 = UNCERTAINTY_MEASURE_WITH_UNIT (LENGTH_MEASURE( 1.000000000000000082E-05 ), #55, 'distance_accuracy_value', 'NONE');
#367 =( NAMED_UNIT ( * ) SI_UNIT ( $, .STERADIAN. ) SOLID_ANGLE_UNIT ( ) );
#368 = ORIENTED_EDGE ( 'NONE', *, *, #338, .F. ) ;
#369 = AXIS2_PLACEMENT_3D ( 'NONE', #265, #354, #212 ) ;
#370 = EDGE_CURVE ( 'NONE', #193, #339, #97, .T. ) ;
ENDSEC;
END-ISO-10303-21;
