ISO-10303-21;
HEADER;
FILE_DESCRIPTION (( 'STEP AP214' ),
    '1' );
FILE_NAME ('Micro_SFBM-008-5X.STEP',
    '2021-09-03T16:36:49',
    ( '' ),
    ( '' ),
    'SwSTEP 2.0',
    'SolidWorks 2020',
    '' );
FILE_SCHEMA (( 'AUTOMOTIVE_DESIGN' ));
ENDSEC;

DATA;
#1 = ORIENTED_EDGE ( 'NONE', *, *, #207, .T. ) ;
#2 = DIRECTION ( 'NONE',  ( -0.0000000000000000000, -0.0000000000000000000, -1.000000000000000000 ) ) ;
#3 = VERTEX_POINT ( 'NONE', #173 ) ;
#4 = CARTESIAN_POINT ( 'NONE',  ( 0.0000000000000000000, 0.0000000000000000000, 0.0000000000000000000 ) ) ;
#5 = DIRECTION ( 'NONE',  ( 0.0000000000000000000, 0.0000000000000000000, -1.000000000000000000 ) ) ;
#6 = PRESENTATION_STYLE_ASSIGNMENT (( #299 ) ) ;
#7 =( NAMED_UNIT ( * ) PLANE_ANGLE_UNIT ( ) SI_UNIT ( $, .RADIAN. ) );
#8 = AXIS2_PLACEMENT_3D ( 'NONE', #103, #253, #12 ) ;
#9 = EDGE_CURVE ( 'NONE', #3, #32, #114, .T. ) ;
#10 = LINE ( 'NONE', #379, #333 ) ;
#11 = ORIENTED_EDGE ( 'NONE', *, *, #223, .F. ) ;
#12 = DIRECTION ( 'NONE',  ( -1.000000000000000000, 0.0000000000000000000, 0.0000000000000000000 ) ) ;
#13 = AXIS2_PLACEMENT_3D ( 'NONE', #225, #188, #102 ) ;
#14 = CARTESIAN_POINT ( 'NONE',  ( 0.0000000000000000000, 0.0000000000000000000, 0.03706761017589425139 ) ) ;
#15 = DIRECTION ( 'NONE',  ( -0.0000000000000000000, -0.0000000000000000000, -1.000000000000000000 ) ) ;
#16 = AXIS2_PLACEMENT_3D ( 'NONE', #298, #220, #362 ) ;
#17 = AXIS2_PLACEMENT_3D ( 'NONE', #272, #2, #196 ) ;
#18 = LINE ( 'NONE', #340, #191 ) ;
#19 = ORIENTED_EDGE ( 'NONE', *, *, #368, .F. ) ;
#20 = MANIFOLD_SOLID_BREP ( 'Cut-Revolve1', #324 ) ;
#21 = ORIENTED_EDGE ( 'NONE', *, *, #281, .F. ) ;
#22 = ORIENTED_EDGE ( 'NONE', *, *, #44, .F. ) ;
#23 = ORIENTED_EDGE ( 'NONE', *, *, #135, .F. ) ;
#24 = CARTESIAN_POINT ( 'NONE',  ( 0.0000000000000000000, 0.0000000000000000000, 2.244094000000000033 ) ) ;
#25 = ADVANCED_FACE ( 'NONE', ( #218, #374 ), #276, .T. ) ;
#26 = EDGE_LOOP ( 'NONE', ( #19, #271, #1, #21 ) ) ;
#27 = AXIS2_PLACEMENT_3D ( 'NONE', #172, #317, #342 ) ;
#28 = DIRECTION ( 'NONE',  ( 0.0000000000000000000, 0.0000000000000000000, 1.000000000000000000 ) ) ;
#29 = CARTESIAN_POINT ( 'NONE',  ( 0.01574642519999999712, 1.928380921919321933E-18, 0.03149600000000000316 ) ) ;
#30 = DIRECTION ( 'NONE',  ( 1.000000000000000000, 0.0000000000000000000, 0.0000000000000000000 ) ) ;
#31 = LINE ( 'NONE', #165, #376 ) ;
#32 = VERTEX_POINT ( 'NONE', #97 ) ;
#33 = PRESENTATION_STYLE_ASSIGNMENT (( #90 ) ) ;
#34 = EDGE_LOOP ( 'NONE', ( #233, #65, #259, #88 ) ) ;
#35 = VERTEX_POINT ( 'NONE', #156 ) ;
#36 = APPLICATION_PROTOCOL_DEFINITION ( 'draft international standard', 'automotive_design', 1998, #278 ) ;
#37 = AXIS2_PLACEMENT_3D ( 'NONE', #206, #50, #231 ) ;
#38 = DIRECTION ( 'NONE',  ( -0.0000000000000000000, -0.0000000000000000000, -1.000000000000000000 ) ) ;
#39 = VERTEX_POINT ( 'NONE', #326 ) ;
#40 = DIRECTION ( 'NONE',  ( -0.0000000000000000000, 0.0000000000000000000, -1.000000000000000000 ) ) ;
#41 = DIRECTION ( 'NONE',  ( 1.000000000000000000, 0.0000000000000000000, 0.0000000000000000000 ) ) ;
#42 = CARTESIAN_POINT ( 'NONE',  ( -0.1181100000000000066, 0.0000000000000000000, 2.244094000000000033 ) ) ;
#43 = AXIS2_PLACEMENT_3D ( 'NONE', #345, #109, #197 ) ;
#44 = EDGE_CURVE ( 'NONE', #331, #32, #141, .T. ) ;
#45 = LINE ( 'NONE', #228, #60 ) ;
#46 = DIRECTION ( 'NONE',  ( -1.000000000000000000, 0.0000000000000000000, 0.0000000000000000000 ) ) ;
#47 = DIRECTION ( 'NONE',  ( -1.000000000000000000, 0.0000000000000000000, 0.0000000000000000000 ) ) ;
#48 = CARTESIAN_POINT ( 'NONE',  ( 0.01574642519999999712, 1.928380921919321933E-18, 0.0000000000000000000 ) ) ;
#49 = VERTEX_POINT ( 'NONE', #64 ) ;
#50 = DIRECTION ( 'NONE',  ( -0.0000000000000000000, -0.0000000000000000000, -1.000000000000000000 ) ) ;
#51 = ORIENTED_EDGE ( 'NONE', *, *, #343, .T. ) ;
#52 = AXIS2_PLACEMENT_3D ( 'NONE', #360, #66, #269 ) ;
#53 = CONICAL_SURFACE ( 'NONE', #8, 0.1031100000000002570, 0.7853981633974318477 ) ;
#54 = LINE ( 'NONE', #83, #68 ) ;
#55 = FACE_OUTER_BOUND ( 'NONE', #329, .T. ) ;
#56 = FILL_AREA_STYLE ('',( #208 ) ) ;
#57 = EDGE_CURVE ( 'NONE', #32, #331, #347, .T. ) ;
#58 =( CONVERSION_BASED_UNIT ( 'INCH', #330 ) LENGTH_UNIT ( ) NAMED_UNIT ( #214 ) );
#59 = COLOUR_RGB ( '',0.7921568627450980005, 0.8196078431372548767, 0.9333333333333333481 ) ;
#60 = VECTOR ( 'NONE', #106, 39.37007874015748854 ) ;
#61 = DIRECTION ( 'NONE',  ( -1.000000000000000000, 0.0000000000000000000, 0.0000000000000000000 ) ) ;
#62 = ORIENTED_EDGE ( 'NONE', *, *, #353, .T. ) ;
#63 =( NAMED_UNIT ( * ) PLANE_ANGLE_UNIT ( ) SI_UNIT ( $, .RADIAN. ) );
#64 = CARTESIAN_POINT ( 'NONE',  ( 0.01574642519999999712, 1.928380921919321933E-18, 0.03149600000000000316 ) ) ;
#65 = ORIENTED_EDGE ( 'NONE', *, *, #368, .T. ) ;
#66 = DIRECTION ( 'NONE',  ( 0.0000000000000000000, 0.0000000000000000000, 1.000000000000000000 ) ) ;
#67 = UNCERTAINTY_MEASURE_WITH_UNIT (LENGTH_MEASURE( 1.000000000000000082E-05 ), #121, 'distance_accuracy_value', 'NONE');
#68 = VECTOR ( 'NONE', #166, 39.37007874015748143 ) ;
#69 = DIRECTION ( 'NONE',  ( -1.000000000000000000, 0.0000000000000000000, 0.0000000000000000000 ) ) ;
#70 = DIRECTION ( 'NONE',  ( 0.0000000000000000000, 0.0000000000000000000, 1.000000000000000000 ) ) ;
#71 = LINE ( 'NONE', #335, #254 ) ;
#72 = CARTESIAN_POINT ( 'NONE',  ( 0.0000000000000000000, 0.0000000000000000000, 2.244094000000000033 ) ) ;
#73 = AXIS2_PLACEMENT_3D ( 'NONE', #367, #70, #41 ) ;
#74 = FACE_OUTER_BOUND ( 'NONE', #85, .T. ) ;
#75 = CARTESIAN_POINT ( 'NONE',  ( 0.0000000000000000000, 0.0000000000000000000, 0.0000000000000000000 ) ) ;
#76 = PRODUCT_RELATED_PRODUCT_CATEGORY ( 'part', '', ( #230 ) ) ;
#77 = MECHANICAL_DESIGN_GEOMETRIC_PRESENTATION_REPRESENTATION (  '', ( #142 ), #363 ) ;
#78 = LENGTH_MEASURE_WITH_UNIT ( LENGTH_MEASURE( 0.02539999999999999897 ), #321 );
#79 = ORIENTED_EDGE ( 'NONE', *, *, #353, .F. ) ;
#80 =( CONVERSION_BASED_UNIT ( 'INCH', #78 ) LENGTH_UNIT ( ) NAMED_UNIT ( #270 ) );
#81 = CARTESIAN_POINT ( 'NONE',  ( 0.1181100000000000066, 1.446430334472939084E-17, 2.244094000000000033 ) ) ;
#82 = ADVANCED_FACE ( 'NONE', ( #244 ), #361, .T. ) ;
#83 = CARTESIAN_POINT ( 'NONE',  ( 0.01476400000000001669, 1.808068534261154333E-18, 0.0000000000000000000 ) ) ;
#84 = ORIENTED_EDGE ( 'NONE', *, *, #378, .F. ) ;
#85 = EDGE_LOOP ( 'NONE', ( #354, #95 ) ) ;
#86 = AXIS2_PLACEMENT_3D ( 'NONE', #98, #277, #250 ) ;
#87 = CONICAL_SURFACE ( 'NONE', #307, 0.1031100000000002570, 0.7853981633974318477 ) ;
#88 = ORIENTED_EDGE ( 'NONE', *, *, #207, .F. ) ;
#89 =( NAMED_UNIT ( * ) SI_UNIT ( $, .STERADIAN. ) SOLID_ANGLE_UNIT ( ) );
#90 = SURFACE_STYLE_USAGE ( .BOTH. , #351 ) ;
#91 = VERTEX_POINT ( 'NONE', #122 ) ;
#92 = CARTESIAN_POINT ( 'NONE',  ( 0.0000000000000000000, 0.0000000000000000000, 0.0000000000000000000 ) ) ;
#93 = ADVANCED_FACE ( 'NONE', ( #295 ), #247, .F. ) ;
#94 = EDGE_CURVE ( 'NONE', #148, #241, #315, .T. ) ;
#95 = ORIENTED_EDGE ( 'NONE', *, *, #226, .T. ) ;
#96 = CIRCLE ( 'NONE', #356, 0.1181100000000000066 ) ;
#97 = CARTESIAN_POINT ( 'NONE',  ( -0.01574642519999999712, 0.0000000000000000000, 0.0000000000000000000 ) ) ;
#98 = CARTESIAN_POINT ( 'NONE',  ( 0.0000000000000000000, 0.0000000000000000000, 0.03706761017589425139 ) ) ;
#99 = ORIENTED_EDGE ( 'NONE', *, *, #378, .T. ) ;
#100 = CIRCLE ( 'NONE', #73, 0.1031100000000002570 ) ;
#101 = DIRECTION ( 'NONE',  ( 0.0000000000000000000, 0.0000000000000000000, 1.000000000000000000 ) ) ;
#102 = DIRECTION ( 'NONE',  ( -1.000000000000000000, 0.0000000000000000000, 0.0000000000000000000 ) ) ;
#103 = CARTESIAN_POINT ( 'NONE',  ( 0.0000000000000000000, 0.0000000000000000000, 2.244094000000000033 ) ) ;
#104 = CARTESIAN_POINT ( 'NONE',  ( 0.0000000000000000000, 0.0000000000000000000, 2.244094000000000033 ) ) ;
#105 = CIRCLE ( 'NONE', #323, 0.01476400000000000629 ) ;
#106 = DIRECTION ( 'NONE',  ( -0.7071067811865358044, 0.0000000000000000000, -0.7071067811865590080 ) ) ;
#107 = EDGE_CURVE ( 'NONE', #193, #49, #157, .T. ) ;
#108 = EDGE_CURVE ( 'NONE', #91, #3, #10, .T. ) ;
#109 = DIRECTION ( 'NONE',  ( -0.0000000000000000000, -0.0000000000000000000, -1.000000000000000000 ) ) ;
#110 =( GEOMETRIC_REPRESENTATION_CONTEXT ( 3 ) GLOBAL_UNCERTAINTY_ASSIGNED_CONTEXT ( ( #310 ) ) GLOBAL_UNIT_ASSIGNED_CONTEXT ( ( #58, #7, #303 ) ) REPRESENTATION_CONTEXT ( 'NONE', 'WORKASPACE' ) );
#111 = AXIS2_PLACEMENT_3D ( 'NONE', #280, #15, #364 ) ;
#112 = DIRECTION ( 'NONE',  ( -1.000000000000000000, 0.0000000000000000000, 0.0000000000000000000 ) ) ;
#113 = DIRECTION ( 'NONE',  ( 0.0000000000000000000, 0.0000000000000000000, -1.000000000000000000 ) ) ;
#114 = LINE ( 'NONE', #262, #158 ) ;
#115 = AXIS2_PLACEMENT_3D ( 'NONE', #352, #101, #212 ) ;
#116 = FILL_AREA_STYLE ('',( #177 ) ) ;
#117 = VERTEX_POINT ( 'NONE', #125 ) ;
#118 = ORIENTED_EDGE ( 'NONE', *, *, #339, .T. ) ;
#119 = CARTESIAN_POINT ( 'NONE',  ( 0.01476400000000002537, 0.0000000000000000000, 0.2047239999999999893 ) ) ;
#120 = CONICAL_SURFACE ( 'NONE', #111, 0.01574642519999999712, 0.1745329251994330588 ) ;
#121 =( CONVERSION_BASED_UNIT ( 'INCH', #180 ) LENGTH_UNIT ( ) NAMED_UNIT ( #239 ) );
#122 = CARTESIAN_POINT ( 'NONE',  ( -0.01476400000000000629, 0.0000000000000000000, 0.03706761017589425139 ) ) ;
#123 = EDGE_CURVE ( 'NONE', #193, #91, #274, .T. ) ;
#124 = ORIENTED_EDGE ( 'NONE', *, *, #123, .T. ) ;
#125 = CARTESIAN_POINT ( 'NONE',  ( -0.1181100000000000066, 0.0000000000000000000, 0.2047239999999998505 ) ) ;
#126 = EDGE_LOOP ( 'NONE', ( #265, #211, #175, #373 ) ) ;
#127 = CARTESIAN_POINT ( 'NONE',  ( 0.0000000000000000000, 0.0000000000000000000, 2.229093999999999465 ) ) ;
#128 = LINE ( 'NONE', #42, #238 ) ;
#129 = ADVANCED_BREP_SHAPE_REPRESENTATION ( 'Micro_SFBM-008-5X', ( #20, #296 ), #154 ) ;
#130 = DIRECTION ( 'NONE',  ( -0.0000000000000000000, -0.0000000000000000000, -1.000000000000000000 ) ) ;
#131 = EDGE_CURVE ( 'NONE', #49, #3, #184, .T. ) ;
#132 = CYLINDRICAL_SURFACE ( 'NONE', #213, 0.1181100000000000066 ) ;
#133 = EDGE_CURVE ( 'NONE', #35, #288, #283, .T. ) ;
#134 = FACE_OUTER_BOUND ( 'NONE', #294, .T. ) ;
#135 = EDGE_CURVE ( 'NONE', #288, #241, #31, .T. ) ;
#136 = DIRECTION ( 'NONE',  ( 0.0000000000000000000, 0.0000000000000000000, -1.000000000000000000 ) ) ;
#137 = CARTESIAN_POINT ( 'NONE',  ( 0.0000000000000000000, 0.0000000000000000000, 0.2047239999999999893 ) ) ;
#138 = ORIENTED_EDGE ( 'NONE', *, *, #226, .F. ) ;
#139 = CARTESIAN_POINT ( 'NONE',  ( 0.0000000000000000000, 0.0000000000000000000, 0.0000000000000000000 ) ) ;
#140 = EDGE_LOOP ( 'NONE', ( #23, #176, #236, #372 ) ) ;
#141 = CIRCLE ( 'NONE', #190, 0.01574642519999999712 ) ;
#142 = STYLED_ITEM ( 'NONE', ( #6 ), #129 ) ;
#143 = EDGE_LOOP ( 'NONE', ( #84, #79 ) ) ;
#144 = FACE_OUTER_BOUND ( 'NONE', #349, .T. ) ;
#145 = ORIENTED_EDGE ( 'NONE', *, *, #339, .F. ) ;
#146 = ORIENTED_EDGE ( 'NONE', *, *, #281, .T. ) ;
#147 = VECTOR ( 'NONE', #300, 39.37007874015748143 ) ;
#148 = VERTEX_POINT ( 'NONE', #366 ) ;
#149 = EDGE_CURVE ( 'NONE', #39, #91, #18, .T. ) ;
#150 = DIRECTION ( 'NONE',  ( -0.0000000000000000000, -0.0000000000000000000, -1.000000000000000000 ) ) ;
#151 = ORIENTED_EDGE ( 'NONE', *, *, #149, .T. ) ;
#152 = DIRECTION ( 'NONE',  ( -1.000000000000000000, 0.0000000000000000000, 0.0000000000000000000 ) ) ;
#153 = AXIS2_PLACEMENT_3D ( 'NONE', #127, #5, #179 ) ;
#154 =( GEOMETRIC_REPRESENTATION_CONTEXT ( 3 ) GLOBAL_UNCERTAINTY_ASSIGNED_CONTEXT ( ( #219 ) ) GLOBAL_UNIT_ASSIGNED_CONTEXT ( ( #80, #182, #210 ) ) REPRESENTATION_CONTEXT ( 'NONE', 'WORKASPACE' ) );
#155 = CIRCLE ( 'NONE', #322, 0.01476400000000002537 ) ;
#156 = CARTESIAN_POINT ( 'NONE',  ( -0.1031100000000002570, 0.0000000000000000000, 2.244094000000000033 ) ) ;
#157 = LINE ( 'NONE', #29, #147 ) ;
#158 = VECTOR ( 'NONE', #237, 39.37007874015748143 ) ;
#159 = DIRECTION ( 'NONE',  ( -0.0000000000000000000, -0.0000000000000000000, -1.000000000000000000 ) ) ;
#160 = VECTOR ( 'NONE', #201, 39.37007874015748143 ) ;
#161 = CARTESIAN_POINT ( 'NONE',  ( 0.0000000000000000000, 0.0000000000000000000, 0.2047239999999998505 ) ) ;
#162 = DIRECTION ( 'NONE',  ( -0.0000000000000000000, -0.0000000000000000000, -1.000000000000000000 ) ) ;
#163 = VERTEX_POINT ( 'NONE', #334 ) ;
#164 = DIRECTION ( 'NONE',  ( -1.000000000000000000, 0.0000000000000000000, 0.0000000000000000000 ) ) ;
#165 = CARTESIAN_POINT ( 'NONE',  ( 0.1031100000000002570, 1.262733314600838667E-17, 2.244094000000000033 ) ) ;
#166 = DIRECTION ( 'NONE',  ( -0.0000000000000000000, -0.0000000000000000000, -1.000000000000000000 ) ) ;
#167 = ORIENTED_EDGE ( 'NONE', *, *, #9, .F. ) ;
#168 = EDGE_CURVE ( 'NONE', #3, #49, #227, .T. ) ;
#169 = ORIENTED_EDGE ( 'NONE', *, *, #131, .F. ) ;
#170 = ORIENTED_EDGE ( 'NONE', *, *, #57, .T. ) ;
#171 = CARTESIAN_POINT ( 'NONE',  ( 0.0000000000000000000, 0.0000000000000000000, 0.03149600000000000316 ) ) ;
#172 = CARTESIAN_POINT ( 'NONE',  ( 0.0000000000000000000, 0.0000000000000000000, 0.0000000000000000000 ) ) ;
#173 = CARTESIAN_POINT ( 'NONE',  ( -0.01574642519999999712, 0.0000000000000000000, 0.03149600000000000316 ) ) ;
#174 = ADVANCED_FACE ( 'NONE', ( #252 ), #53, .T. ) ;
#175 = ORIENTED_EDGE ( 'NONE', *, *, #168, .F. ) ;
#176 = ORIENTED_EDGE ( 'NONE', *, *, #133, .F. ) ;
#177 = FILL_AREA_STYLE_COLOUR ( '', #284 ) ;
#178 = CIRCLE ( 'NONE', #17, 0.01476400000000002537 ) ;
#179 = DIRECTION ( 'NONE',  ( 1.000000000000000000, 0.0000000000000000000, 0.0000000000000000000 ) ) ;
#180 = LENGTH_MEASURE_WITH_UNIT ( LENGTH_MEASURE( 0.02539999999999999897 ), #359 );
#181 = CARTESIAN_POINT ( 'NONE',  ( 0.0000000000000000000, 0.0000000000000000000, 0.0000000000000000000 ) ) ;
#182 =( NAMED_UNIT ( * ) PLANE_ANGLE_UNIT ( ) SI_UNIT ( $, .RADIAN. ) );
#183 = SURFACE_SIDE_STYLE ('',( #242 ) ) ;
#184 = CIRCLE ( 'NONE', #16, 0.01574642519999999712 ) ;
#185 = VERTEX_POINT ( 'NONE', #192 ) ;
#186 = EDGE_CURVE ( 'NONE', #241, #148, #96, .T. ) ;
#187 = PRODUCT_DEFINITION_CONTEXT ( 'detailed design', #278, 'design' ) ;
#188 = DIRECTION ( 'NONE',  ( -0.0000000000000000000, -0.0000000000000000000, -1.000000000000000000 ) ) ;
#189 = DIRECTION ( 'NONE',  ( -1.000000000000000000, 0.0000000000000000000, 0.0000000000000000000 ) ) ;
#190 = AXIS2_PLACEMENT_3D ( 'NONE', #92, #248, #69 ) ;
#191 = VECTOR ( 'NONE', #130, 39.37007874015748143 ) ;
#192 = CARTESIAN_POINT ( 'NONE',  ( 0.01476400000000002710, 1.808068534261155488E-18, 0.2047239999999999893 ) ) ;
#193 = VERTEX_POINT ( 'NONE', #222 ) ;
#194 = DIRECTION ( 'NONE',  ( -0.0000000000000000000, -0.0000000000000000000, -1.000000000000000000 ) ) ;
#195 = PLANE ( 'NONE',  #275 ) ;
#196 = DIRECTION ( 'NONE',  ( -1.000000000000000000, 0.0000000000000000000, 0.0000000000000000000 ) ) ;
#197 = DIRECTION ( 'NONE',  ( -1.000000000000000000, 0.0000000000000000000, 0.0000000000000000000 ) ) ;
#198 = PRODUCT_DEFINITION_FORMATION_WITH_SPECIFIED_SOURCE ( 'ANY', '', #230, .NOT_KNOWN. ) ;
#199 = DIRECTION ( 'NONE',  ( -1.000000000000000000, 0.0000000000000000000, 0.0000000000000000000 ) ) ;
#200 = ORIENTED_EDGE ( 'NONE', *, *, #263, .F. ) ;
#201 = DIRECTION ( 'NONE',  ( -0.0000000000000000000, -0.0000000000000000000, -1.000000000000000000 ) ) ;
#202 = ADVANCED_FACE ( 'NONE', ( #74 ), #195, .T. ) ;
#203 = DIRECTION ( 'NONE',  ( -1.000000000000000000, 0.0000000000000000000, 0.0000000000000000000 ) ) ;
#204 = AXIS2_PLACEMENT_3D ( 'NONE', #243, #150, #61 ) ;
#205 = AXIS2_PLACEMENT_3D ( 'NONE', #171, #344, #203 ) ;
#206 = CARTESIAN_POINT ( 'NONE',  ( 0.0000000000000000000, 0.0000000000000000000, 0.2047239999999998505 ) ) ;
#207 = EDGE_CURVE ( 'NONE', #148, #117, #128, .T. ) ;
#208 = FILL_AREA_STYLE_COLOUR ( '', #59 ) ;
#209 = EDGE_LOOP ( 'NONE', ( #51, #146 ) ) ;
#210 =( NAMED_UNIT ( * ) SI_UNIT ( $, .STERADIAN. ) SOLID_ANGLE_UNIT ( ) );
#211 = ORIENTED_EDGE ( 'NONE', *, *, #107, .T. ) ;
#212 = DIRECTION ( 'NONE',  ( 1.000000000000000000, 0.0000000000000000000, 0.0000000000000000000 ) ) ;
#213 = AXIS2_PLACEMENT_3D ( 'NONE', #104, #256, #164 ) ;
#214 = DIMENSIONAL_EXPONENTS ( 1.000000000000000000, 0.0000000000000000000, 0.0000000000000000000, 0.0000000000000000000, 0.0000000000000000000, 0.0000000000000000000, 0.0000000000000000000 ) ;
#215 = SHAPE_DEFINITION_REPRESENTATION ( #341, #129 ) ;
#216 = ADVANCED_FACE ( 'NONE', ( #311 ), #120, .T. ) ;
#217 = ORIENTED_EDGE ( 'NONE', *, *, #168, .T. ) ;
#218 = FACE_BOUND ( 'NONE', #143, .T. ) ;
#219 = UNCERTAINTY_MEASURE_WITH_UNIT (LENGTH_MEASURE( 1.000000000000000082E-05 ), #80, 'distance_accuracy_value', 'NONE');
#220 = DIRECTION ( 'NONE',  ( -0.0000000000000000000, -0.0000000000000000000, -1.000000000000000000 ) ) ;
#221 = CIRCLE ( 'NONE', #371, 0.1181100000000000066 ) ;
#222 = CARTESIAN_POINT ( 'NONE',  ( 0.01476400000000000629, 1.868224728090237363E-18, 0.03706761017589425139 ) ) ;
#223 = EDGE_CURVE ( 'NONE', #35, #148, #45, .T. ) ;
#224 = CARTESIAN_POINT ( 'NONE',  ( 0.1181100000000000066, 1.446430334472939084E-17, 2.229093999999999465 ) ) ;
#225 = CARTESIAN_POINT ( 'NONE',  ( 0.0000000000000000000, 0.0000000000000000000, 0.03149600000000000316 ) ) ;
#226 = EDGE_CURVE ( 'NONE', #288, #35, #100, .T. ) ;
#227 = CIRCLE ( 'NONE', #13, 0.01574642519999999712 ) ;
#228 = CARTESIAN_POINT ( 'NONE',  ( -0.1031100000000002570, 0.0000000000000000000, 2.244094000000000033 ) ) ;
#229 = CYLINDRICAL_SURFACE ( 'NONE', #328, 0.01476400000000001669 ) ;
#230 = PRODUCT ( 'Micro_SFBM-008-5X', 'Micro_SFBM-008-5X', '', ( #325 ) ) ;
#231 = DIRECTION ( 'NONE',  ( -1.000000000000000000, 0.0000000000000000000, 0.0000000000000000000 ) ) ;
#232 = LINE ( 'NONE', #81, #160 ) ;
#233 = ORIENTED_EDGE ( 'NONE', *, *, #94, .T. ) ;
#234 = FACE_OUTER_BOUND ( 'NONE', #126, .T. ) ;
#235 = ORIENTED_EDGE ( 'NONE', *, *, #57, .F. ) ;
#236 = ORIENTED_EDGE ( 'NONE', *, *, #223, .T. ) ;
#237 = DIRECTION ( 'NONE',  ( -0.0000000000000000000, -0.0000000000000000000, -1.000000000000000000 ) ) ;
#238 = VECTOR ( 'NONE', #194, 39.37007874015748143 ) ;
#239 = DIMENSIONAL_EXPONENTS ( 1.000000000000000000, 0.0000000000000000000, 0.0000000000000000000, 0.0000000000000000000, 0.0000000000000000000, 0.0000000000000000000, 0.0000000000000000000 ) ;
#240 = ORIENTED_EDGE ( 'NONE', *, *, #131, .T. ) ;
#241 = VERTEX_POINT ( 'NONE', #224 ) ;
#242 = SURFACE_STYLE_FILL_AREA ( #116 ) ;
#243 = CARTESIAN_POINT ( 'NONE',  ( 0.0000000000000000000, 0.0000000000000000000, 2.244094000000000033 ) ) ;
#244 = FACE_OUTER_BOUND ( 'NONE', #34, .T. ) ;
#245 = PRODUCT_DEFINITION ( 'UNKNOWN', '', #198, #187 ) ;
#246 = AXIS2_PLACEMENT_3D ( 'NONE', #181, #38, #152 ) ;
#247 = PLANE ( 'NONE',  #52 ) ;
#248 = DIRECTION ( 'NONE',  ( -0.0000000000000000000, -0.0000000000000000000, -1.000000000000000000 ) ) ;
#249 = EDGE_CURVE ( 'NONE', #49, #331, #71, .T. ) ;
#250 = DIRECTION ( 'NONE',  ( -1.000000000000000000, 0.0000000000000000000, 0.0000000000000000000 ) ) ;
#251 = CONICAL_SURFACE ( 'NONE', #205, 0.01574642519999999712, 0.1745329251994330588 ) ;
#252 = FACE_OUTER_BOUND ( 'NONE', #140, .T. ) ;
#253 = DIRECTION ( 'NONE',  ( 0.0000000000000000000, 0.0000000000000000000, -1.000000000000000000 ) ) ;
#254 = VECTOR ( 'NONE', #162, 39.37007874015748143 ) ;
#255 = DIRECTION ( 'NONE',  ( 1.000000000000000000, 0.0000000000000000000, -0.0000000000000000000 ) ) ;
#256 = DIRECTION ( 'NONE',  ( -0.0000000000000000000, -0.0000000000000000000, -1.000000000000000000 ) ) ;
#257 = APPLICATION_CONTEXT ( 'automotive_design' ) ;
#258 = DIRECTION ( 'NONE',  ( -0.0000000000000000000, -0.0000000000000000000, -1.000000000000000000 ) ) ;
#259 = ORIENTED_EDGE ( 'NONE', *, *, #343, .F. ) ;
#260 = DIRECTION ( 'NONE',  ( -0.0000000000000000000, -0.0000000000000000000, -1.000000000000000000 ) ) ;
#261 = EDGE_LOOP ( 'NONE', ( #318, #124, #273, #169 ) ) ;
#262 = CARTESIAN_POINT ( 'NONE',  ( -0.01574642519999999712, 0.0000000000000000000, 0.0000000000000000000 ) ) ;
#263 = EDGE_CURVE ( 'NONE', #91, #193, #105, .T. ) ;
#264 = ORIENTED_EDGE ( 'NONE', *, *, #135, .T. ) ;
#265 = ORIENTED_EDGE ( 'NONE', *, *, #263, .T. ) ;
#266 = PRESENTATION_LAYER_ASSIGNMENT (  '', '', ( #142 ) ) ;
#267 = ORIENTED_EDGE ( 'NONE', *, *, #9, .T. ) ;
#268 = APPLICATION_PROTOCOL_DEFINITION ( 'draft international standard', 'automotive_design', 1998, #257 ) ;
#269 = DIRECTION ( 'NONE',  ( 1.000000000000000000, 0.0000000000000000000, -0.0000000000000000000 ) ) ;
#270 = DIMENSIONAL_EXPONENTS ( 1.000000000000000000, 0.0000000000000000000, 0.0000000000000000000, 0.0000000000000000000, 0.0000000000000000000, 0.0000000000000000000, 0.0000000000000000000 ) ;
#271 = ORIENTED_EDGE ( 'NONE', *, *, #186, .T. ) ;
#272 = CARTESIAN_POINT ( 'NONE',  ( 0.0000000000000000000, 0.0000000000000000000, 0.2047239999999999893 ) ) ;
#273 = ORIENTED_EDGE ( 'NONE', *, *, #108, .T. ) ;
#274 = CIRCLE ( 'NONE', #86, 0.01476400000000000629 ) ;
#275 = AXIS2_PLACEMENT_3D ( 'NONE', #72, #309, #255 ) ;
#276 = PLANE ( 'NONE',  #306 ) ;
#277 = DIRECTION ( 'NONE',  ( -0.0000000000000000000, -0.0000000000000000000, -1.000000000000000000 ) ) ;
#278 = APPLICATION_CONTEXT ( 'automotive_design' ) ;
#279 = DIRECTION ( 'NONE',  ( 1.000000000000000000, 0.0000000000000000000, 0.0000000000000000000 ) ) ;
#280 = CARTESIAN_POINT ( 'NONE',  ( 0.0000000000000000000, 0.0000000000000000000, 0.03149600000000000316 ) ) ;
#281 = EDGE_CURVE ( 'NONE', #163, #117, #221, .T. ) ;
#282 = CARTESIAN_POINT ( 'NONE',  ( 0.1031100000000002570, 1.354581824536888722E-17, 2.244094000000000033 ) ) ;
#283 = CIRCLE ( 'NONE', #115, 0.1031100000000002570 ) ;
#284 = COLOUR_RGB ( '',0.7921568627450980005, 0.8196078431372548767, 0.9333333333333333481 ) ;
#285 = FACE_OUTER_BOUND ( 'NONE', #26, .T. ) ;
#286 = ADVANCED_FACE ( 'NONE', ( #285 ), #132, .T. ) ;
#287 = CYLINDRICAL_SURFACE ( 'NONE', #27, 0.01574642519999999712 ) ;
#288 = VERTEX_POINT ( 'NONE', #282 ) ;
#289 = CYLINDRICAL_SURFACE ( 'NONE', #338, 0.01476400000000001669 ) ;
#290 = FACE_OUTER_BOUND ( 'NONE', #302, .T. ) ;
#291 = FACE_OUTER_BOUND ( 'NONE', #377, .T. ) ;
#292 = CYLINDRICAL_SURFACE ( 'NONE', #43, 0.01574642519999999712 ) ;
#293 = SURFACE_STYLE_FILL_AREA ( #56 ) ;
#294 = EDGE_LOOP ( 'NONE', ( #99, #118, #200, #369 ) ) ;
#295 = FACE_OUTER_BOUND ( 'NONE', #319, .T. ) ;
#296 = AXIS2_PLACEMENT_3D ( 'NONE', #4, #28, #30 ) ;
#297 = ADVANCED_FACE ( 'NONE', ( #134 ), #229, .T. ) ;
#298 = CARTESIAN_POINT ( 'NONE',  ( 0.0000000000000000000, 0.0000000000000000000, 0.03149600000000000316 ) ) ;
#299 = SURFACE_STYLE_USAGE ( .BOTH. , #183 ) ;
#300 = DIRECTION ( 'NONE',  ( 0.1736481776669304422, 2.126576849575772839E-17, -0.9848077530122080203 ) ) ;
#301 = MECHANICAL_DESIGN_GEOMETRIC_PRESENTATION_REPRESENTATION (  '', ( #370 ), #110 ) ;
#302 = EDGE_LOOP ( 'NONE', ( #145, #62, #151, #375 ) ) ;
#303 =( NAMED_UNIT ( * ) SI_UNIT ( $, .STERADIAN. ) SOLID_ANGLE_UNIT ( ) );
#304 = ADVANCED_FACE ( 'NONE', ( #234 ), #251, .T. ) ;
#305 = DIRECTION ( 'NONE',  ( 0.7071067811865358044, 8.659560562354788645E-17, -0.7071067811865590080 ) ) ;
#306 = AXIS2_PLACEMENT_3D ( 'NONE', #119, #40, #332 ) ;
#307 = AXIS2_PLACEMENT_3D ( 'NONE', #24, #113, #316 ) ;
#308 = ADVANCED_FACE ( 'NONE', ( #55 ), #292, .T. ) ;
#309 = DIRECTION ( 'NONE',  ( 0.0000000000000000000, 0.0000000000000000000, 1.000000000000000000 ) ) ;
#310 = UNCERTAINTY_MEASURE_WITH_UNIT (LENGTH_MEASURE( 1.000000000000000082E-05 ), #58, 'distance_accuracy_value', 'NONE');
#311 = FACE_OUTER_BOUND ( 'NONE', #261, .T. ) ;
#312 = ORIENTED_EDGE ( 'NONE', *, *, #249, .T. ) ;
#313 = DIRECTION ( 'NONE',  ( -0.0000000000000000000, -0.0000000000000000000, -1.000000000000000000 ) ) ;
#314 = ADVANCED_FACE ( 'NONE', ( #144 ), #87, .T. ) ;
#315 = CIRCLE ( 'NONE', #153, 0.1181100000000000066 ) ;
#316 = DIRECTION ( 'NONE',  ( -1.000000000000000000, 0.0000000000000000000, 0.0000000000000000000 ) ) ;
#317 = DIRECTION ( 'NONE',  ( -0.0000000000000000000, -0.0000000000000000000, -1.000000000000000000 ) ) ;
#318 = ORIENTED_EDGE ( 'NONE', *, *, #107, .F. ) ;
#319 = EDGE_LOOP ( 'NONE', ( #170, #346 ) ) ;
#320 = ORIENTED_EDGE ( 'NONE', *, *, #249, .F. ) ;
#321 =( LENGTH_UNIT ( ) NAMED_UNIT ( * ) SI_UNIT ( $, .METRE. ) );
#322 = AXIS2_PLACEMENT_3D ( 'NONE', #137, #258, #199 ) ;
#323 = AXIS2_PLACEMENT_3D ( 'NONE', #14, #365, #189 ) ;
#324 = CLOSED_SHELL ( 'NONE', ( #308, #297, #304, #314, #82, #286, #202, #174, #25, #216, #357, #350, #93 ) ) ;
#325 = PRODUCT_CONTEXT ( 'NONE', #257, 'mechanical' ) ;
#326 = CARTESIAN_POINT ( 'NONE',  ( -0.01476400000000002537, 0.0000000000000000000, 0.2047239999999999893 ) ) ;
#327 =( LENGTH_UNIT ( ) NAMED_UNIT ( * ) SI_UNIT ( $, .METRE. ) );
#328 = AXIS2_PLACEMENT_3D ( 'NONE', #75, #313, #47 ) ;
#329 = EDGE_LOOP ( 'NONE', ( #217, #312, #235, #167 ) ) ;
#330 = LENGTH_MEASURE_WITH_UNIT ( LENGTH_MEASURE( 0.02539999999999999897 ), #327 );
#331 = VERTEX_POINT ( 'NONE', #48 ) ;
#332 = DIRECTION ( 'NONE',  ( -1.000000000000000000, 0.0000000000000000000, 0.0000000000000000000 ) ) ;
#333 = VECTOR ( 'NONE', #355, 39.37007874015748143 ) ;
#334 = CARTESIAN_POINT ( 'NONE',  ( 0.1181100000000000066, 1.446430334472939084E-17, 0.2047239999999998505 ) ) ;
#335 = CARTESIAN_POINT ( 'NONE',  ( 0.01574642519999999712, 1.928380921919321933E-18, 0.0000000000000000000 ) ) ;
#336 = CARTESIAN_POINT ( 'NONE',  ( 0.0000000000000000000, 0.0000000000000000000, 2.229093999999999465 ) ) ;
#337 = PRESENTATION_LAYER_ASSIGNMENT (  '', '', ( #370 ) ) ;
#338 = AXIS2_PLACEMENT_3D ( 'NONE', #139, #260, #112 ) ;
#339 = EDGE_CURVE ( 'NONE', #185, #193, #54, .T. ) ;
#340 = CARTESIAN_POINT ( 'NONE',  ( -0.01476400000000001669, 0.0000000000000000000, 0.0000000000000000000 ) ) ;
#341 = PRODUCT_DEFINITION_SHAPE ( 'NONE', 'NONE',  #245 ) ;
#342 = DIRECTION ( 'NONE',  ( -1.000000000000000000, 0.0000000000000000000, 0.0000000000000000000 ) ) ;
#343 = EDGE_CURVE ( 'NONE', #117, #163, #348, .T. ) ;
#344 = DIRECTION ( 'NONE',  ( -0.0000000000000000000, -0.0000000000000000000, -1.000000000000000000 ) ) ;
#345 = CARTESIAN_POINT ( 'NONE',  ( 0.0000000000000000000, 0.0000000000000000000, 0.0000000000000000000 ) ) ;
#346 = ORIENTED_EDGE ( 'NONE', *, *, #44, .T. ) ;
#347 = CIRCLE ( 'NONE', #246, 0.01574642519999999712 ) ;
#348 = CIRCLE ( 'NONE', #37, 0.1181100000000000066 ) ;
#349 = EDGE_LOOP ( 'NONE', ( #138, #264, #358, #11 ) ) ;
#350 = ADVANCED_FACE ( 'NONE', ( #291 ), #287, .T. ) ;
#351 = SURFACE_SIDE_STYLE ('',( #293 ) ) ;
#352 = CARTESIAN_POINT ( 'NONE',  ( 0.0000000000000000000, 0.0000000000000000000, 2.244094000000000033 ) ) ;
#353 = EDGE_CURVE ( 'NONE', #185, #39, #155, .T. ) ;
#354 = ORIENTED_EDGE ( 'NONE', *, *, #133, .T. ) ;
#355 = DIRECTION ( 'NONE',  ( -0.1736481776669304422, 0.0000000000000000000, -0.9848077530122080203 ) ) ;
#356 = AXIS2_PLACEMENT_3D ( 'NONE', #336, #136, #279 ) ;
#357 = ADVANCED_FACE ( 'NONE', ( #290 ), #289, .T. ) ;
#358 = ORIENTED_EDGE ( 'NONE', *, *, #94, .F. ) ;
#359 =( LENGTH_UNIT ( ) NAMED_UNIT ( * ) SI_UNIT ( $, .METRE. ) );
#360 = CARTESIAN_POINT ( 'NONE',  ( 0.0000000000000000000, 0.0000000000000000000, 0.0000000000000000000 ) ) ;
#361 = CYLINDRICAL_SURFACE ( 'NONE', #204, 0.1181100000000000066 ) ;
#362 = DIRECTION ( 'NONE',  ( -1.000000000000000000, 0.0000000000000000000, 0.0000000000000000000 ) ) ;
#363 =( GEOMETRIC_REPRESENTATION_CONTEXT ( 3 ) GLOBAL_UNCERTAINTY_ASSIGNED_CONTEXT ( ( #67 ) ) GLOBAL_UNIT_ASSIGNED_CONTEXT ( ( #121, #63, #89 ) ) REPRESENTATION_CONTEXT ( 'NONE', 'WORKASPACE' ) );
#364 = DIRECTION ( 'NONE',  ( -1.000000000000000000, 0.0000000000000000000, 0.0000000000000000000 ) ) ;
#365 = DIRECTION ( 'NONE',  ( -0.0000000000000000000, -0.0000000000000000000, -1.000000000000000000 ) ) ;
#366 = CARTESIAN_POINT ( 'NONE',  ( -0.1181100000000000066, 0.0000000000000000000, 2.229093999999999465 ) ) ;
#367 = CARTESIAN_POINT ( 'NONE',  ( 0.0000000000000000000, 0.0000000000000000000, 2.244094000000000033 ) ) ;
#368 = EDGE_CURVE ( 'NONE', #241, #163, #232, .T. ) ;
#369 = ORIENTED_EDGE ( 'NONE', *, *, #149, .F. ) ;
#370 = STYLED_ITEM ( 'NONE', ( #33 ), #20 ) ;
#371 = AXIS2_PLACEMENT_3D ( 'NONE', #161, #159, #46 ) ;
#372 = ORIENTED_EDGE ( 'NONE', *, *, #186, .F. ) ;
#373 = ORIENTED_EDGE ( 'NONE', *, *, #108, .F. ) ;
#374 = FACE_OUTER_BOUND ( 'NONE', #209, .T. ) ;
#375 = ORIENTED_EDGE ( 'NONE', *, *, #123, .F. ) ;
#376 = VECTOR ( 'NONE', #305, 39.37007874015748854 ) ;
#377 = EDGE_LOOP ( 'NONE', ( #320, #240, #267, #22 ) ) ;
#378 = EDGE_CURVE ( 'NONE', #39, #185, #178, .T. ) ;
#379 = CARTESIAN_POINT ( 'NONE',  ( -0.01574642519999999712, 0.0000000000000000000, 0.03149600000000000316 ) ) ;
ENDSEC;
END-ISO-10303-21;
